  0
SECTION
  2
HEADER
  9
$ACADVER
  1
AC1014
  9
$ACADMAINTVER
 70
               0
  9
$DWGCODEPAGE
  3
ANSI_932
  9
$INSBASE
 10
0.0
 20
0.0
 30
0.0
  9
$EXTMIN
 10
0.0
 20
0.0
 30
0.0
  9
$EXTMAX
 10
1682.0
 20
1188.0
 30
0.0
  9
$LIMMIN
 10
0.0
 20
0.0
  9
$LIMMAX
 10
1682.0
 20
1188.0
  9
$ORTHOMODE
 70
               0
  9
$REGENMODE
 70
               1
  9
$FILLMODE
 70
               1
  9
$QTEXTMODE
 70
               0
  9
$MIRRTEXT
 70
               1
  9
$DRAGMODE
 70
               2
  9
$LTSCALE
 40
2.0
  9
$OSMODE
 70
               0
  9
$ATTMODE
 70
               1
  9
$TEXTSIZE
 40
0.2
  9
$TRACEWID
 40
0.05
  9
$TEXTSTYLE
  7
Standard
  9
$CLAYER
  8
0
  9
$CELTYPE
  6
Continuous
  9
$CECOLOR
 62
             256
  9
$CELTSCALE
 40
1.0
  9
$DELOBJ
 70
               1
  9
$DISPSILH
 70
               0
  9
$DIMSCALE
 40
1.0
  9
$DIMASZ
 40
0.18
  9
$DIMEXO
 40
0.0625
  9
$DIMDLI
 40
0.38
  9
$DIMRND
 40
0.0
  9
$DIMDLE
 40
0.0
  9
$DIMEXE
 40
0.18
  9
$DIMTP
 40
0.0
  9
$DIMTM
 40
0.0
  9
$DIMTXT
 40
0.18
  9
$DIMCEN
 40
0.09
  9
$DIMTSZ
 40
0.0
  9
$DIMTOL
 70
               0
  9
$DIMLIM
 70
               0
  9
$DIMTIH
 70
               1
  9
$DIMTOH
 70
               1
  9
$DIMSE1
 70
               0
  9
$DIMSE2
 70
               0
  9
$DIMTAD
 70
               0
  9
$DIMZIN
 70
               0
  9
$DIMBLK
  1

  9
$DIMASO
 70
               1
  9
$DIMSHO
 70
               1
  9
$DIMPOST
  1

  9
$DIMAPOST
  1

  9
$DIMALT
 70
               0
  9
$DIMALTD
 70
               2
  9
$DIMALTF
 40
25.399999999999999
  9
$DIMLFAC
 40
1.0
  9
$DIMTOFL
 70
               0
  9
$DIMTVP
 40
0.0
  9
$DIMTIX
 70
               0
  9
$DIMSOXD
 70
               0
  9
$DIMSAH
 70
               0
  9
$DIMBLK1
  1

  9
$DIMBLK2
  1

  9
$DIMSTYLE
  2
Standard
  9
$DIMCLRD
 70
               0
  9
$DIMCLRE
 70
               0
  9
$DIMCLRT
 70
               0
  9
$DIMTFAC
 40
1.0
  9
$DIMGAP
 40
0.09
  9
$DIMJUST
 70
               0
  9
$DIMSD1
 70
               0
  9
$DIMSD2
 70
               0
  9
$DIMTOLJ
 70
               1
  9
$DIMTZIN
 70
               0
  9
$DIMALTZ
 70
               0
  9
$DIMALTTZ
 70
               0
  9
$DIMFIT
 70
               3
  9
$DIMUPT
 70
               0
  9
$DIMUNIT
 70
               2
  9
$DIMDEC
 70
               4
  9
$DIMTDEC
 70
               4
  9
$DIMALTU
 70
               2
  9
$DIMALTTD
 70
               2
  9
$DIMTXSTY
  7
Standard
  9
$DIMAUNIT
 70
               0
  9
$LUNITS
 70
               2
  9
$LUPREC
 70
               4
  9
$SKETCHINC
 40
0.1
  9
$FILLETRAD
 40
0.0
  9
$AUNITS
 70
               0
  9
$AUPREC
 70
               0
  9
$MENU
  1
acad
  9
$ELEVATION
 40
0.0
  9
$PELEVATION
 40
0.0
  9
$THICKNESS
 40
0.0
  9
$LIMCHECK
 70
               0
  9
$BLIPMODE
 70
               1
  9
$CHAMFERA
 40
0.0
  9
$CHAMFERB
 40
0.0
  9
$CHAMFERC
 40
0.0
  9
$CHAMFERD
 40
0.0
  9
$SKPOLY
 70
               0
  9
$TDCREATE
 40
0.000000000
  9
$TDUPDATE
 40
0.000000000
  9
$TDINDWG
 40
0.0000000000
  9
$TDUSRTIMER
 40
0.0000000000
  9
$USRTIMER
 70
               1
  9
$ANGBASE
 50
0.0
  9
$ANGDIR
 70
               0
  9
$PDMODE
 70
               0
  9
$PDSIZE
 40
0.0
  9
$PLINEWID
 40
0.0
  9
$COORDS
 70
               0
  9
$SPLFRAME
 70
               0
  9
$SPLINETYPE
 70
               6
  9
$SPLINESEGS
 70
               8
  9
$ATTDIA
 70
               0
  9
$ATTREQ
 70
               1
  9
$HANDLING
 70
               1
  9
$HANDSEED
  5
6D3
  9
$SURFTAB1
 70
               6
  9
$SURFTAB2
 70
               6
  9
$SURFTYPE
 70
               6
  9
$SURFU
 70
               6
  9
$SURFV
 70
               6
  9
$UCSNAME
  2

  9
$UCSORG
 10
0.0
 20
0.0
 30
0.0
  9
$UCSXDIR
 10
1.0
 20
0.0
 30
0.0
  9
$UCSYDIR
 10
0.0
 20
1.0
 30
0.0
  9
$PUCSNAME
  2

  9
$PUCSORG
 10
0.0
 20
0.0
 30
0.0
  9
$PUCSXDIR
 10
1.0
 20
0.0
 30
0.0
  9
$PUCSYDIR
 10
0.0
 20
1.0
 30
0.0
  9
$USERI1
 70
               0
  9
$USERI2
 70
               0
  9
$USERI3
 70
               0
  9
$USERI4
 70
               0
  9
$USERI5
 70
               0
  9
$USERR1
 40
0.0
  9
$USERR2
 40
0.0
  9
$USERR3
 40
0.0
  9
$USERR4
 40
0.0
  9
$USERR5
 40
0.0
  9
$WORLDVIEW
 70
               1
  9
$SHADEDGE
 70
               3
  9
$SHADEDIF
 70
              70
  9
$TILEMODE
 70
               1
  9
$MAXACTVP
 70
              16
  9
$PINSBASE
 10
0.0
 20
0.0
 30
0.0
  9
$PLIMCHECK
 70
               0
  9
$PEXTMIN
 10
1.0000000000000000E+20
 20
1.0000000000000000E+20
 30
1.0000000000000000E+20
  9
$PEXTMAX
 10
-1.0000000000000000E+20
 20
-1.0000000000000000E+20
 30
-1.0000000000000000E+20
  9
$PLIMMIN
 10
0.0
 20
0.0
  9
$PLIMMAX
 10
12.0
 20
9.0
  9
$UNITMODE
 70
               0
  9
$VISRETAIN
 70
               0
  9
$PLINEGEN
 70
               1
  9
$PSLTSCALE
 70
               0
  9
$TREEDEPTH
 70
            3020
  9
$PICKSTYLE
 70
               1
  9
$CMLSTYLE
  2
Standard
  9
$CMLJUST
 70
               0
  9
$CMLSCALE
 40
1.0
  9
$PROXYGRAPHICS
 70
               0
  9
$MEASUREMENT
 70
               0
  0
ENDSEC
  0
SECTION
  2
CLASSES
  0
CLASS
  1
LWPOLYLINE
  2
AcDbPolyline
  3
"AutoCAD"
 90
        0
280
               0
281
               1
  0
CLASS
  1
IMAGE
  2
AcDbRasterImage
  3
ISM
 90
      127
280
               0
281
               1
  0
CLASS
  1
OLE2FRAME
  2
AcDbOle2Frame
  3
""
 90
        0
280
               0
281
               1
  0
CLASS
  1
HATCH
  2
AcDbHatch
  3
"ACAD_SEDONA"
 90
        0
280
               0
281
               1
  0
CLASS
  1
DICTIONARYVAR
  2
AcDbDictionaryVar
  3
"AutoCAD"
 90
        0
280
               0
281
               0
  0
CLASS
  1
RASTERVARIABLES
  2
AcDbRasterVariables
  3
ISM
 90
        0
280
               0
281
               0
  0
CLASS
  1
IMAGEDEF
  2
AcDbRasterImageDef
  3
ISM
 90
        0
280
               0
281
               0
  0
CLASS
  1
IMAGEDEF_REACTOR
  2
AcDbRasterImageDefReactor
  3
ISM
 90
        1
280
               0
281
               0
  0
CLASS
  1
IDBUFFER
  2
AcDbIdBuffer
  3
"Acad"
 90
        0
280
               0
281
               0
  0
CLASS
  1
SPATIAL_FILTER
  2
AcDbSpatialFilter
  3
"Acad"
 90
        0
280
               0
281
               0
  0
CLASS
  1
XRECORD
  2
AcDbXrecord
  3
"<Built In>"
 90
        0
280
               0
281
               0
  0
CLASS
  1
SORTENTSTABLE
  2
AcDbSortentsTable
  3
"AutoCAD"
 90
        0
280
               0
281
               0
  0
CLASS
  1
LAYER_INDEX
  2
AcDbLayerIndex
  3
"Acad"
 90
        0
280
               0
281
               0
  0
CLASS
  1
SPATIAL_INDEX
  2
AcDbSpatialIndex
  3
"Acad"
 90
        0
280
               0
281
               0
  0
CLASS
  1
OBJECT_PTR
  2
CAseDLPNTableRecord
  3
"ASE-LPNTableRecord"
 90
        1
280
               0
281
               0
  0
CLASS
  1
LAYOUT
  2
AcDbLayout
  3
"AutoCAD 2000"
 90
        0
280
               0
281
               0
  0
CLASS
  1
PLOTSETTINGS
  2
AcDbPlotSettings
  3
"AutoCAD 2000"
 90
        0
280
               0
281
               0
  0
CLASS
  1
ACDBDICTIONARYWDFLT
  2
AcDbDictionaryWithDefault
  3
"AutoCAD 2000"
 90
        0
280
               0
281
               0
  0
CLASS
  1
ACDBPLACEHOLDER
  2
AcDbPlaceHolder
  3
"AutoCAD 2000"
 90
        0
280
               0
281
               0
  0
CLASS
  1
VBA_PROJECT
  2
AcDbVbaProject
  3
"acadvba"
 90
        0
280
               0
281
               0
  0
CLASS
  1
WIPEOUT
  2
AcDbWipeout
  3
WipeOut|AutoCAD Express Tool|expresstools@autodesk.com
 90
      127
280
               0
281
               1
  0
CLASS
  1
WIPEOUTVARIABLES
  2
AcDbWipeoutVariables
  3
WipeOut|AutoCAD Express Tool|expresstools@autodesk.com
 90
        0
280
               0
281
               0
  0
CLASS
  1
RTEXT
  2
RText
  3
RText|AutoCAD Express Tool|expresstools@autodesk.com
 90
        0
280
               0
281
               1
  0
CLASS
  1
ARCALIGNEDTEXT
  2
AcDbArcAlignedText
  3
ATEXT|AutoCAD Express Tool|expresstools@autodesk.com
 90
        0
280
               0
281
               1
  0
ENDSEC
  0
SECTION
  2
TABLES
  0
TABLE
  2
VPORT
  5
7
100
AcDbSymbolTable
 70
               1
  0
VPORT
  5
15
100
AcDbSymbolTableRecord
100
AcDbViewportTableRecord
  2
*ACTIVE
 70
               0
 10
0.0
 20
0.0
 11
1.0
 21
1.0
 12
841.0
 22
594.0
 13
0.0
 23
0.0
 14
10.0
 24
10.0
 15
10.0
 25
10.0
 16
0.0
 26
0.0
 36
1.0
 17
0.0
 27
0.0
 37
0.0
 40
1188.0
 41
1.4158249158249159
 42
50.0
 43
0.0
 44
0.0
 50
0.0
 51
0.0
 71
               0
 72
             100
 73
               1
 74
               1
 75
               0
 76
               0
 77
               0
 78
               0
  0
ENDTAB
  0
TABLE
  2
LTYPE
  5
4
100
AcDbSymbolTable
 70
              24
  0
LTYPE
  5
11
100
AcDbSymbolTableRecord
100
AcDbLinetypeTableRecord
  2
ByBlock
 70
              64
  3

 72
              65
 73
               0
 40
0.0
  0
LTYPE
  5
12
100
AcDbSymbolTableRecord
100
AcDbLinetypeTableRecord
  2
ByLayer
 70
              64
  3

 72
              65
 73
               0
 40
0.0
  0
LTYPE
  5
13
100
AcDbSymbolTableRecord
100
AcDbLinetypeTableRecord
  2
Continuous
 70
              64
  3
Solid line
 72
              65
 73
               0
 40
0.0
  0
LTYPE
  5
1D
100
AcDbSymbolTableRecord
100
AcDbLinetypeTableRecord
  2
DOT
 70
              64
  3
Dot . . . . . . . . . . . . . . . . . . . . . .
 72
              65
 73
               2
 40
6.3499999999999996
 49
0.35
 74
               0
 49
-6.0
 74
               0
  0
LTYPE
  5
1E
100
AcDbSymbolTableRecord
100
AcDbLinetypeTableRecord
  2
DASHED
 70
              64
  3
Dashed __ __ __ __ __ __ __ __ __ __ __ __ __ _
 72
              65
 73
               2
 40
12.699999999999999
 49
6.3499999999999996
 74
               0
 49
-6.3499999999999996
 74
               0
  0
LTYPE
  5
1F
100
AcDbSymbolTableRecord
100
AcDbLinetypeTableRecord
  2
DASHDOT
 70
              64
  3
Dash dot __ . __ . __ . __ . __ . __ . __ . __
 72
              65
 73
               4
 40
25.399999999999999
 49
12.699999999999999
 74
               0
 49
-6.0
 74
               0
 49
0.7
 74
               0
 49
-6.0
 74
               0
  0
LTYPE
  5
20
100
AcDbSymbolTableRecord
100
AcDbLinetypeTableRecord
  2
DIVIDE
 70
              64
  3
Divide ____ . . ____ . . ____ . . ____ . . ____
 72
              65
 73
               6
 40
31.75
 49
12.699999999999999
 74
               0
 49
-6.0
 74
               0
 49
0.875
 74
               0
 49
-6.0
 74
               0
 49
0.875
 74
               0
 49
-6.0
 74
               0
  0
LTYPE
  5
21
100
AcDbSymbolTableRecord
100
AcDbLinetypeTableRecord
  2
HIDDEN
 70
              64
  3
Hidden __ __ __ __ __ __ __ __ __ __ __ __ __ _
 72
              65
 73
               2
 40
9.5250000000000004
 49
6.3499999999999996
 74
               0
 49
-3.1749999999999998
 74
               0
  0
LTYPE
  5
22
100
AcDbSymbolTableRecord
100
AcDbLinetypeTableRecord
  2
CENTER
 70
              64
  3
Center ____ _ ____ _ ____ _ ____ _ ____ _ ____
 72
              65
 73
               4
 40
50.799999999999997
 49
31.75
 74
               0
 49
-6.3499999999999996
 74
               0
 49
6.3499999999999996
 74
               0
 49
-6.3499999999999996
 74
               0
  0
LTYPE
  5
23
100
AcDbSymbolTableRecord
100
AcDbLinetypeTableRecord
  2
PHANTOM
 70
              64
  3
Phantom ______  __  __  ______  __  __  ______
 72
              65
 73
               6
 40
63.5
 49
31.75
 74
               0
 49
-6.3499999999999996
 74
               0
 49
6.3499999999999996
 74
               0
 49
-6.3499999999999996
 74
               0
 49
6.3499999999999996
 74
               0
 49
-6.3499999999999996
 74
               0
  0
LTYPE
  5
24
100
AcDbSymbolTableRecord
100
AcDbLinetypeTableRecord
  2
ACAD_ISO02W100
 70
              64
  3
ISO dash __ __ __ __ __ __ __ __ __ __ __ __ __
 72
              65
 73
               2
 40
15.0
 49
12.0
 74
               0
 49
-3.0
 74
               0
  0
LTYPE
  5
25
100
AcDbSymbolTableRecord
100
AcDbLinetypeTableRecord
  2
ACAD_ISO03W100
 70
              64
  3
ISO dash space __ __ __ __ __ __ __ __ __ __ __ __ __ __
 72
              65
 73
               2
 40
30.0
 49
12.0
 74
               0
 49
-18.0
 74
               0
  0
LTYPE
  5
26
100
AcDbSymbolTableRecord
100
AcDbLinetypeTableRecord
  2
ACAD_ISO04W100
 70
              64
  3
ISO long-dash dot ____ . ____ . ____ . ____ . _
 72
              65
 73
               4
 40
30.0
 49
24.0
 74
               0
 49
-3.0
 74
               0
 49
0.0
 74
               0
 49
-3.0
 74
               0
  0
LTYPE
  5
27
100
AcDbSymbolTableRecord
100
AcDbLinetypeTableRecord
  2
ACAD_ISO05W100
 70
              64
  3
ISO long-dash double-dot ____ .. ____ .. ____ .
 72
              65
 73
               6
 40
33.0
 49
24.0
 74
               0
 49
-3.0
 74
               0
 49
0.0
 74
               0
 49
-3.0
 74
               0
 49
0.0
 74
               0
 49
-3.0
 74
               0
  0
LTYPE
  5
28
100
AcDbSymbolTableRecord
100
AcDbLinetypeTableRecord
  2
ACAD_ISO06W100
 70
              64
  3
ISO long-dash triple-dot ____ ... ____ ... ____
 72
              65
 73
               8
 40
36.0
 49
24.0
 74
               0
 49
-3.0
 74
               0
 49
0.0
 74
               0
 49
-3.0
 74
               0
 49
0.0
 74
               0
 49
-3.0
 74
               0
 49
0.0
 74
               0
 49
-3.0
 74
               0
  0
LTYPE
  5
29
100
AcDbSymbolTableRecord
100
AcDbLinetypeTableRecord
  2
ACAD_ISO07W100
 70
              64
  3
ISO dot . . . . . . . . . . . . . . . . . . . .
 72
              65
 73
               2
 40
3.0
 49
0.0
 74
               0
 49
-3.0
 74
               0
  0
LTYPE
  5
2A
100
AcDbSymbolTableRecord
100
AcDbLinetypeTableRecord
  2
ACAD_ISO08W100
 70
              64
  3
ISO long-dash short-dash ____ __ ____ __ ____ _
 72
              65
 73
               4
 40
36.0
 49
24.0
 74
               0
 49
-3.0
 74
               0
 49
6.0
 74
               0
 49
-3.0
 74
               0
  0
LTYPE
  5
2B
100
AcDbSymbolTableRecord
100
AcDbLinetypeTableRecord
  2
ACAD_ISO09W100
 70
              64
  3
ISO long-dash double-short-dash ____ __ __ ____
 72
              65
 73
               6
 40
45.0
 49
24.0
 74
               0
 49
-3.0
 74
               0
 49
6.0
 74
               0
 49
-3.0
 74
               0
 49
6.0
 74
               0
 49
-3.0
 74
               0
  0
LTYPE
  5
2C
100
AcDbSymbolTableRecord
100
AcDbLinetypeTableRecord
  2
ACAD_ISO10W100
 70
              64
  3
ISO dash dot __ . __ . __ . __ . __ . __ . __ .
 72
              65
 73
               4
 40
18.0
 49
12.0
 74
               0
 49
-3.0
 74
               0
 49
0.0
 74
               0
 49
-3.0
 74
               0
  0
LTYPE
  5
2D
100
AcDbSymbolTableRecord
100
AcDbLinetypeTableRecord
  2
ACAD_ISO11W100
 70
              64
  3
ISO double-dash dot __ __ . __ __ . __ __ . __ 
 72
              65
 73
               6
 40
33.0
 49
12.0
 74
               0
 49
-3.0
 74
               0
 49
12.0
 74
               0
 49
-3.0
 74
               0
 49
0.0
 74
               0
 49
-3.0
 74
               0
  0
LTYPE
  5
2E
100
AcDbSymbolTableRecord
100
AcDbLinetypeTableRecord
  2
ACAD_ISO12W100
 70
              64
  3
ISO dash double-dot __ . . __ . . __ . . __ . .
 72
              65
 73
               6
 40
21.0
 49
12.0
 74
               0
 49
-3.0
 74
               0
 49
0.0
 74
               0
 49
-3.0
 74
               0
 49
0.0
 74
               0
 49
-3.0
 74
               0
  0
LTYPE
  5
2F
100
AcDbSymbolTableRecord
100
AcDbLinetypeTableRecord
  2
ACAD_ISO13W100
 70
              64
  3
ISO double-dash double-dot __ __ . . __ __ . . 
 72
              65
 73
               8
 40
36.0
 49
12.0
 74
               0
 49
-3.0
 74
               0
 49
12.0
 74
               0
 49
-3.0
 74
               0
 49
0.0
 74
               0
 49
-3.0
 74
               0
 49
0.0
 74
               0
 49
-3.0
 74
               0
  0
LTYPE
  5
30
100
AcDbSymbolTableRecord
100
AcDbLinetypeTableRecord
  2
ACAD_ISO14W100
 70
              64
  3
ISO dash triple-dot __ . . . __ . . . __ . . . 
 72
              65
 73
               8
 40
24.0
 49
12.0
 74
               0
 49
-3.0
 74
               0
 49
0.0
 74
               0
 49
-3.0
 74
               0
 49
0.0
 74
               0
 49
-3.0
 74
               0
 49
0.0
 74
               0
 49
-3.0
 74
               0
  0
LTYPE
  5
31
100
AcDbSymbolTableRecord
100
AcDbLinetypeTableRecord
  2
ACAD_ISO15W100
 70
              64
  3
ISO double-dash double-dot __ __ . . __ __ . . 
 72
              65
 73
              10
 40
39.0
 49
12.0
 74
               0
 49
-3.0
 74
               0
 49
12.0
 74
               0
 49
-3.0
 74
               0
 49
0.0
 74
               0
 49
-3.0
 74
               0
 49
0.0
 74
               0
 49
-3.0
 74
               0
 49
0.0
 74
               0
 49
-3.0
 74
               0
  0
ENDTAB
  0
TABLE
  2
LAYER
  5
2
100
AcDbSymbolTable
 70
              17
  0
LAYER
  5
14
100
AcDbSymbolTableRecord
100
AcDbLayerTableRecord
  2
0
 70
               0
 62
               7
  6
Continuous
  0
LAYER
  5
35
100
AcDbSymbolTableRecord
100
AcDbLayerTableRecord
  2
1
 70
               0
 62
               7
  6
Continuous
  0
LAYER
  5
36
100
AcDbSymbolTableRecord
100
AcDbLayerTableRecord
  2
2
 70
               0
 62
               7
  6
Continuous
  0
LAYER
  5
37
100
AcDbSymbolTableRecord
100
AcDbLayerTableRecord
  2
3
 70
               0
 62
               7
  6
Continuous
  0
LAYER
  5
38
100
AcDbSymbolTableRecord
100
AcDbLayerTableRecord
  2
4
 70
               0
 62
               7
  6
Continuous
  0
LAYER
  5
39
100
AcDbSymbolTableRecord
100
AcDbLayerTableRecord
  2
5
 70
               0
 62
               7
  6
Continuous
  0
LAYER
  5
3A
100
AcDbSymbolTableRecord
100
AcDbLayerTableRecord
  2
6
 70
               0
 62
               7
  6
Continuous
  0
LAYER
  5
3B
100
AcDbSymbolTableRecord
100
AcDbLayerTableRecord
  2
7
 70
               0
 62
               7
  6
Continuous
  0
LAYER
  5
3C
100
AcDbSymbolTableRecord
100
AcDbLayerTableRecord
  2
8
 70
               0
 62
               7
  6
Continuous
  0
LAYER
  5
3D
100
AcDbSymbolTableRecord
100
AcDbLayerTableRecord
  2
9
 70
               0
 62
               7
  6
Continuous
  0
LAYER
  5
3E
100
AcDbSymbolTableRecord
100
AcDbLayerTableRecord
  2
10
 70
               0
 62
               7
  6
Continuous
  0
LAYER
  5
3F
100
AcDbSymbolTableRecord
100
AcDbLayerTableRecord
  2
11
 70
               0
 62
               7
  6
Continuous
  0
LAYER
  5
40
100
AcDbSymbolTableRecord
100
AcDbLayerTableRecord
  2
12
 70
               0
 62
               7
  6
Continuous
  0
LAYER
  5
41
100
AcDbSymbolTableRecord
100
AcDbLayerTableRecord
  2
13
 70
               0
 62
               7
  6
Continuous
  0
LAYER
  5
42
100
AcDbSymbolTableRecord
100
AcDbLayerTableRecord
  2
14
 70
               0
 62
               7
  6
Continuous
  0
LAYER
  5
43
100
AcDbSymbolTableRecord
100
AcDbLayerTableRecord
  2
15
 70
               0
 62
               7
  6
Continuous
  0
LAYER
  5
44
100
AcDbSymbolTableRecord
100
AcDbLayerTableRecord
  2
HOZYOTEN
 70
               0
 62
               7
  6
Continuous
  0
ENDTAB
  0
TABLE
  2
STYLE
  5
3
100
AcDbSymbolTable
 70
               4
  0
STYLE
  5
17
100
AcDbSymbolTableRecord
100
AcDbTextStyleTableRecord
  2
Standard
 70
               0
 40
0.0
 41
1.0
 50
0.0
 71
               0
 42
0.0
  3
txt.shx
  4
bigfont.shx
  0
STYLE
  5
32
100
AcDbSymbolTableRecord
100
AcDbTextStyleTableRecord
  2
STANDARD_T
 70
               4
 40
0.0
 41
1.0
 50
0.0
 71
               0
 42
0.0
  3
txt.shx
  4
bigfont.shx
  0
STYLE
  5
33
100
AcDbSymbolTableRecord
100
AcDbTextStyleTableRecord
  2
FontTableH_0
 70
               0
 40
0.0
 41
1.0
 50
0.0
 71
               0
 42
0.0
  3
MS Gothic.ttf
  4

1001
ACAD
1000
MS Gothic
1071
    32817
  0
STYLE
  5
34
100
AcDbSymbolTableRecord
100
AcDbTextStyleTableRecord
  2
FontTableV_0
 70
               0
 40
0.0
 41
1.0
 50
0.0
 71
               0
 42
0.0
  3
@MS Gothic.ttf
  4

1001
ACAD
1000
@MS Gothic
1071
    32817
  0
ENDTAB
  0
TABLE
  2
VIEW
  5
5
100
AcDbSymbolTable
 70
               0
  0
ENDTAB
  0
TABLE
  2
UCS
  5
6
100
AcDbSymbolTable
 70
               0
  0
ENDTAB
  0
TABLE
  2
APPID
  5
8
100
AcDbSymbolTable
 70
               1
  0
APPID
  5
16
100
AcDbSymbolTableRecord
100
AcDbRegAppTableRecord
  2
ACAD
 70
               0
  0
ENDTAB
  0
TABLE
  2
DIMSTYLE
  5
9
100
AcDbSymbolTable
 70
               1
  0
DIMSTYLE
105
18
100
AcDbSymbolTableRecord
100
AcDbDimStyleTableRecord
  2
Standard
 70
               0
  3

  4

  5

  6

  7

 40
1.0
 41
0.18
 42
0.0625
 43
0.38
 44
0.18
 45
0.0
 46
0.0
 47
0.0
 48
0.0
 71
               0
 72
               0
 73
               1
 74
               1
 75
               0
 76
               0
 77
               0
 78
               0
140
0.18
141
0.09
142
0.0
143
25.399999999999999
144
1.0
145
0.0
146
1.0
147
0.09
170
               0
171
               2
172
               0
173
               0
174
               0
175
               0
176
               0
177
               0
178
               0
270
               2
271
               4
272
               4
273
               2
274
               2
275
               0
280
               0
281
               0
282
               0
283
               1
284
               0
285
               0
286
               0
287
               0
288
               0
340
17
  0
ENDTAB
  0
TABLE
  2
BLOCK_RECORD
  5
1
100
AcDbSymbolTable
 70
               0
  0
BLOCK_RECORD
  5
A
100
AcDbSymbolTableRecord
100
AcDbBlockTableRecord
  2
*MODEL_SPACE
  0
BLOCK_RECORD
  5
B
100
AcDbSymbolTableRecord
100
AcDbBlockTableRecord
  2
*PAPER_SPACE
  0
ENDTAB
  0
ENDSEC
  0
SECTION
  2
BLOCKS
  0
BLOCK
  5
D
100
AcDbEntity
  8
0
100
AcDbBlockBegin
  2
*MODEL_SPACE
 70
               0
 10
0.0
 20
0.0
 30
0.0
  3
*MODEL_SPACE
  1

  0
ENDBLK
  5
E
100
AcDbEntity
  8
0
100
AcDbBlockEnd
  0
BLOCK
  5
F
100
AcDbEntity
 67
               1
  8
0
100
AcDbBlockBegin
  2
*PAPER_SPACE
 70
               0
 10
0.0
 20
0.0
 30
0.0
  3
*PAPER_SPACE
  1

  0
ENDBLK
  5
10
100
AcDbEntity
 67
               1
  8
0
100
AcDbBlockEnd
  0
ENDSEC
  0
SECTION
  2
ENTITIES
  0
LINE
  5
45
100
AcDbEntity
  8
0
  6
DASHDOT
 62
               4
100
AcDbLine
 10
1392.3345622060988
 20
1151.2932850864281
 30
0.0
 11
1392.3345622060988
 21
166.293285086428
 31
0.0
  0
LINE
  5
46
100
AcDbEntity
  8
0
  6
Continuous
 62
               7
100
AcDbLine
 10
992.33456220609889
 20
868.79328508642811
 30
0.0
 11
992.33456220609889
 21
1151.2932850864281
 31
0.0
  0
LINE
  5
47
100
AcDbEntity
  8
0
  6
Continuous
 62
               7
100
AcDbLine
 10
892.33456220609889
 20
833.79328508642811
 30
0.0
 11
892.33456220609889
 21
1151.2932850864281
 31
0.0
  0
LINE
  5
48
100
AcDbEntity
  8
0
  6
Continuous
 62
               4
100
AcDbLine
 10
872.33456220609889
 20
825.79328508642811
 30
0.0
 11
872.33456220609889
 21
1151.2932850864281
 31
0.0
  0
LINE
  5
49
100
AcDbEntity
  8
0
  6
Continuous
 62
               4
100
AcDbLine
 10
866.33456220609889
 20
825.79328508642811
 30
0.0
 11
866.33456220609889
 21
1151.2932850864281
 31
0.0
  0
LINE
  5
4A
100
AcDbEntity
  8
0
  6
DASHED
 62
               6
100
AcDbLine
 10
865.33456220609889
 20
826.2688985135369
 30
0.0
 11
865.33456220609889
 21
1151.2932850864281
 31
0.0
  0
LINE
  5
4B
100
AcDbEntity
  8
0
  6
Continuous
 62
               2
100
AcDbLine
 10
863.33456220609889
 20
823.79328508642811
 30
0.0
 11
864.03212694354022
 21
833.76892558902637
 31
0.0
  0
LINE
  5
4C
100
AcDbEntity
  8
0
  6
Continuous
 62
               4
100
AcDbLine
 10
892.33456220609889
 20
825.79328508642811
 30
0.0
 11
866.33456220609889
 21
825.79328508642811
 31
0.0
  0
LINE
  5
4D
100
AcDbEntity
  8
0
  6
Continuous
 62
               7
100
AcDbLine
 10
902.33456220609889
 20
858.79328508642811
 30
0.0
 11
982.33456220609889
 21
858.79328508642811
 31
0.0
  0
LINE
  5
4E
100
AcDbEntity
  8
0
  6
Continuous
 62
               4
100
AcDbLine
 10
867.83456220609844
 20
778.79328508642811
 30
0.0
 11
764.33456220609901
 21
778.79328508642811
 31
0.0
  0
LINE
  5
4F
100
AcDbEntity
  8
0
  6
Continuous
 62
               7
100
AcDbLine
 10
992.33456220609889
 20
868.79328508642811
 30
0.0
 11
982.33456220609889
 21
858.79328508642811
 31
0.0
  0
LINE
  5
50
100
AcDbEntity
  8
0
  6
Continuous
 62
               7
100
AcDbLine
 10
902.33456220609889
 20
858.79328508642811
 30
0.0
 11
892.33456220609889
 21
868.79328508642811
 31
0.0
  0
LINE
  5
51
100
AcDbEntity
  8
0
  6
Continuous
 62
               4
100
AcDbLine
 10
892.33456220609889
 20
825.79328508642811
 30
0.0
 11
892.33456220609889
 21
1151.2932850864281
 31
0.0
  0
LINE
  5
52
100
AcDbEntity
  8
0
  6
Continuous
 62
               7
100
AcDbLine
 10
892.33456220609889
 20
1093.6359975610471
 30
0.0
 11
992.33456220609889
 21
993.63599756104713
 31
0.0
  0
LINE
  5
53
100
AcDbEntity
  8
0
  6
Continuous
 62
               7
100
AcDbLine
 10
892.33456220609889
 20
1079.4938619373161
 30
0.0
 11
992.33456220609889
 21
979.49386193731607
 31
0.0
  0
LINE
  5
54
100
AcDbEntity
  8
0
  6
Continuous
 62
               4
100
AcDbLine
 10
890.29415713503215
 20
1025.7932850864281
 30
0.0
 11
892.33456220609889
 21
1023.7528800153611
 31
0.0
  0
LINE
  5
55
100
AcDbEntity
  8
0
  6
Continuous
 62
               4
100
AcDbLine
 10
883.22308932316685
 20
1025.7932850864281
 30
0.0
 11
892.33456220609889
 21
1016.6818122034958
 31
0.0
  0
LINE
  5
56
100
AcDbEntity
  8
0
  6
Continuous
 62
               4
100
AcDbLine
 10
876.15202151130131
 20
1025.7932850864281
 30
0.0
 11
892.33456220609889
 21
1009.6107443916303
 31
0.0
  0
LINE
  5
57
100
AcDbEntity
  8
0
  6
Continuous
 62
               4
100
AcDbLine
 10
872.33456220609889
 20
1022.5396765797648
 30
0.0
 11
892.33456220609889
 21
1002.5396765797648
 31
0.0
  0
LINE
  5
58
100
AcDbEntity
  8
0
  6
Continuous
 62
               4
100
AcDbLine
 10
872.33456220609889
 20
1015.4686087678992
 30
0.0
 11
892.33456220609889
 21
995.46860876789924
 31
0.0
  0
LINE
  5
59
100
AcDbEntity
  8
0
  6
Continuous
 62
               4
100
AcDbLine
 10
872.33456220609889
 20
1008.3975409560339
 30
0.0
 11
892.33456220609889
 21
988.39754095603394
 31
0.0
  0
LINE
  5
5A
100
AcDbEntity
  8
0
  6
Continuous
 62
               4
100
AcDbLine
 10
872.33456220609889
 20
1001.3264731441684
 30
0.0
 11
892.33456220609889
 21
981.3264731441684
 31
0.0
  0
LINE
  5
5B
100
AcDbEntity
  8
0
  6
Continuous
 62
               4
100
AcDbLine
 10
872.33456220609889
 20
994.25540533230287
 30
0.0
 11
892.33456220609889
 21
974.25540533230287
 31
0.0
  0
LINE
  5
5C
100
AcDbEntity
  8
0
  6
Continuous
 62
               4
100
AcDbLine
 10
872.33456220609889
 20
987.18433752043734
 30
0.0
 11
892.33456220609889
 21
967.18433752043734
 31
0.0
  0
LINE
  5
5D
100
AcDbEntity
  8
0
  6
Continuous
 62
               4
100
AcDbLine
 10
872.33456220609889
 20
980.11326970857203
 30
0.0
 11
892.33456220609889
 21
960.11326970857203
 31
0.0
  0
LINE
  5
5E
100
AcDbEntity
  8
0
  6
Continuous
 62
               4
100
AcDbLine
 10
872.33456220609889
 20
973.0422018967065
 30
0.0
 11
892.33456220609889
 21
953.0422018967065
 31
0.0
  0
LINE
  5
5F
100
AcDbEntity
  8
0
  6
Continuous
 62
               4
100
AcDbLine
 10
872.33456220609889
 20
965.97113408484097
 30
0.0
 11
892.33456220609889
 21
945.97113408484097
 31
0.0
  0
LINE
  5
60
100
AcDbEntity
  8
0
  6
Continuous
 62
               4
100
AcDbLine
 10
872.33456220609889
 20
958.90006627297544
 30
0.0
 11
892.33456220609889
 21
938.90006627297544
 31
0.0
  0
LINE
  5
61
100
AcDbEntity
  8
0
  6
Continuous
 62
               4
100
AcDbLine
 10
872.33456220609889
 20
951.82899846111013
 30
0.0
 11
892.33456220609889
 21
931.82899846111013
 31
0.0
  0
LINE
  5
62
100
AcDbEntity
  8
0
  6
Continuous
 62
               4
100
AcDbLine
 10
872.33456220609889
 20
944.7579306492446
 30
0.0
 11
892.33456220609889
 21
924.7579306492446
 31
0.0
  0
LINE
  5
63
100
AcDbEntity
  8
0
  6
Continuous
 62
               4
100
AcDbLine
 10
872.33456220609889
 20
937.68686283737907
 30
0.0
 11
892.33456220609889
 21
917.68686283737907
 31
0.0
  0
LINE
  5
64
100
AcDbEntity
  8
0
  6
Continuous
 62
               4
100
AcDbLine
 10
872.33456220609889
 20
930.61579502551353
 30
0.0
 11
892.33456220609889
 21
910.61579502551353
 31
0.0
  0
LINE
  5
65
100
AcDbEntity
  8
0
  6
Continuous
 62
               4
100
AcDbLine
 10
872.33456220609889
 20
923.54472721364823
 30
0.0
 11
892.33456220609889
 21
903.54472721364823
 31
0.0
  0
LINE
  5
66
100
AcDbEntity
  8
0
  6
Continuous
 62
               4
100
AcDbLine
 10
872.33456220609889
 20
916.4736594017827
 30
0.0
 11
892.33456220609889
 21
896.4736594017827
 31
0.0
  0
LINE
  5
67
100
AcDbEntity
  8
0
  6
Continuous
 62
               4
100
AcDbLine
 10
872.33456220609889
 20
909.40259158991717
 30
0.0
 11
892.33456220609889
 21
889.40259158991717
 31
0.0
  0
LINE
  5
68
100
AcDbEntity
  8
0
  6
Continuous
 62
               4
100
AcDbLine
 10
872.33456220609889
 20
902.33152377805163
 30
0.0
 11
892.33456220609889
 21
882.33152377805163
 31
0.0
  0
LINE
  5
69
100
AcDbEntity
  8
0
  6
Continuous
 62
               4
100
AcDbLine
 10
872.33456220609889
 20
895.26045596618633
 30
0.0
 11
892.33456220609889
 21
875.26045596618633
 31
0.0
  0
LINE
  5
6A
100
AcDbEntity
  8
0
  6
Continuous
 62
               4
100
AcDbLine
 10
872.33456220609889
 20
888.1893881543208
 30
0.0
 11
892.33456220609889
 21
868.1893881543208
 31
0.0
  0
LINE
  5
6B
100
AcDbEntity
  8
0
  6
Continuous
 62
               4
100
AcDbLine
 10
872.33456220609889
 20
881.11832034245526
 30
0.0
 11
892.33456220609889
 21
861.11832034245526
 31
0.0
  0
LINE
  5
6C
100
AcDbEntity
  8
0
  6
Continuous
 62
               4
100
AcDbLine
 10
872.33456220609889
 20
874.04725253058973
 30
0.0
 11
892.33456220609889
 21
854.04725253058973
 31
0.0
  0
LINE
  5
6D
100
AcDbEntity
  8
0
  6
Continuous
 62
               4
100
AcDbLine
 10
872.33456220609889
 20
866.97618471872443
 30
0.0
 11
892.33456220609889
 21
846.97618471872443
 31
0.0
  0
LINE
  5
6E
100
AcDbEntity
  8
0
  6
Continuous
 62
               4
100
AcDbLine
 10
872.33456220609889
 20
859.90511690685889
 30
0.0
 11
892.33456220609889
 21
839.90511690685889
 31
0.0
  0
LINE
  5
6F
100
AcDbEntity
  8
0
  6
Continuous
 62
               4
100
AcDbLine
 10
872.33456220609889
 20
852.83404909499336
 30
0.0
 11
892.33456220609889
 21
832.83404909499336
 31
0.0
  0
LINE
  5
70
100
AcDbEntity
  8
0
  6
Continuous
 62
               4
100
AcDbLine
 10
872.33456220609889
 20
845.76298128312783
 30
0.0
 11
892.30425840279884
 21
825.79328508642811
 31
0.0
  0
LINE
  5
71
100
AcDbEntity
  8
0
  6
Continuous
 62
               4
100
AcDbLine
 10
872.33456220609889
 20
838.69191347126252
 30
0.0
 11
885.2331905909333
 21
825.79328508642811
 31
0.0
  0
LINE
  5
72
100
AcDbEntity
  8
0
  6
Continuous
 62
               4
100
AcDbLine
 10
872.33456220609889
 20
831.62084565939699
 30
0.0
 11
878.162122779068
 21
825.79328508642811
 31
0.0
  0
LINE
  5
73
100
AcDbEntity
  8
0
  6
Continuous
 62
               4
100
AcDbLine
 10
892.33456220609889
 20
832.83404909499359
 30
0.0
 11
885.29379819753342
 21
825.79328508642811
 31
0.0
  0
LINE
  5
74
100
AcDbEntity
  8
0
  6
Continuous
 62
               4
100
AcDbLine
 10
892.33456220609889
 20
839.90511690685889
 30
0.0
 11
878.22273038566811
 21
825.79328508642811
 31
0.0
  0
LINE
  5
75
100
AcDbEntity
  8
0
  6
Continuous
 62
               4
100
AcDbLine
 10
892.33456220609889
 20
846.97618471872443
 30
0.0
 11
872.33456220609889
 21
826.97618471872443
 31
0.0
  0
LINE
  5
76
100
AcDbEntity
  8
0
  6
Continuous
 62
               4
100
AcDbLine
 10
892.33456220609889
 20
854.04725253058996
 30
0.0
 11
872.33456220609889
 21
834.04725253058996
 31
0.0
  0
LINE
  5
77
100
AcDbEntity
  8
0
  6
Continuous
 62
               4
100
AcDbLine
 10
892.33456220609889
 20
861.11832034245549
 30
0.0
 11
872.33456220609889
 21
841.11832034245549
 31
0.0
  0
LINE
  5
78
100
AcDbEntity
  8
0
  6
Continuous
 62
               4
100
AcDbLine
 10
892.33456220609889
 20
868.1893881543208
 30
0.0
 11
872.33456220609889
 21
848.1893881543208
 31
0.0
  0
LINE
  5
79
100
AcDbEntity
  8
0
  6
Continuous
 62
               4
100
AcDbLine
 10
892.33456220609889
 20
875.26045596618633
 30
0.0
 11
872.33456220609889
 21
855.26045596618633
 31
0.0
  0
LINE
  5
7A
100
AcDbEntity
  8
0
  6
Continuous
 62
               4
100
AcDbLine
 10
892.33456220609889
 20
882.33152377805186
 30
0.0
 11
872.33456220609889
 21
862.33152377805186
 31
0.0
  0
LINE
  5
7B
100
AcDbEntity
  8
0
  6
Continuous
 62
               4
100
AcDbLine
 10
892.33456220609889
 20
889.40259158991739
 30
0.0
 11
872.33456220609889
 21
869.40259158991739
 31
0.0
  0
LINE
  5
7C
100
AcDbEntity
  8
0
  6
Continuous
 62
               4
100
AcDbLine
 10
892.33456220609889
 20
896.4736594017827
 30
0.0
 11
872.33456220609889
 21
876.4736594017827
 31
0.0
  0
LINE
  5
7D
100
AcDbEntity
  8
0
  6
Continuous
 62
               4
100
AcDbLine
 10
892.33456220609889
 20
903.54472721364823
 30
0.0
 11
872.33456220609889
 21
883.54472721364823
 31
0.0
  0
LINE
  5
7E
100
AcDbEntity
  8
0
  6
Continuous
 62
               4
100
AcDbLine
 10
892.33456220609889
 20
910.61579502551376
 30
0.0
 11
872.33456220609889
 21
890.61579502551376
 31
0.0
  0
LINE
  5
7F
100
AcDbEntity
  8
0
  6
Continuous
 62
               4
100
AcDbLine
 10
892.33456220609889
 20
917.68686283737929
 30
0.0
 11
872.33456220609889
 21
897.68686283737929
 31
0.0
  0
LINE
  5
80
100
AcDbEntity
  8
0
  6
Continuous
 62
               4
100
AcDbLine
 10
892.33456220609889
 20
924.7579306492446
 30
0.0
 11
872.33456220609889
 21
904.7579306492446
 31
0.0
  0
LINE
  5
81
100
AcDbEntity
  8
0
  6
Continuous
 62
               4
100
AcDbLine
 10
892.33456220609889
 20
931.82899846111013
 30
0.0
 11
872.33456220609889
 21
911.82899846111013
 31
0.0
  0
LINE
  5
82
100
AcDbEntity
  8
0
  6
Continuous
 62
               4
100
AcDbLine
 10
892.33456220609889
 20
938.90006627297566
 30
0.0
 11
872.33456220609889
 21
918.90006627297566
 31
0.0
  0
LINE
  5
83
100
AcDbEntity
  8
0
  6
Continuous
 62
               4
100
AcDbLine
 10
892.33456220609889
 20
945.9711340848412
 30
0.0
 11
872.33456220609889
 21
925.9711340848412
 31
0.0
  0
LINE
  5
84
100
AcDbEntity
  8
0
  6
Continuous
 62
               4
100
AcDbLine
 10
892.33456220609889
 20
953.0422018967065
 30
0.0
 11
872.33456220609889
 21
933.0422018967065
 31
0.0
  0
LINE
  5
85
100
AcDbEntity
  8
0
  6
Continuous
 62
               4
100
AcDbLine
 10
892.33456220609889
 20
960.11326970857203
 30
0.0
 11
872.33456220609889
 21
940.11326970857203
 31
0.0
  0
LINE
  5
86
100
AcDbEntity
  8
0
  6
Continuous
 62
               4
100
AcDbLine
 10
892.33456220609889
 20
967.18433752043757
 30
0.0
 11
872.33456220609889
 21
947.18433752043757
 31
0.0
  0
LINE
  5
87
100
AcDbEntity
  8
0
  6
Continuous
 62
               4
100
AcDbLine
 10
892.33456220609889
 20
974.2554053323031
 30
0.0
 11
872.33456220609889
 21
954.2554053323031
 31
0.0
  0
LINE
  5
88
100
AcDbEntity
  8
0
  6
Continuous
 62
               4
100
AcDbLine
 10
892.33456220609889
 20
981.3264731441684
 30
0.0
 11
872.33456220609889
 21
961.3264731441684
 31
0.0
  0
LINE
  5
89
100
AcDbEntity
  8
0
  6
Continuous
 62
               4
100
AcDbLine
 10
892.33456220609889
 20
988.39754095603394
 30
0.0
 11
872.33456220609889
 21
968.39754095603394
 31
0.0
  0
LINE
  5
8A
100
AcDbEntity
  8
0
  6
Continuous
 62
               4
100
AcDbLine
 10
892.33456220609889
 20
995.46860876789947
 30
0.0
 11
872.33456220609889
 21
975.46860876789947
 31
0.0
  0
LINE
  5
8B
100
AcDbEntity
  8
0
  6
Continuous
 62
               4
100
AcDbLine
 10
892.33456220609889
 20
1002.539676579765
 30
0.0
 11
872.33456220609889
 21
982.539676579765
 31
0.0
  0
LINE
  5
8C
100
AcDbEntity
  8
0
  6
Continuous
 62
               4
100
AcDbLine
 10
892.33456220609889
 20
1009.6107443916303
 30
0.0
 11
872.33456220609889
 21
989.61074439163031
 31
0.0
  0
LINE
  5
8D
100
AcDbEntity
  8
0
  6
Continuous
 62
               4
100
AcDbLine
 10
892.33456220609889
 20
1016.6818122034958
 30
0.0
 11
872.33456220609889
 21
996.68181220349584
 31
0.0
  0
LINE
  5
8E
100
AcDbEntity
  8
0
  6
Continuous
 62
               4
100
AcDbLine
 10
892.33456220609889
 20
1023.7528800153614
 30
0.0
 11
872.33456220609889
 21
1003.7528800153614
 31
0.0
  0
LINE
  5
8F
100
AcDbEntity
  8
0
  6
Continuous
 62
               4
100
AcDbLine
 10
887.30389946530011
 20
1025.7932850864281
 30
0.0
 11
872.33456220609889
 21
1010.8239478272269
 31
0.0
  0
LINE
  5
90
100
AcDbEntity
  8
0
  6
Continuous
 62
               4
100
AcDbLine
 10
880.23283165343457
 20
1025.7932850864281
 30
0.0
 11
872.33456220609889
 21
1017.8950156390922
 31
0.0
  0
LINE
  5
91
100
AcDbEntity
  8
0
  6
Continuous
 62
               4
100
AcDbLine
 10
873.16176384156927
 20
1025.7932850864281
 30
0.0
 11
872.33456220609889
 21
1024.9660834509577
 31
0.0
  0
LINE
  5
92
100
AcDbEntity
  8
0
  6
Continuous
 62
               4
100
AcDbLine
 10
1392.3345622060988
 20
1104.7932850864281
 30
0.0
 11
942.33456220609889
 21
1104.7932850864281
 31
0.0
  0
LINE
  5
93
100
AcDbEntity
  8
0
  6
Continuous
 62
               4
100
AcDbLine
 10
992.33456220609889
 20
1090.7932850864281
 30
0.0
 11
892.33456220609889
 21
1090.7932850864281
 31
0.0
  0
LINE
  5
94
100
AcDbEntity
  8
0
  6
Continuous
 62
               4
100
AcDbLine
 10
892.33456220609889
 20
1090.7932850864281
 30
0.0
 11
862.33456220609889
 21
1090.7932850864281
 31
0.0
  0
LINE
  5
95
100
AcDbEntity
  8
0
  6
Continuous
 62
               4
100
AcDbLine
 10
866.33456220609889
 20
1076.7932850864281
 30
0.0
 11
872.33456220609889
 21
1076.7932850864281
 31
0.0
  0
LINE
  5
96
100
AcDbEntity
  8
0
  6
Continuous
 62
               4
100
AcDbLine
 10
872.33456220609889
 20
1076.7932850864281
 30
0.0
 11
892.33456220609889
 21
1076.7932850864281
 31
0.0
  0
LINE
  5
97
100
AcDbEntity
  8
0
  6
Continuous
 62
               4
100
AcDbLine
 10
892.33456220609889
 20
1076.7932850864281
 30
0.0
 11
942.33456220609889
 21
1076.7932850864281
 31
0.0
  0
LINE
  5
98
100
AcDbEntity
  8
0
  6
Continuous
 62
               4
100
AcDbLine
 10
942.33456220609889
 20
1076.7932850864281
 30
0.0
 11
992.33456220609889
 21
1076.7932850864281
 31
0.0
  0
LINE
  5
99
100
AcDbEntity
  8
0
  6
Continuous
 62
               6
100
AcDbLine
 10
933.33456220609889
 20
854.79328508642811
 30
0.0
 11
933.33456220609889
 21
852.79328508642789
 31
0.0
  0
LINE
  5
9A
100
AcDbEntity
  8
0
  6
Continuous
 62
               6
100
AcDbLine
 10
996.33456220609889
 20
917.79328508642811
 30
0.0
 11
998.33456220609889
 21
917.79328508642811
 31
0.0
  0
LINE
  5
9B
100
AcDbEntity
  8
0
  6
Continuous
 62
               6
100
AcDbLine
 10
998.33456220609889
 20
917.79328508642811
 30
0.0
 11
998.33456220609889
 21
852.79328508642789
 31
0.0
  0
LINE
  5
9C
100
AcDbEntity
  8
0
  6
Continuous
 62
               6
100
AcDbLine
 10
998.33456220609889
 20
852.79328508642789
 30
0.0
 11
933.33456220609889
 21
852.79328508642789
 31
0.0
  0
LINE
  5
9D
100
AcDbEntity
  8
0
  6
Continuous
 62
               6
100
AcDbLine
 10
983.83456220609889
 20
858.79328508642811
 30
0.0
 11
937.33456220609889
 21
858.79328508642811
 31
0.0
  0
LINE
  5
9E
100
AcDbEntity
  8
0
  6
Continuous
 62
               6
100
AcDbLine
 10
992.33456220609889
 20
867.29328508642811
 30
0.0
 11
992.33456220609889
 21
913.79328508642811
 31
0.0
  0
LINE
  5
9F
100
AcDbEntity
  8
0
  6
Continuous
 62
               4
100
AcDbLine
 10
992.33456220609889
 20
1090.7932850864281
 30
0.0
 11
1392.3345622060988
 21
1090.7932850864281
 31
0.0
  0
LINE
  5
A0
100
AcDbEntity
  8
0
  6
Continuous
 62
               4
100
AcDbLine
 10
587.33456220609901
 20
1048.7932850864281
 30
0.0
 11
917.33456220609889
 21
1048.7932850864281
 31
0.0
  0
LINE
  5
A1
100
AcDbEntity
  8
0
  6
Continuous
 62
               4
100
AcDbLine
 10
792.33456220609901
 20
1034.7932850864281
 30
0.0
 11
587.33456220609901
 21
1034.7932850864281
 31
0.0
  0
LINE
  5
A2
100
AcDbEntity
  8
0
  6
Continuous
 62
               4
100
AcDbLine
 10
792.33456220609901
 20
1020.7932850864281
 30
0.0
 11
587.33456220609901
 21
1020.7932850864281
 31
0.0
  0
LINE
  5
A3
100
AcDbEntity
  8
0
  6
Continuous
 62
               4
100
AcDbLine
 10
792.33456220609901
 20
1006.7932850864281
 30
0.0
 11
587.33456220609901
 21
1006.7932850864281
 31
0.0
  0
LINE
  5
A4
100
AcDbEntity
  8
0
  6
Continuous
 62
               4
100
AcDbLine
 10
792.33456220609901
 20
992.79328508642811
 30
0.0
 11
587.33456220609901
 21
992.79328508642811
 31
0.0
  0
LINE
  5
A5
100
AcDbEntity
  8
0
  6
Continuous
 62
               4
100
AcDbLine
 10
917.33456220609889
 20
1048.7932850864281
 30
0.0
 11
911.53900724836456
 21
1047.2403708158131
 31
0.0
  0
LINE
  5
A6
100
AcDbEntity
  8
0
  6
Continuous
 62
               4
100
AcDbLine
 10
917.33456220609889
 20
1048.7932850864281
 30
0.0
 11
911.53900724836456
 21
1050.3461993570431
 31
0.0
  0
LINE
  5
A7
100
AcDbEntity
  8
0
  6
Continuous
 62
               7
100
AcDbLine
 10
1153.913320870081
 20
681.29328508642789
 30
0.0
 11
1153.913320870081
 21
621.29328508642789
 31
0.0
  0
LINE
  5
A8
100
AcDbEntity
  8
0
  6
Continuous
 62
               7
100
AcDbLine
 10
1173.913320870081
 20
681.29328508642789
 30
0.0
 11
1173.913320870081
 21
621.29328508642789
 31
0.0
  0
LINE
  5
A9
100
AcDbEntity
  8
0
  6
Continuous
 62
               7
100
AcDbLine
 10
696.33456220609901
 20
621.29328508642789
 30
0.0
 11
716.33456220609901
 21
621.29328508642789
 31
0.0
  0
LINE
  5
AA
100
AcDbEntity
  8
0
  6
Continuous
 62
               7
100
AcDbLine
 10
696.33456220609901
 20
681.29328508642789
 30
0.0
 11
716.33456220609901
 21
681.29328508642789
 31
0.0
  0
LINE
  5
AB
100
AcDbEntity
  8
0
  6
Continuous
 62
               7
100
AcDbLine
 10
696.33456220609901
 20
681.29328508642789
 30
0.0
 11
696.33456220609901
 21
621.29328508642789
 31
0.0
  0
LINE
  5
AC
100
AcDbEntity
  8
0
  6
Continuous
 62
               7
100
AcDbLine
 10
716.33456220609901
 20
681.29328508642789
 30
0.0
 11
716.33456220609901
 21
621.29328508642789
 31
0.0
  0
LINE
  5
AD
100
AcDbEntity
  8
0
  6
Continuous
 62
               7
100
AcDbLine
 10
1153.913320870081
 20
621.29328508642789
 30
0.0
 11
1173.913320870081
 21
621.29328508642789
 31
0.0
  0
LINE
  5
AE
100
AcDbEntity
  8
0
  6
Continuous
 62
               7
100
AcDbLine
 10
1153.913320870081
 20
681.29328508642789
 30
0.0
 11
1173.913320870081
 21
681.29328508642789
 31
0.0
  0
LINE
  5
AF
100
AcDbEntity
  8
0
  6
Continuous
 62
               2
100
AcDbLine
 10
864.33456220609889
 20
823.79328508642811
 30
0.0
 11
864.33456220609889
 21
922.79328508642811
 31
0.0
  0
LINE
  5
B0
100
AcDbEntity
  8
0
  6
Continuous
 62
               2
100
AcDbLine
 10
862.33456220609889
 20
823.79328508642811
 30
0.0
 11
862.33456220609889
 21
1151.2932850864281
 31
0.0
  0
LINE
  5
B1
100
AcDbEntity
  8
0
  6
Continuous
 62
               2
100
AcDbLine
 10
842.33456220609889
 20
843.79328508642811
 30
0.0
 11
842.33456220609889
 21
1151.2932850864281
 31
0.0
  0
LINE
  5
B2
100
AcDbEntity
  8
0
  6
Continuous
 62
               2
100
AcDbLine
 10
862.33456220609889
 20
823.79328508642811
 30
0.0
 11
842.33456220609889
 21
843.79328508642811
 31
0.0
  0
LINE
  5
B3
100
AcDbEntity
  8
0
  6
Continuous
 62
               2
100
AcDbLine
 10
862.81120264366939
 20
912.80698973888229
 30
0.0
 11
863.33456220609889
 21
922.79328508642811
 31
0.0
  0
LINE
  5
B4
100
AcDbEntity
  8
0
  6
DASHED
 62
               4
100
AcDbLine
 10
852.33456220609889
 20
833.79328508642811
 30
0.0
 11
852.33456220609889
 21
1151.2932850864281
 31
0.0
  0
LINE
  5
B5
100
AcDbEntity
  8
0
  6
Continuous
 62
               4
100
AcDbLine
 10
792.33456220609901
 20
992.79328508642811
 30
0.0
 11
792.33456220609901
 21
1048.7932850864281
 31
0.0
  0
LINE
  5
B6
100
AcDbEntity
  8
0
  6
Continuous
 62
               4
100
AcDbLine
 10
998.33456220609889
 20
885.29328508642811
 30
0.0
 11
1023.4492989158476
 21
928.79328508642811
 31
0.0
  0
LINE
  5
B7
100
AcDbEntity
  8
0
  6
Continuous
 62
               4
100
AcDbLine
 10
998.33456220609889
 20
885.29328508642811
 30
0.0
 11
999.88747647671414
 21
891.08884004416245
 31
0.0
  0
LINE
  5
B8
100
AcDbEntity
  8
0
  6
Continuous
 62
               4
100
AcDbLine
 10
998.33456220609889
 20
885.29328508642811
 30
0.0
 11
1002.5772028932182
 21
889.53592577354721
 31
0.0
  0
LINE
  5
B9
100
AcDbEntity
  8
0
  6
Continuous
 62
               4
100
AcDbLine
 10
822.47111419038595
 20
844.79328508642811
 30
0.0
 11
725.51775880125626
 21
844.79328508642811
 31
0.0
  0
LINE
  5
BA
100
AcDbEntity
  8
0
  6
Continuous
 62
               4
100
AcDbLine
 10
1023.4492989158476
 20
928.79328508642811
 30
0.0
 11
1127.3926975580798
 21
928.79328508642811
 31
0.0
  0
LINE
  5
BB
100
AcDbEntity
  8
0
  6
Continuous
 62
               4
100
AcDbLine
 10
862.33456220609889
 20
1090.7932850864281
 30
0.0
 11
842.33456220609889
 21
1090.7932850864281
 31
0.0
  0
LINE
  5
BC
100
AcDbEntity
  8
0
  6
Continuous
 62
               4
100
AcDbLine
 10
836.08456220609889
 20
872.79328508642811
 30
0.0
 11
753.18311185356697
 21
872.79328508642811
 31
0.0
  0
LINE
  5
BD
100
AcDbEntity
  8
0
  6
DASHDOT
 62
               7
100
AcDbLine
 10
912.33456220609889
 20
848.79328508642811
 30
0.0
 11
862.33456220609889
 21
848.79328508642811
 31
0.0
  0
LINE
  5
BE
100
AcDbEntity
  8
0
  6
DASHDOT
 62
               4
100
AcDbLine
 10
942.33456220609889
 20
1151.2932850864281
 30
0.0
 11
942.33456220609889
 21
166.293285086428
 31
0.0
  0
LINE
  5
BF
100
AcDbEntity
  8
0
  6
Continuous
 62
               6
100
AcDbLine
 10
928.33456220609844
 20
520.60584789418601
 30
0.0
 11
931.83456220609844
 21
517.10584789418601
 31
0.0
  0
LINE
  5
C0
100
AcDbEntity
  8
0
  6
Continuous
 62
               6
100
AcDbLine
 10
930.13456220609862
 20
516.68452755062617
 30
0.0
 11
931.83456220609844
 21
514.98452755062635
 31
0.0
  0
LINE
  5
C1
100
AcDbEntity
  8
0
  6
Continuous
 62
               6
100
AcDbLine
 10
927.49109133822083
 20
519.32799841850397
 30
0.0
 11
929.69109133822087
 21
517.12799841850392
 31
0.0
  0
LINE
  5
C2
100
AcDbEntity
  8
0
  6
Continuous
 62
               6
100
AcDbLine
 10
925.04109133822078
 20
521.77799841850401
 30
0.0
 11
925.83456220609844
 21
520.98452755062635
 31
0.0
  0
LINE
  5
C3
100
AcDbEntity
  8
0
  6
Continuous
 62
               6
100
AcDbLine
 10
930.13456220609862
 20
514.56320720706651
 30
0.0
 11
931.55217310526916
 21
513.14559630789631
 31
0.0
  0
LINE
  5
C4
100
AcDbEntity
  8
0
  6
Continuous
 62
               6
100
AcDbLine
 10
923.02984033930318
 20
521.66792907386207
 30
0.0
 11
927.56977099466133
 21
517.12799841850392
 31
0.0
  0
LINE
  5
C5
100
AcDbEntity
  8
0
  6
Continuous
 62
               6
100
AcDbLine
 10
928.6484506511016
 20
513.92799841850388
 30
0.0
 11
930.65108155339078
 21
511.92536751621481
 31
0.0
  0
LINE
  5
C6
100
AcDbEntity
  8
0
  6
Continuous
 62
               6
100
AcDbLine
 10
923.83456220609844
 20
518.74188686350703
 30
0.0
 11
925.83456220609844
 21
516.74188686350681
 31
0.0
  0
LINE
  5
C7
100
AcDbEntity
  8
0
  6
Continuous
 62
               6
100
AcDbLine
 10
921.69535878632644
 20
520.88109028327881
 30
0.0
 11
923.39854712728868
 21
519.17790194231657
 31
0.0
  0
LINE
  5
C8
100
AcDbEntity
  8
0
  6
Continuous
 62
               6
100
AcDbLine
 10
926.52713030754205
 20
513.92799841850388
 30
0.0
 11
929.74999000151263
 21
510.70513872453341
 31
0.0
  0
LINE
  5
C9
100
AcDbEntity
  8
0
  6
Continuous
 62
               6
100
AcDbLine
 10
923.83456220609844
 20
516.62056651994737
 30
0.0
 11
925.83456220609844
 21
514.62056651994726
 31
0.0
  0
LINE
  5
CA
100
AcDbEntity
  8
0
  6
Continuous
 62
               6
100
AcDbLine
 10
920.92938845116134
 20
519.52574027488458
 30
0.0
 11
922.83459220609859
 21
517.62053651994711
 31
0.0
  0
LINE
  5
CB
100
AcDbEntity
  8
0
  6
Continuous
 62
               6
100
AcDbLine
 10
923.83456220609844
 20
514.49924617638771
 30
0.0
 11
926.60580996398232
 21
511.72799841850406
 31
0.0
  0
LINE
  5
CC
100
AcDbEntity
  8
0
  6
Continuous
 62
               6
100
AcDbLine
 10
920.83459220609859
 20
517.49921617638756
 30
0.0
 11
922.83459220609859
 21
515.49921617638756
 31
0.0
  0
LINE
  5
CD
100
AcDbEntity
  8
0
  6
Continuous
 62
               6
100
AcDbLine
 10
923.83456220609844
 20
512.37792583282817
 30
0.0
 11
925.83456220609844
 21
510.37792583282817
 31
0.0
  0
LINE
  5
CE
100
AcDbEntity
  8
0
  6
Continuous
 62
               6
100
AcDbLine
 10
920.83459220609859
 20
515.37789583282802
 30
0.0
 11
922.83459220609859
 21
513.37789583282802
 31
0.0
  0
LINE
  5
CF
100
AcDbEntity
  8
0
  6
Continuous
 62
               6
100
AcDbLine
 10
922.91659710889428
 20
511.17457058647256
 30
0.0
 11
924.31316927686305
 21
509.77799841850401
 31
0.0
  0
LINE
  5
D0
100
AcDbEntity
  8
0
  6
Continuous
 62
               6
100
AcDbLine
 10
920.83459220609859
 20
513.25657548926847
 30
0.0
 11
922.83459220609859
 21
511.25657548926824
 31
0.0
  0
LINE
  5
D1
100
AcDbEntity
  8
0
  6
Continuous
 62
               6
100
AcDbLine
 10
920.83459220609859
 20
511.13525514570881
 30
0.0
 11
922.14307828295489
 21
509.82676906885217
 31
0.0
  0
LINE
  5
D2
100
AcDbEntity
  8
0
  6
Continuous
 62
               6
100
AcDbLine
 10
875.40605025248954
 20
781.72169736933643
 30
0.0
 11
875.96297448900702
 21
781.16477313281916
 31
0.0
  0
LINE
  5
D3
100
AcDbEntity
  8
0
  6
Continuous
 62
               6
100
AcDbLine
 10
873.88867518999029
 20
781.11775208827635
 30
0.0
 11
875.23456220609853
 21
779.77186507216811
 31
0.0
  0
LINE
  5
D4
100
AcDbEntity
  8
0
  6
Continuous
 62
               6
100
AcDbLine
 10
874.33455220609869
 20
778.5505547286084
 30
0.0
 11
874.87947596159631
 21
778.00563097311056
 31
0.0
  0
LINE
  5
D5
100
AcDbEntity
  8
0
  6
Continuous
 62
               6
100
AcDbLine
 10
873.83456220609844
 20
779.05054472860843
 30
0.0
 11
874.09182947767897
 21
778.79327745702813
 31
0.0
  0
LINE
  5
D6
100
AcDbEntity
  8
0
  6
Continuous
 62
               6
100
AcDbLine
 10
874.21534350792956
 20
776.54844308321799
 30
0.0
 11
874.84269009213051
 21
775.92109649901681
 31
0.0
  0
LINE
  5
D7
100
AcDbEntity
  8
0
  6
Continuous
 62
               6
100
AcDbLine
 10
874.25345102419271
 20
774.38901522339529
 30
0.0
 11
874.80590422266471
 21
773.83656202492307
 31
0.0
  0
LINE
  5
D8
100
AcDbEntity
  8
0
  6
Continuous
 62
               6
100
AcDbLine
 10
874.29155854045541
 20
772.22958736357259
 30
0.0
 11
874.76911835319868
 21
771.75202755082933
 31
0.0
  0
LINE
  5
D9
100
AcDbEntity
  8
0
  6
Continuous
 62
               6
100
AcDbLine
 10
874.32966605671857
 20
770.07015950374989
 30
0.0
 11
874.60654810344033
 21
769.79327745702813
 31
0.0
  0
LINE
  5
DA
100
AcDbEntity
  8
0
  6
Continuous
 62
               6
100
AcDbLine
 10
928.76086829176745
 20
770.79328620125193
 30
0.0
 11
931.3367546515891
 21
768.21739984143005
 31
0.0
  0
LINE
  5
DB
100
AcDbEntity
  8
0
  6
Continuous
 62
               6
100
AcDbLine
 10
927.8895490630315
 20
769.54328508642789
 30
0.0
 11
931.83456220609844
 21
765.59827194336117
 31
0.0
  0
LINE
  5
DC
100
AcDbEntity
  8
0
  6
Continuous
 62
               6
100
AcDbLine
 10
930.13456220609862
 20
765.17695159980121
 30
0.0
 11
931.77602813061765
 21
763.53548567528242
 31
0.0
  0
LINE
  5
DD
100
AcDbEntity
  8
0
  6
Continuous
 62
               6
100
AcDbLine
 10
924.01822871947195
 20
771.29328508642811
 30
0.0
 11
928.16822871947181
 21
767.14328508642802
 31
0.0
  0
LINE
  5
DE
100
AcDbEntity
  8
0
  6
Continuous
 62
               6
100
AcDbLine
 10
929.24690837591208
 20
763.94328508642798
 30
0.0
 11
930.90529332247945
 21
762.28490013986061
 31
0.0
  0
LINE
  5
DF
100
AcDbEntity
  8
0
  6
Continuous
 62
               6
100
AcDbLine
 10
922.83643064369505
 20
770.35376281864524
 30
0.0
 11
926.04690837591227
 21
767.14328508642802
 31
0.0
  0
LINE
  5
E0
100
AcDbEntity
  8
0
  6
Continuous
 62
               6
100
AcDbLine
 10
921.89901730346276
 20
771.29117615887753
 30
0.0
 11
922.83251316247072
 21
770.35768029986934
 31
0.0
  0
LINE
  5
E1
100
AcDbEntity
  8
0
  6
Continuous
 62
               6
100
AcDbLine
 10
927.12558803235254
 20
763.94328508642798
 30
0.0
 11
930.00420149512695
 21
761.06467162365379
 31
0.0
  0
LINE
  5
E2
100
AcDbEntity
  8
0
  6
Continuous
 62
               6
100
AcDbLine
 10
923.83456220609844
 20
767.23431091268208
 30
0.0
 11
925.83456220609844
 21
765.23431091268208
 31
0.0
  0
LINE
  5
E3
100
AcDbEntity
  8
0
  6
Continuous
 62
               6
100
AcDbLine
 10
920.83459220609859
 20
770.23428091268192
 30
0.0
 11
922.83459220609859
 21
768.23428091268192
 31
0.0
  0
LINE
  5
E4
100
AcDbEntity
  8
0
  6
Continuous
 62
               6
100
AcDbLine
 10
928.33456220609844
 20
760.61299056912253
 30
0.0
 11
928.65426768879308
 21
760.29328508642811
 31
0.0
  0
LINE
  5
E5
100
AcDbEntity
  8
0
  6
Continuous
 62
               6
100
AcDbLine
 10
923.83456220609844
 20
765.11299056912253
 30
0.0
 11
927.40426768879308
 21
761.54328508642811
 31
0.0
  0
LINE
  5
E6
100
AcDbEntity
  8
0
  6
Continuous
 62
               6
100
AcDbLine
 10
920.83459220609859
 20
768.11296056912238
 30
0.0
 11
922.83459220609859
 21
766.11296056912238
 31
0.0
  0
LINE
  5
E7
100
AcDbEntity
  8
0
  6
Continuous
 62
               6
100
AcDbLine
 10
923.83456220609844
 20
762.99167022556276
 30
0.0
 11
925.83456220609844
 21
760.99167022556276
 31
0.0
  0
LINE
  5
E8
100
AcDbEntity
  8
0
  6
Continuous
 62
               6
100
AcDbLine
 10
920.83459220609859
 20
765.99164022556283
 30
0.0
 11
922.83459220609859
 21
763.99164022556283
 31
0.0
  0
LINE
  5
E9
100
AcDbEntity
  8
0
  6
Continuous
 62
               6
100
AcDbLine
 10
920.83459220609859
 20
763.87031988200306
 30
0.0
 11
925.41162700167354
 21
759.29328508642811
 31
0.0
  0
LINE
  5
EA
100
AcDbEntity
  8
0
  6
Continuous
 62
               6
100
AcDbLine
 10
920.89660105920495
 20
761.68699068533692
 30
0.0
 11
923.22829780500763
 21
759.35529393953448
 31
0.0
  0
LINE
  5
EB
100
AcDbEntity
  8
0
  6
Continuous
 62
               6
100
AcDbLine
 10
990.23988206747219
 20
508.79328508642766
 30
0.0
 11
990.33456220609844
 21
508.88796522505402
 31
0.0
  0
LINE
  5
EC
100
AcDbEntity
  8
0
  6
DOT
 62
               4
100
AcDbLine
 10
900.10086514465877
 20
358.79328508642777
 30
0.0
 11
903.33456220609889
 21
355.55958802498776
 31
0.0
  0
LINE
  5
ED
100
AcDbEntity
  8
0
  6
DOT
 62
               4
100
AcDbLine
 10
893.02979733279346
 20
358.79328508642777
 30
0.0
 11
898.55334586137963
 21
353.26973655784161
 31
0.0
  0
LINE
  5
EE
100
AcDbEntity
  8
0
  6
DOT
 62
               4
100
AcDbLine
 10
885.95872952092793
 20
358.79328508642777
 30
0.0
 11
894.57557805164777
 21
350.17643655570782
 31
0.0
  0
LINE
  5
EF
100
AcDbEntity
  8
0
  6
DOT
 62
               4
100
AcDbLine
 10
878.8876617090624
 20
358.79328508642777
 30
0.0
 11
891.04004414571511
 21
346.64090264977517
 31
0.0
  0
LINE
  5
F0
100
AcDbEntity
  8
0
  6
DOT
 62
               4
100
AcDbLine
 10
871.81659389719687
 20
358.79328508642777
 30
0.0
 11
887.50451023978223
 21
343.1053687438424
 31
0.0
  0
LINE
  5
F1
100
AcDbEntity
  8
0
  6
DOT
 62
               4
100
AcDbLine
 10
864.74552608533133
 20
358.79328508642777
 30
0.0
 11
883.96897633384981
 21
339.56983483790958
 31
0.0
  0
LINE
  5
F2
100
AcDbEntity
  8
0
  6
DOT
 62
               4
100
AcDbLine
 10
857.67445827346603
 20
358.79328508642777
 30
0.0
 11
882.33456220609889
 21
334.13318115379582
 31
0.0
  0
LINE
  5
F3
100
AcDbEntity
  8
0
  6
DOT
 62
               4
100
AcDbLine
 10
850.6033904616005
 20
358.79328508642777
 30
0.0
 11
882.33456220609889
 21
327.06211334193029
 31
0.0
  0
LINE
  5
F4
100
AcDbEntity
  8
0
  6
DOT
 62
               4
100
AcDbLine
 10
843.53232264973497
 20
358.79328508642777
 30
0.0
 11
882.33456220609889
 21
319.99104553006481
 31
0.0
  0
LINE
  5
F5
100
AcDbEntity
  8
0
  6
DOT
 62
               4
100
AcDbLine
 10
837.33456220609889
 20
357.91997771819968
 30
0.0
 11
882.33456220609889
 21
312.91997771819916
 31
0.0
  0
LINE
  5
F6
100
AcDbEntity
  8
0
  6
DOT
 62
               4
100
AcDbLine
 10
837.33456220609889
 20
350.84890990633426
 30
0.0
 11
882.33456220609889
 21
305.84890990633369
 31
0.0
  0
LINE
  5
F7
100
AcDbEntity
  8
0
  6
DOT
 62
               4
100
AcDbLine
 10
837.33456220609889
 20
343.77784209446861
 30
0.0
 11
882.33456220609889
 21
298.77784209446821
 31
0.0
  0
LINE
  5
F8
100
AcDbEntity
  8
0
  6
DOT
 62
               4
100
AcDbLine
 10
837.33456220609889
 20
336.70677428260308
 30
0.0
 11
882.33456220609889
 21
291.70677428260262
 31
0.0
  0
LINE
  5
F9
100
AcDbEntity
  8
0
  6
DOT
 62
               4
100
AcDbLine
 10
837.33456220609889
 20
329.6357064707376
 30
0.0
 11
882.33456220609889
 21
284.63570647073709
 31
0.0
  0
LINE
  5
FA
100
AcDbEntity
  8
0
  6
DOT
 62
               4
100
AcDbLine
 10
837.33456220609889
 20
322.56463865887201
 30
0.0
 11
882.33456220609889
 21
277.5646386588715
 31
0.0
  0
LINE
  5
FB
100
AcDbEntity
  8
0
  6
DOT
 62
               4
100
AcDbLine
 10
837.33456220609889
 20
315.49357084700648
 30
0.0
 11
882.33456220609889
 21
270.49357084700603
 31
0.0
  0
LINE
  5
FC
100
AcDbEntity
  8
0
  6
DOT
 62
               4
100
AcDbLine
 10
837.33456220609889
 20
308.42250303514101
 30
0.0
 11
882.33456220609889
 21
263.42250303514049
 31
0.0
  0
LINE
  5
FD
100
AcDbEntity
  8
0
  6
DOT
 62
               4
100
AcDbLine
 10
837.33456220609889
 20
301.35143522327542
 30
0.0
 11
882.33456220609889
 21
256.3514352232749
 31
0.0
  0
LINE
  5
FE
100
AcDbEntity
  8
0
  6
DOT
 62
               4
100
AcDbLine
 10
837.33456220609889
 20
294.28036741140988
 30
0.0
 11
882.33456220609889
 21
249.28036741140943
 31
0.0
  0
LINE
  5
FF
100
AcDbEntity
  8
0
  6
DOT
 62
               4
100
AcDbLine
 10
837.33456220609889
 20
287.20929959954429
 30
0.0
 11
882.33456220609889
 21
242.2092995995439
 31
0.0
  0
LINE
  5
100
100
AcDbEntity
  8
0
  6
DOT
 62
               4
100
AcDbLine
 10
837.33456220609889
 20
280.13823178767882
 30
0.0
 11
882.33456220609889
 21
235.13823178767825
 31
0.0
  0
LINE
  5
101
100
AcDbEntity
  8
0
  6
DOT
 62
               4
100
AcDbLine
 10
837.33456220609889
 20
273.06716397581329
 30
0.0
 11
882.33456220609889
 21
228.06716397581283
 31
0.0
  0
LINE
  5
102
100
AcDbEntity
  8
0
  6
DOT
 62
               4
100
AcDbLine
 10
837.33456220609889
 20
265.9960961639477
 30
0.0
 11
882.33456220609889
 21
220.9960961639473
 31
0.0
  0
LINE
  5
103
100
AcDbEntity
  8
0
  6
DOT
 62
               4
100
AcDbLine
 10
837.33456220609889
 20
258.92502835208222
 30
0.0
 11
882.33456220609889
 21
213.92502835208165
 31
0.0
  0
LINE
  5
104
100
AcDbEntity
  8
0
  6
DOT
 62
               4
100
AcDbLine
 10
837.33456220609889
 20
251.85396054021669
 30
0.0
 11
882.33456220609889
 21
206.85396054021618
 31
0.0
  0
LINE
  5
105
100
AcDbEntity
  8
0
  6
DOT
 62
               4
100
AcDbLine
 10
837.33456220609889
 20
244.7828927283511
 30
0.0
 11
882.33456220609889
 21
199.78289272835082
 31
0.0
  0
LINE
  5
106
100
AcDbEntity
  8
0
  6
DOT
 62
               4
100
AcDbLine
 10
837.33456220609889
 20
237.71182491648563
 30
0.0
 11
882.33456220609889
 21
192.71182491648528
 31
0.0
  0
LINE
  5
107
100
AcDbEntity
  8
0
  6
DOT
 62
               4
100
AcDbLine
 10
837.33456220609889
 20
230.64075710462009
 30
0.0
 11
882.33456220609889
 21
185.64075710461969
 31
0.0
  0
LINE
  5
108
100
AcDbEntity
  8
0
  6
DOT
 62
               4
100
AcDbLine
 10
837.33456220609889
 20
223.5696892927545
 30
0.0
 11
882.33456220609889
 21
178.56968929275411
 31
0.0
  0
LINE
  5
109
100
AcDbEntity
  8
0
  6
DOT
 62
               4
100
AcDbLine
 10
837.33456220609889
 20
216.49862148088903
 30
0.0
 11
882.33456220609889
 21
171.49862148088846
 31
0.0
  0
LINE
  5
10A
100
AcDbEntity
  8
0
  6
DOT
 62
               4
100
AcDbLine
 10
837.33456220609889
 20
209.4275536690235
 30
0.0
 11
880.46883078869416
 21
166.293285086428
 31
0.0
  0
LINE
  5
10B
100
AcDbEntity
  8
0
  6
DOT
 62
               4
100
AcDbLine
 10
837.33456220609889
 20
202.35648585715785
 30
0.0
 11
873.3977629768284
 21
166.293285086428
 31
0.0
  0
LINE
  5
10C
100
AcDbEntity
  8
0
  6
DOT
 62
               4
100
AcDbLine
 10
837.33456220609889
 20
195.28541804529243
 30
0.0
 11
866.32669516496219
 21
166.293285086428
 31
0.0
  0
LINE
  5
10D
100
AcDbEntity
  8
0
  6
Continuous
 62
               6
100
AcDbLine
 10
849.74552608533133
 20
373.79328508642789
 30
0.0
 11
849.8634625014023
 21
373.67534867035693
 31
0.0
  0
LINE
  5
10E
100
AcDbEntity
  8
0
  6
Continuous
 62
               6
100
AcDbLine
 10
846.91709896058512
 20
373.79328508642789
 30
0.0
 11
849.33456220609844
 21
371.37582184091457
 31
0.0
  0
LINE
  5
10F
100
AcDbEntity
  8
0
  6
Continuous
 62
               6
100
AcDbLine
 10
844.08867183583891
 20
373.79328508642789
 30
0.0
 11
849.33456220609844
 21
368.54739471616836
 31
0.0
  0
LINE
  5
110
100
AcDbEntity
  8
0
  6
Continuous
 62
               6
100
AcDbLine
 10
841.2602447110927
 20
373.79328508642789
 30
0.0
 11
849.33456220609844
 21
365.71896759142214
 31
0.0
  0
LINE
  5
111
100
AcDbEntity
  8
0
  6
Continuous
 62
               6
100
AcDbLine
 10
838.43181758634648
 20
373.79328508642789
 30
0.0
 11
849.33456220609844
 21
362.89054046667593
 31
0.0
  0
LINE
  5
112
100
AcDbEntity
  8
0
  6
Continuous
 62
               6
100
AcDbLine
 10
838.33456220609912
 20
371.06211334192938
 30
0.0
 11
849.33456220609844
 21
360.06211334192972
 31
0.0
  0
LINE
  5
113
100
AcDbEntity
  8
0
  6
Continuous
 62
               6
100
AcDbLine
 10
838.33456220609912
 20
368.23368621718316
 30
0.0
 11
847.77496333685406
 21
358.79328508642789
 31
0.0
  0
LINE
  5
114
100
AcDbEntity
  8
0
  6
Continuous
 62
               6
100
AcDbLine
 10
838.33456220609912
 20
365.40525909243706
 30
0.0
 11
844.94653621210784
 21
358.79328508642789
 31
0.0
  0
LINE
  5
115
100
AcDbEntity
  8
0
  6
Continuous
 62
               6
100
AcDbLine
 10
838.33456220609912
 20
362.57683196769062
 30
0.0
 11
842.11810908736163
 21
358.79328508642789
 31
0.0
  0
LINE
  5
116
100
AcDbEntity
  8
0
  6
Continuous
 62
               6
100
AcDbLine
 10
838.3335609788295
 20
359.74940607021404
 30
0.0
 11
839.28968196261542
 21
358.79328508642789
 31
0.0
  0
LINE
  5
117
100
AcDbEntity
  8
0
  6
Continuous
 62
               6
100
AcDbLine
 10
837.65262222992089
 20
373.74131584739598
 30
0.0
 11
837.70459146895257
 21
373.79328508642789
 31
0.0
  0
LINE
  5
118
100
AcDbEntity
  8
0
  6
Continuous
 62
               6
100
AcDbLine
 10
838.33456220609889
 20
371.59482869882811
 30
0.0
 11
840.53301859369878
 21
373.79328508642789
 31
0.0
  0
LINE
  5
119
100
AcDbEntity
  8
0
  6
Continuous
 62
               6
100
AcDbLine
 10
838.33456220609889
 20
368.7664015740819
 30
0.0
 11
843.361445718445
 21
373.79328508642789
 31
0.0
  0
LINE
  5
11A
100
AcDbEntity
  8
0
  6
Continuous
 62
               6
100
AcDbLine
 10
838.33456220609889
 20
365.93797444933568
 30
0.0
 11
846.18987284319121
 21
373.79328508642789
 31
0.0
  0
LINE
  5
11B
100
AcDbEntity
  8
0
  6
Continuous
 62
               6
100
AcDbLine
 10
838.33456220609889
 20
363.10954732458947
 30
0.0
 11
849.01829996793742
 21
373.79328508642789
 31
0.0
  0
LINE
  5
11C
100
AcDbEntity
  8
0
  6
Continuous
 62
               6
100
AcDbLine
 10
838.33456220609889
 20
360.28112019984337
 30
0.0
 11
849.33456220609844
 21
371.28112019984292
 31
0.0
  0
LINE
  5
11D
100
AcDbEntity
  8
0
  6
Continuous
 62
               6
100
AcDbLine
 10
839.67515421742985
 20
358.793285086428
 30
0.0
 11
849.33456220609844
 21
368.4526930750967
 31
0.0
  0
LINE
  5
11E
100
AcDbEntity
  8
0
  6
Continuous
 62
               6
100
AcDbLine
 10
842.50358134217606
 20
358.793285086428
 30
0.0
 11
849.33456220609844
 21
365.62426595035049
 31
0.0
  0
LINE
  5
11F
100
AcDbEntity
  8
0
  6
Continuous
 62
               6
100
AcDbLine
 10
845.33200846692228
 20
358.793285086428
 30
0.0
 11
849.33456220609844
 21
362.79583882560428
 31
0.0
  0
LINE
  5
120
100
AcDbEntity
  8
0
  6
Continuous
 62
               6
100
AcDbLine
 10
848.16043559166849
 20
358.793285086428
 30
0.0
 11
849.33456220609844
 21
359.96741170085807
 31
0.0
  0
LINE
  5
121
100
AcDbEntity
  8
0
  6
Continuous
 62
               6
100
AcDbLine
 10
884.47500537962708
 20
463.793285086428
 30
0.0
 11
884.48427498308558
 21
463.78401548296927
 31
0.0
  0
LINE
  5
122
100
AcDbEntity
  8
0
  6
Continuous
 62
               6
100
AcDbLine
 10
881.64657825488086
 20
463.793285086428
 30
0.0
 11
883.61993635575902
 21
461.81992698554996
 31
0.0
  0
LINE
  5
123
100
AcDbEntity
  8
0
  6
Continuous
 62
               6
100
AcDbLine
 10
878.81815113013465
 20
463.793285086428
 30
0.0
 11
883.61993635575902
 21
458.99149986080351
 31
0.0
  0
LINE
  5
124
100
AcDbEntity
  8
0
  6
Continuous
 62
               6
100
AcDbLine
 10
875.98972400538844
 20
463.793285086428
 30
0.0
 11
883.61993635575902
 21
456.16307273605742
 31
0.0
  0
LINE
  5
125
100
AcDbEntity
  8
0
  6
Continuous
 62
               6
100
AcDbLine
 10
873.16129688064223
 20
463.793285086428
 30
0.0
 11
883.61993635575902
 21
453.33464561131132
 31
0.0
  0
LINE
  5
126
100
AcDbEntity
  8
0
  6
Continuous
 62
               6
100
AcDbLine
 10
873.11993635575902
 20
461.00621848656522
 30
0.0
 11
884.10034990719316
 21
450.02580493513096
 31
0.0
  0
LINE
  5
127
100
AcDbEntity
  8
0
  6
Continuous
 62
               6
100
AcDbLine
 10
873.11993635575902
 20
458.17779136181878
 30
0.0
 11
881.70683327173367
 21
449.59089444584401
 31
0.0
  0
LINE
  5
128
100
AcDbEntity
  8
0
  6
Continuous
 62
               6
100
AcDbLine
 10
873.11993635575902
 20
455.34936423707256
 30
0.0
 11
879.31331663627418
 21
449.15598395655741
 31
0.0
  0
LINE
  5
129
100
AcDbEntity
  8
0
  6
Continuous
 62
               6
100
AcDbLine
 10
873.11993635575902
 20
452.52093711232646
 30
0.0
 11
876.91980000081492
 21
448.72107346727057
 31
0.0
  0
LINE
  5
12A
100
AcDbEntity
  8
0
  6
Continuous
 62
               6
100
AcDbLine
 10
873.11993635575902
 20
449.69250998758025
 30
0.0
 11
874.52628336535543
 21
448.28616297798362
 31
0.0
  0
LINE
  5
12B
100
AcDbEntity
  8
0
  6
Continuous
 62
               6
100
AcDbLine
 10
873.11993635575902
 20
461.63825284252152
 30
0.0
 11
875.27496859966561
 21
463.79328508642811
 31
0.0
  0
LINE
  5
12C
100
AcDbEntity
  8
0
  6
Continuous
 62
               6
100
AcDbLine
 10
873.11993635575902
 20
458.80982571777531
 30
0.0
 11
878.10339572441183
 21
463.79328508642811
 31
0.0
  0
LINE
  5
12D
100
AcDbEntity
  8
0
  6
Continuous
 62
               6
100
AcDbLine
 10
873.11993635575902
 20
455.98139859302921
 30
0.0
 11
880.93182284915804
 21
463.79328508642811
 31
0.0
  0
LINE
  5
12E
100
AcDbEntity
  8
0
  6
Continuous
 62
               6
100
AcDbLine
 10
873.11993635575902
 20
453.15297146828277
 30
0.0
 11
883.76024997390402
 21
463.79328508642811
 31
0.0
  0
LINE
  5
12F
100
AcDbEntity
  8
0
  6
Continuous
 62
               6
100
AcDbLine
 10
873.11993635575902
 20
450.32454434353667
 30
0.0
 11
883.61993635575902
 21
460.82454434353667
 31
0.0
  0
LINE
  5
130
100
AcDbEntity
  8
0
  6
Continuous
 62
               6
100
AcDbLine
 10
873.77313179469536
 20
448.14931265772691
 30
0.0
 11
883.61993635575902
 21
457.99611721879046
 31
0.0
  0
LINE
  5
131
100
AcDbEntity
  8
0
  6
Continuous
 62
               6
100
AcDbLine
 10
877.22961404279488
 20
448.77736778108033
 30
0.0
 11
883.61993635575902
 21
455.16769009404447
 31
0.0
  0
LINE
  5
132
100
AcDbEntity
  8
0
  6
Continuous
 62
               6
100
AcDbLine
 10
880.68609629089462
 20
449.40542290443386
 30
0.0
 11
883.61993635575902
 21
452.33926296929826
 31
0.0
  0
LINE
  5
133
100
AcDbEntity
  8
0
  6
Continuous
 62
               6
100
AcDbLine
 10
884.14257853899437
 20
450.03347802778717
 30
0.0
 11
884.29871664523864
 21
450.18961613403144
 31
0.0
  0
LINE
  5
134
100
AcDbEntity
  8
0
  6
Continuous
 62
               4
100
AcDbLine
 10
940.5989891618018
 20
380.52055781370098
 30
0.0
 11
941.63456220609908
 21
379.48498476940381
 31
0.0
  0
LINE
  5
135
100
AcDbEntity
  8
0
  6
DOT
 62
               4
100
AcDbLine
 10
1008.4461029362193
 20
483.79328508642777
 30
0.0
 11
1012.3345622060991
 21
479.90482581654874
 31
0.0
  0
LINE
  5
136
100
AcDbEntity
  8
0
  6
DOT
 62
               4
100
AcDbLine
 10
989.05452580880649
 20
503.1848622138408
 30
0.0
 11
991.83456220609844
 21
500.40482581654896
 31
0.0
  0
LINE
  5
137
100
AcDbEntity
  8
0
  6
DOT
 62
               4
100
AcDbLine
 10
1001.375035124354
 20
483.79328508642777
 30
0.0
 11
1012.3345622060991
 21
472.83375800468332
 31
0.0
  0
LINE
  5
138
100
AcDbEntity
  8
0
  6
DOT
 62
               4
100
AcDbLine
 10
981.97532868716928
 20
503.19299152361248
 30
0.0
 11
991.83456220609844
 21
493.33375800468332
 31
0.0
  0
LINE
  5
139
100
AcDbEntity
  8
0
  6
DOT
 62
               4
100
AcDbLine
 10
994.30396731248845
 20
483.79328508642777
 30
0.0
 11
1012.3345622060991
 21
465.76269019281767
 31
0.0
  0
LINE
  5
13A
100
AcDbEntity
  8
0
  6
DOT
 62
               4
100
AcDbLine
 10
974.89613156553185
 20
503.20112083338438
 30
0.0
 11
991.83456220609844
 21
486.26269019281801
 31
0.0
  0
LINE
  5
13B
100
AcDbEntity
  8
0
  6
DOT
 62
               4
100
AcDbLine
 10
973.63461983256013
 20
497.39156475449067
 30
0.0
 11
1012.3345622060991
 21
458.69162238095237
 31
0.0
  0
LINE
  5
13C
100
AcDbEntity
  8
0
  6
DOT
 62
               4
100
AcDbLine
 10
973.63460256521569
 20
490.32051420996982
 30
0.0
 11
1012.3345622060991
 21
451.62055456908683
 31
0.0
  0
LINE
  5
13D
100
AcDbEntity
  8
0
  6
DOT
 62
               4
100
AcDbLine
 10
973.63458529787124
 20
483.24946366544873
 30
0.0
 11
1012.3345622060991
 21
444.54948675722142
 31
0.0
  0
LINE
  5
13E
100
AcDbEntity
  8
0
  6
DOT
 62
               4
100
AcDbLine
 10
973.63456803052679
 20
476.17841312092787
 30
0.0
 11
1012.3345622060991
 21
437.47841894535588
 31
0.0
  0
LINE
  5
13F
100
AcDbEntity
  8
0
  6
DOT
 62
               4
100
AcDbLine
 10
968.94862825316125
 20
473.79328508642766
 30
0.0
 11
1012.3345622060991
 21
430.40735113349047
 31
0.0
  0
LINE
  5
140
100
AcDbEntity
  8
0
  6
DOT
 62
               4
100
AcDbLine
 10
961.87756044129594
 20
473.79328508642766
 30
0.0
 11
1012.3345622060991
 21
423.33628332162482
 31
0.0
  0
LINE
  5
141
100
AcDbEntity
  8
0
  6
DOT
 62
               4
100
AcDbLine
 10
954.80649262943018
 20
473.79328508642766
 30
0.0
 11
1012.3345622060991
 21
416.26521550975929
 31
0.0
  0
LINE
  5
142
100
AcDbEntity
  8
0
  6
DOT
 62
               4
100
AcDbLine
 10
947.73542481756465
 20
473.79328508642777
 30
0.0
 11
1012.3345622060991
 21
409.19414769789387
 31
0.0
  0
LINE
  5
143
100
AcDbEntity
  8
0
  6
DOT
 62
               4
100
AcDbLine
 10
940.66435700569912
 20
473.79328508642777
 30
0.0
 11
1012.3345622060991
 21
402.12307988602811
 31
0.0
  0
LINE
  5
144
100
AcDbEntity
  8
0
  6
DOT
 62
               4
100
AcDbLine
 10
933.59328919383381
 20
473.793285086428
 30
0.0
 11
1012.3345622060991
 21
395.05201207416269
 31
0.0
  0
LINE
  5
145
100
AcDbEntity
  8
0
  6
DOT
 62
               4
100
AcDbLine
 10
926.52222138196805
 20
473.79328508642811
 30
0.0
 11
1012.3345622060991
 21
387.98094426229727
 31
0.0
  0
LINE
  5
146
100
AcDbEntity
  8
0
  6
DOT
 62
               4
100
AcDbLine
 10
922.13456220609862
 20
471.10987645043201
 30
0.0
 11
1012.3345622060991
 21
380.90987645043151
 31
0.0
  0
LINE
  5
147
100
AcDbEntity
  8
0
  6
DOT
 62
               4
100
AcDbLine
 10
922.13456220609862
 20
464.03880863856648
 30
0.0
 11
1012.3345622060991
 21
373.83880863856609
 31
0.0
  0
LINE
  5
148
100
AcDbEntity
  8
0
  6
DOT
 62
               4
100
AcDbLine
 10
915.30901794637168
 20
463.79328508642811
 30
0.0
 11
1012.3345622060991
 21
366.76774082670067
 31
0.0
  0
LINE
  5
149
100
AcDbEntity
  8
0
  6
DOT
 62
               4
100
AcDbLine
 10
908.63456220609862
 20
463.39667301483564
 30
0.0
 11
1008.8681981455208
 21
363.16303707541397
 31
0.0
  0
LINE
  5
14A
100
AcDbEntity
  8
0
  6
DOT
 62
               4
100
AcDbLine
 10
908.63456220609862
 20
456.32560520297011
 30
0.0
 11
1002.8849869200959
 21
362.07518048897305
 31
0.0
  0
LINE
  5
14B
100
AcDbEntity
  8
0
  6
DOT
 62
               4
100
AcDbLine
 10
939.33456220609889
 20
418.55453739110442
 30
0.0
 11
996.9017756946713
 21
360.98732390253213
 31
0.0
  0
LINE
  5
14C
100
AcDbEntity
  8
0
  6
DOT
 62
               4
100
AcDbLine
 10
906.21938242885687
 20
451.66971716834632
 30
0.0
 11
934.09581451077531
 21
423.793285086428
 31
0.0
  0
LINE
  5
14D
100
AcDbEntity
  8
0
  6
DOT
 62
               4
100
AcDbLine
 10
939.33456220609889
 20
411.48346957923889
 30
0.0
 11
990.91856446924669
 21
359.8994673160912
 31
0.0
  0
LINE
  5
14E
100
AcDbEntity
  8
0
  6
DOT
 62
               4
100
AcDbLine
 10
904.33456220609889
 20
446.48346957923911
 30
0.0
 11
927.02474669890978
 21
423.793285086428
 31
0.0
  0
LINE
  5
14F
100
AcDbEntity
  8
0
  6
DOT
 62
               4
100
AcDbLine
 10
939.33456220609889
 20
404.41240176737347
 30
0.0
 11
984.93535324382208
 21
358.81161072965028
 31
0.0
  0
LINE
  5
150
100
AcDbEntity
  8
0
  6
DOT
 62
               4
100
AcDbLine
 10
904.33456220609889
 20
439.41240176737358
 30
0.0
 11
919.95367888704425
 21
423.793285086428
 31
0.0
  0
LINE
  5
151
100
AcDbEntity
  8
0
  6
DOT
 62
               4
100
AcDbLine
 10
939.33456220609889
 20
397.34133395550771
 30
0.0
 11
978.95214201839747
 21
357.72375414320936
 31
0.0
  0
LINE
  5
152
100
AcDbEntity
  8
0
  6
DOT
 62
               4
100
AcDbLine
 10
904.33456220609889
 20
432.34133395550816
 30
0.0
 11
912.88261107517894
 21
423.793285086428
 31
0.0
  0
LINE
  5
153
100
AcDbEntity
  8
0
  6
DOT
 62
               4
100
AcDbLine
 10
939.33456220609889
 20
390.27026614364229
 30
0.0
 11
970.99087065903075
 21
358.61395769071078
 31
0.0
  0
LINE
  5
154
100
AcDbEntity
  8
0
  6
DOT
 62
               4
100
AcDbLine
 10
904.33456220609889
 20
425.27026614364252
 30
0.0
 11
905.81154326331341
 21
423.793285086428
 31
0.0
  0
LINE
  5
155
100
AcDbEntity
  8
0
  6
DOT
 62
               4
100
AcDbLine
 10
939.33456220609889
 20
383.19919833177687
 30
0.0
 11
965.00765943360614
 21
357.52610110426997
 31
0.0
  0
LINE
  5
156
100
AcDbEntity
  8
0
  6
DOT
 62
               4
100
AcDbLine
 10
941.63456220609908
 20
373.8281305199115
 30
0.0
 11
959.0244482081813
 21
356.43824451782916
 31
0.0
  0
LINE
  5
157
100
AcDbEntity
  8
0
  6
DOT
 62
               4
100
AcDbLine
 10
941.63456220609908
 20
366.75706270804596
 30
0.0
 11
953.04123698275669
 21
355.35038793138847
 31
0.0
  0
LINE
  5
158
100
AcDbEntity
  8
0
  6
DOT
 62
               4
100
AcDbLine
 10
941.63456220609908
 20
359.68599489618032
 30
0.0
 11
947.05802575733185
 21
354.26253134494755
 31
0.0
  0
LINE
  5
159
100
AcDbEntity
  8
0
  6
DOT
 62
               6
100
AcDbLine
 10
912.22944149779903
 20
356.56420366989937
 30
0.0
 11
912.77878008899859
 21
356.0148650786997
 31
0.0
  0
LINE
  5
15A
100
AcDbEntity
  8
0
  6
Continuous
 62
               6
100
AcDbLine
 10
911.97092282974756
 20
373.793285086428
 30
0.0
 11
912.46942128170542
 21
373.29478663446992
 31
0.0
  0
LINE
  5
15B
100
AcDbEntity
  8
0
  6
Continuous
 62
               6
100
AcDbLine
 10
909.14249570500135
 20
373.793285086428
 30
0.0
 11
912.31010165715782
 21
370.62567913427131
 31
0.0
  0
LINE
  5
15C
100
AcDbEntity
  8
0
  6
Continuous
 62
               6
100
AcDbLine
 10
906.31406858025514
 20
373.793285086428
 30
0.0
 11
912.27854016936715
 21
367.82881349731588
 31
0.0
  0
LINE
  5
15D
100
AcDbEntity
  8
0
  6
Continuous
 62
               6
100
AcDbLine
 10
903.48564145550893
 20
373.793285086428
 30
0.0
 11
912.24697868157648
 21
365.03194786036056
 31
0.0
  0
LINE
  5
15E
100
AcDbEntity
  8
0
  6
Continuous
 62
               6
100
AcDbLine
 10
903.33456220609889
 20
371.1159372110917
 30
0.0
 11
912.21541719378558
 21
362.23508222340502
 31
0.0
  0
LINE
  5
15F
100
AcDbEntity
  8
0
  6
Continuous
 62
               6
100
AcDbLine
 10
903.33456220609889
 20
368.28751008634549
 30
0.0
 11
912.18385570599514
 21
359.43821658644958
 31
0.0
  0
LINE
  5
160
100
AcDbEntity
  8
0
  6
Continuous
 62
               6
100
AcDbLine
 10
912.77878008899859
 20
356.0148650786997
 30
0.0
 11
912.91305280239851
 21
355.88059236529966
 31
0.0
  0
LINE
  5
161
100
AcDbEntity
  8
0
  6
Continuous
 62
               6
100
AcDbLine
 10
903.33456220609889
 20
365.45908296159928
 30
0.0
 11
912.22944149779903
 21
356.56420366989937
 31
0.0
  0
LINE
  5
162
100
AcDbEntity
  8
0
  6
Continuous
 62
               6
100
AcDbLine
 10
903.33456220609889
 20
362.63065583685307
 30
0.0
 11
910.51976831222885
 21
355.44544973072334
 31
0.0
  0
LINE
  5
163
100
AcDbEntity
  8
0
  6
Continuous
 62
               6
100
AcDbLine
 10
903.33456220609889
 20
359.80222871210685
 30
0.0
 11
908.12648382205873
 21
355.01030709614702
 31
0.0
  0
LINE
  5
164
100
AcDbEntity
  8
0
  6
Continuous
 62
               6
100
AcDbLine
 10
903.33456220609889
 20
356.97380158736064
 30
0.0
 11
905.73319933188907
 21
354.57516446157069
 31
0.0
  0
LINE
  5
165
100
AcDbEntity
  8
0
  6
Continuous
 62
               6
100
AcDbLine
 10
903.12943062366696
 20
354.3505060450467
 30
0.0
 11
903.33991484171918
 21
354.14002182699437
 31
0.0
  0
LINE
  5
166
100
AcDbEntity
  8
0
  6
Continuous
 62
               6
100
AcDbLine
 10
902.6922500468653
 20
373.72711979517817
 30
0.0
 11
902.75841533811501
 21
373.79328508642789
 31
0.0
  0
LINE
  5
167
100
AcDbEntity
  8
0
  6
Continuous
 62
               6
100
AcDbLine
 10
903.33456220609889
 20
371.54100482966578
 30
0.0
 11
905.58684246286123
 21
373.79328508642789
 31
0.0
  0
LINE
  5
168
100
AcDbEntity
  8
0
  6
Continuous
 62
               6
100
AcDbLine
 10
903.33456220609889
 20
368.71257770491957
 30
0.0
 11
908.41526958760744
 21
373.79328508642789
 31
0.0
  0
LINE
  5
169
100
AcDbEntity
  8
0
  6
Continuous
 62
               6
100
AcDbLine
 10
903.33456220609889
 20
365.88415058017335
 30
0.0
 11
911.24369671235365
 21
373.79328508642789
 31
0.0
  0
LINE
  5
16A
100
AcDbEntity
  8
0
  6
Continuous
 62
               6
100
AcDbLine
 10
903.33456220609889
 20
363.05572345542714
 30
0.0
 11
912.32614412940427
 21
372.04730537873229
 31
0.0
  0
LINE
  5
16B
100
AcDbEntity
  8
0
  6
Continuous
 62
               6
100
AcDbLine
 10
903.33456220609889
 20
360.22729633068093
 30
0.0
 11
912.29386219463333
 21
369.18659631921537
 31
0.0
  0
LINE
  5
16C
100
AcDbEntity
  8
0
  6
Continuous
 62
               6
100
AcDbLine
 10
903.33456220609889
 20
357.39886920593472
 30
0.0
 11
912.26158025986263
 21
366.32588725969845
 31
0.0
  0
LINE
  5
16D
100
AcDbEntity
  8
0
  6
Continuous
 62
               6
100
AcDbLine
 10
903.16642283887484
 20
354.40230271396422
 30
0.0
 11
912.22929832509192
 21
363.46517820018153
 31
0.0
  0
LINE
  5
16E
100
AcDbEntity
  8
0
  6
Continuous
 62
               6
100
AcDbLine
 10
902.8073035319461
 20
354.0431834070356
 30
0.0
 11
902.88948993083443
 21
354.1253698059237
 31
0.0
  0
LINE
  5
16F
100
AcDbEntity
  8
0
  6
Continuous
 62
               6
100
AcDbLine
 10
906.26427001774675
 20
354.67172276809038
 30
0.0
 11
912.19701639032121
 21
360.60446914066461
 31
0.0
  0
LINE
  5
170
100
AcDbEntity
  8
0
  6
Continuous
 62
               6
100
AcDbLine
 10
909.72123650354763
 20
355.30026212914481
 30
0.0
 11
912.1647344555505
 21
357.74376008114768
 31
0.0
  0
LINE
  5
171
100
AcDbEntity
  8
0
  6
Continuous
 62
               6
100
AcDbLine
 10
913.17820298934851
 20
355.92880149019959
 30
0.0
 11
913.19113543482911
 21
355.94173393567996
 31
0.0
  0
LINE
  5
172
100
AcDbEntity
  8
0
  6
Continuous
 62
               6
100
AcDbLine
 10
930.32578002272487
 20
355.43842789345058
 30
0.0
 11
932.78395456316059
 21
352.98025335301486
 31
0.0
  0
LINE
  5
173
100
AcDbEntity
  8
0
  6
Continuous
 62
               6
100
AcDbLine
 10
925.43407687473257
 20
357.50170391669667
 30
0.0
 11
933.47973670517024
 21
349.456044086259
 31
0.0
  0
LINE
  5
174
100
AcDbEntity
  8
0
  6
Continuous
 62
               6
100
AcDbLine
 10
922.49786456351637
 20
357.60948910316677
 30
0.0
 11
931.08645221500035
 21
349.02090145168268
 31
0.0
  0
LINE
  5
175
100
AcDbEntity
  8
0
  6
Continuous
 62
               6
100
AcDbLine
 10
922.33456220609889
 20
354.94436433583792
 30
0.0
 11
928.69316772483046
 21
348.58575881710635
 31
0.0
  0
LINE
  5
176
100
AcDbEntity
  8
0
  6
Continuous
 62
               6
100
AcDbLine
 10
922.33456220609889
 20
352.1159372110917
 30
0.0
 11
926.29988323466057
 21
348.15061618253003
 31
0.0
  0
LINE
  5
177
100
AcDbEntity
  8
0
  6
Continuous
 62
               6
100
AcDbLine
 10
922.33456220609889
 20
349.28751008634549
 30
0.0
 11
923.90659874449068
 21
347.71547354795371
 31
0.0
  0
LINE
  5
178
100
AcDbEntity
  8
0
  6
Continuous
 62
               6
100
AcDbLine
 10
922.33456220609889
 20
356.59987933271145
 30
0.0
 11
923.39152725066162
 21
357.65684437727396
 31
0.0
  0
LINE
  5
179
100
AcDbEntity
  8
0
  6
Continuous
 62
               6
100
AcDbLine
 10
922.33456220609889
 20
353.77145220796524
 30
0.0
 11
925.96378259819187
 21
357.40067260005821
 31
0.0
  0
LINE
  5
17A
100
AcDbEntity
  8
0
  6
Continuous
 62
               6
100
AcDbLine
 10
922.33456220609889
 20
350.94302508321903
 30
0.0
 11
928.1046353684643
 21
356.71309824558421
 31
0.0
  0
LINE
  5
17B
100
AcDbEntity
  8
0
  6
Continuous
 62
               6
100
AcDbLine
 10
922.33456220609889
 20
348.11459795847281
 30
0.0
 11
929.93379498107095
 21
355.71383073344487
 31
0.0
  0
LINE
  5
17C
100
AcDbEntity
  8
0
  6
Continuous
 62
               6
100
AcDbLine
 10
924.95436851495617
 20
347.90597714258399
 30
0.0
 11
931.49892554985047
 21
354.45053417747818
 31
0.0
  0
LINE
  5
17D
100
AcDbEntity
  8
0
  6
Continuous
 62
               6
100
AcDbLine
 10
928.41133500075705
 20
348.53451650363877
 30
0.0
 11
932.8150494807702
 21
352.93823098365147
 31
0.0
  0
LINE
  5
17E
100
AcDbEntity
  8
0
  6
Continuous
 62
               6
100
AcDbLine
 10
931.86830148655793
 20
349.16305586469321
 30
0.0
 11
933.87229116888022
 21
351.16704554701562
 31
0.0
  0
LINE
  5
17F
100
AcDbEntity
  8
0
  6
Continuous
 62
               4
100
AcDbLine
 10
892.11993635575902
 20
333.88218602447461
 30
0.0
 11
892.11993635575902
 21
166.293285086428
 31
0.0
  0
LINE
  5
180
100
AcDbEntity
  8
0
  6
Continuous
 62
               4
100
AcDbLine
 10
890.61993635575902
 20
334.50350636803421
 30
0.0
 11
890.61993635575902
 21
166.293285086428
 31
0.0
  0
LINE
  5
181
100
AcDbEntity
  8
0
  6
Continuous
 62
               4
100
AcDbLine
 10
889.11993635575902
 20
335.12482671159387
 30
0.0
 11
889.11993635575902
 21
166.293285086428
 31
0.0
  0
LINE
  5
182
100
AcDbEntity
  8
0
  6
Continuous
 62
               4
100
AcDbLine
 10
887.61993635575902
 20
335.74614705515347
 30
0.0
 11
887.61993635575902
 21
166.293285086428
 31
0.0
  0
LINE
  5
183
100
AcDbEntity
  8
0
  6
Continuous
 62
               4
100
AcDbLine
 10
886.11993635575902
 20
336.36746739871319
 30
0.0
 11
886.11993635575902
 21
166.293285086428
 31
0.0
  0
LINE
  5
184
100
AcDbEntity
  8
0
  6
Continuous
 62
               4
100
AcDbLine
 10
884.61993635575902
 20
336.9887877422729
 30
0.0
 11
884.61993635575902
 21
166.293285086428
 31
0.0
  0
LINE
  5
185
100
AcDbEntity
  8
0
  6
Continuous
 62
               4
100
AcDbLine
 10
883.11993635575902
 20
337.61010808583251
 30
0.0
 11
883.11993635575902
 21
166.293285086428
 31
0.0
  0
LINE
  5
186
100
AcDbEntity
  8
0
  6
Continuous
 62
               4
100
AcDbLine
 10
897.86389759396309
 20
352.32585398293077
 30
0.0
 11
922.33456220609889
 21
356.64069238991829
 31
0.0
  0
LINE
  5
187
100
AcDbEntity
  8
0
  6
Continuous
 62
               4
100
AcDbLine
 10
898.59445701792845
 20
350.93153140255799
 30
0.0
 11
922.33456220609889
 21
355.11755247208976
 31
0.0
  0
LINE
  5
188
100
AcDbEntity
  8
0
  6
Continuous
 62
               4
100
AcDbLine
 10
899.32501644189381
 20
349.53720882218522
 30
0.0
 11
922.33456220609889
 21
353.594412554261
 31
0.0
  0
LINE
  5
189
100
AcDbEntity
  8
0
  6
Continuous
 62
               4
100
AcDbLine
 10
900.0555758658594
 20
348.14288624181268
 30
0.0
 11
922.33456220609889
 21
352.07127263643247
 31
0.0
  0
LINE
  5
18A
100
AcDbEntity
  8
0
  6
Continuous
 62
               4
100
AcDbLine
 10
900.78613528982453
 20
346.74856366144002
 30
0.0
 11
922.33456220609889
 21
350.54813271860371
 31
0.0
  0
LINE
  5
18B
100
AcDbEntity
  8
0
  6
Continuous
 62
               4
100
AcDbLine
 10
901.51669471379012
 20
345.35424108106736
 30
0.0
 11
922.33456220609889
 21
349.02499280077507
 31
0.0
  0
LINE
  5
18C
100
AcDbEntity
  8
0
  6
Continuous
 62
               4
100
AcDbLine
 10
902.24725413775548
 20
343.9599185006947
 30
0.0
 11
922.33456220609889
 21
347.50185288294642
 31
0.0
  0
LINE
  5
18D
100
AcDbEntity
  8
0
  6
Continuous
 62
               4
100
AcDbLine
 10
882.42106819437834
 20
337.89958875658726
 30
0.0
 11
897.51439087532628
 21
352.99291143753521
 31
0.0
  0
LINE
  5
18E
100
AcDbEntity
  8
0
  6
Continuous
 62
               4
100
AcDbLine
 10
883.92106819437834
 20
337.2782684130276
 30
0.0
 11
898.2437257584271
 21
351.60092597707637
 31
0.0
  0
LINE
  5
18F
100
AcDbEntity
  8
0
  6
Continuous
 62
               4
100
AcDbLine
 10
885.42106819437834
 20
336.656948069468
 30
0.0
 11
898.97306064152792
 21
350.20894051661753
 31
0.0
  0
LINE
  5
190
100
AcDbEntity
  8
0
  6
Continuous
 62
               4
100
AcDbLine
 10
886.92106819437834
 20
336.03562772590828
 30
0.0
 11
899.70239552462874
 21
348.81695505615869
 31
0.0
  0
LINE
  5
191
100
AcDbEntity
  8
0
  6
Continuous
 62
               4
100
AcDbLine
 10
888.42106819437834
 20
335.41430738234857
 30
0.0
 11
900.43173040772956
 21
347.42496959569985
 31
0.0
  0
LINE
  5
192
100
AcDbEntity
  8
0
  6
Continuous
 62
               4
100
AcDbLine
 10
889.92106819437834
 20
334.79298703878897
 30
0.0
 11
901.16106529083038
 21
346.03298413524101
 31
0.0
  0
LINE
  5
193
100
AcDbEntity
  8
0
  6
Continuous
 62
               4
100
AcDbLine
 10
891.42106819437834
 20
334.17166669522931
 30
0.0
 11
901.8904001739312
 21
344.64099867478217
 31
0.0
  0
LINE
  5
194
100
AcDbEntity
  8
0
  6
Continuous
 62
               6
100
AcDbLine
 10
898.83243648000746
 20
823.79328508642811
 30
0.0
 11
899.61788631881484
 21
823.00783524762051
 31
0.0
  0
LINE
  5
195
100
AcDbEntity
  8
0
  6
Continuous
 62
               6
100
AcDbLine
 10
896.00400935526125
 20
823.79328508642811
 30
0.0
 11
899.59456220609866
 21
820.2027322355907
 31
0.0
  0
LINE
  5
196
100
AcDbEntity
  8
0
  6
Continuous
 62
               6
100
AcDbLine
 10
893.17558223051503
 20
823.79328508642811
 30
0.0
 11
899.59456220609866
 21
817.37430511084449
 31
0.0
  0
LINE
  5
197
100
AcDbEntity
  8
0
  6
Continuous
 62
               6
100
AcDbLine
 10
890.34715510576882
 20
823.79328508642811
 30
0.0
 11
899.59456220609866
 21
814.54587798609828
 31
0.0
  0
LINE
  5
198
100
AcDbEntity
  8
0
  6
Continuous
 62
               6
100
AcDbLine
 10
889.33456220609844
 20
821.97745086135205
 30
0.0
 11
897.79932378267392
 21
813.5126892847768
 31
0.0
  0
LINE
  5
199
100
AcDbEntity
  8
0
  6
Continuous
 62
               6
100
AcDbLine
 10
889.33456220609844
 20
819.14902373660607
 30
0.0
 11
895.32445004852104
 21
813.15913589418346
 31
0.0
  0
LINE
  5
19A
100
AcDbEntity
  8
0
  6
Continuous
 62
               6
100
AcDbLine
 10
889.33456220609844
 20
816.32059661185986
 30
0.0
 11
892.84957631436794
 21
812.80558250359013
 31
0.0
  0
LINE
  5
19B
100
AcDbEntity
  8
0
  6
Continuous
 62
               6
100
AcDbLine
 10
889.33456220609844
 20
813.49216948711364
 30
0.0
 11
890.37470258021528
 21
812.45202911299702
 31
0.0
  0
LINE
  5
19C
100
AcDbEntity
  8
0
  6
Continuous
 62
               6
100
AcDbLine
 10
889.33456220609844
 20
821.09761142103343
 30
0.0
 11
892.03023587149312
 21
823.79328508642811
 31
0.0
  0
LINE
  5
19D
100
AcDbEntity
  8
0
  6
Continuous
 62
               6
100
AcDbLine
 10
889.33456220609844
 20
818.26918429628722
 30
0.0
 11
894.85866299623933
 21
823.79328508642811
 31
0.0
  0
LINE
  5
19E
100
AcDbEntity
  8
0
  6
Continuous
 62
               6
100
AcDbLine
 10
889.33456220609844
 20
815.44075717154101
 30
0.0
 11
897.68709012098554
 21
823.79328508642811
 31
0.0
  0
LINE
  5
19F
100
AcDbEntity
  8
0
  6
Continuous
 62
               6
100
AcDbLine
 10
889.33456220609844
 20
812.61233004679502
 30
0.0
 11
899.59799971327163
 21
822.87576755396799
 31
0.0
  0
LINE
  5
1A0
100
AcDbEntity
  8
0
  6
Continuous
 62
               6
100
AcDbLine
 10
892.2740193665187
 20
812.72336008246884
 30
0.0
 11
899.59456220609866
 21
820.0439029220488
 31
0.0
  0
LINE
  5
1A1
100
AcDbEntity
  8
0
  6
Continuous
 62
               6
100
AcDbLine
 10
895.57385101205602
 20
813.19476460325996
 30
0.0
 11
899.59456220609866
 21
817.21547579730259
 31
0.0
  0
LINE
  5
1A2
100
AcDbEntity
  8
0
  6
Continuous
 62
               6
100
AcDbLine
 10
898.87368265759335
 20
813.66616912405107
 30
0.0
 11
899.59456220609866
 21
814.38704867255638
 31
0.0
  0
LINE
  5
1A3
100
AcDbEntity
  8
0
  6
Continuous
 62
               6
100
AcDbLine
 10
881.86187373153018
 20
823.79328508642811
 30
0.0
 11
882.43180710623585
 21
823.22335171172244
 31
0.0
  0
LINE
  5
1A4
100
AcDbEntity
  8
0
  6
Continuous
 62
               6
100
AcDbLine
 10
879.03344660678397
 20
823.79328508642811
 30
0.0
 11
882.33456220609844
 21
820.49216948711342
 31
0.0
  0
LINE
  5
1A5
100
AcDbEntity
  8
0
  6
Continuous
 62
               6
100
AcDbLine
 10
876.20501948203776
 20
823.79328508642811
 30
0.0
 11
882.33456220609844
 21
817.6637423623672
 31
0.0
  0
LINE
  5
1A6
100
AcDbEntity
  8
0
  6
Continuous
 62
               6
100
AcDbLine
 10
873.37659235729177
 20
823.79328508642811
 30
0.0
 11
882.33456220609844
 21
814.83531523762122
 31
0.0
  0
LINE
  5
1A7
100
AcDbEntity
  8
0
  6
Continuous
 62
               6
100
AcDbLine
 10
871.83456220609889
 20
822.50688811287455
 30
0.0
 11
882.33456220609844
 21
812.006888112875
 31
0.0
  0
LINE
  5
1A8
100
AcDbEntity
  8
0
  6
Continuous
 62
               6
100
AcDbLine
 10
871.83456220609889
 20
819.67846098812834
 30
0.0
 11
880.47520764360354
 21
811.03781555062392
 31
0.0
  0
LINE
  5
1A9
100
AcDbEntity
  8
0
  6
Continuous
 62
               6
100
AcDbLine
 10
871.83456220609889
 20
816.85003386338235
 30
0.0
 11
878.00033390945066
 21
810.68426216003058
 31
0.0
  0
LINE
  5
1AA
100
AcDbEntity
  8
0
  6
Continuous
 62
               6
100
AcDbLine
 10
871.83456220609867
 20
814.02160673863614
 30
0.0
 11
875.52546017529778
 21
810.33070876943725
 31
0.0
  0
LINE
  5
1AB
100
AcDbEntity
  8
0
  6
Continuous
 62
               6
100
AcDbLine
 10
871.83456220609844
 20
811.19317961389015
 30
0.0
 11
873.0505864411449
 21
809.97715537884392
 31
0.0
  0
LINE
  5
1AC
100
AcDbEntity
  8
0
  6
Continuous
 62
               6
100
AcDbLine
 10
871.83456220609889
 20
823.39660129425715
 30
0.0
 11
872.23124599826963
 21
823.79328508642811
 31
0.0
  0
LINE
  5
1AD
100
AcDbEntity
  8
0
  6
Continuous
 62
               6
100
AcDbLine
 10
871.83456220609889
 20
820.56817416951094
 30
0.0
 11
875.05967312301607
 21
823.79328508642811
 31
0.0
  0
LINE
  5
1AE
100
AcDbEntity
  8
0
  6
Continuous
 62
               6
100
AcDbLine
 10
871.83456220609889
 20
817.7397470447645
 30
0.0
 11
877.88810024776228
 21
823.79328508642811
 31
0.0
  0
LINE
  5
1AF
100
AcDbEntity
  8
0
  6
Continuous
 62
               6
100
AcDbLine
 10
871.83456220609889
 20
814.91131992001829
 30
0.0
 11
880.71652737250849
 21
823.79328508642811
 31
0.0
  0
LINE
  5
1B0
100
AcDbEntity
  8
0
  6
Continuous
 62
               6
100
AcDbLine
 10
871.83456220609867
 20
812.08289279527207
 30
0.0
 11
882.33456220609844
 21
822.58289279527207
 31
0.0
  0
LINE
  5
1B1
100
AcDbEntity
  8
0
  6
Continuous
 62
               6
100
AcDbLine
 10
872.47502949329544
 20
809.89493295772263
 30
0.0
 11
882.33456220609844
 21
819.75446567052586
 31
0.0
  0
LINE
  5
1B2
100
AcDbEntity
  8
0
  6
Continuous
 62
               6
100
AcDbLine
 10
875.77486113883253
 20
810.36633747851374
 30
0.0
 11
882.33456220609844
 21
816.92603854577965
 31
0.0
  0
LINE
  5
1B3
100
AcDbEntity
  8
0
  6
Continuous
 62
               6
100
AcDbLine
 10
879.07469278436986
 20
810.83774199930463
 30
0.0
 11
882.33456220609844
 21
814.09761142103343
 31
0.0
  0
LINE
  5
1B4
100
AcDbEntity
  8
0
  6
DOT
 62
               4
100
AcDbLine
 10
965.01081006464244
 20
858.79328508642789
 30
0.0
 11
971.83456220609844
 21
851.96953294497189
 31
0.0
  0
LINE
  5
1B5
100
AcDbEntity
  8
0
  6
DOT
 62
               4
100
AcDbLine
 10
957.93974225277691
 20
858.79328508642789
 30
0.0
 11
971.83456220609844
 21
844.89846513310636
 31
0.0
  0
LINE
  5
1B6
100
AcDbEntity
  8
0
  6
DOT
 62
               4
100
AcDbLine
 10
950.8686744409116
 20
858.79328508642789
 30
0.0
 11
971.83456220609844
 21
837.82739732124082
 31
0.0
  0
LINE
  5
1B7
100
AcDbEntity
  8
0
  6
DOT
 62
               4
100
AcDbLine
 10
943.79760662904584
 20
858.79328508642789
 30
0.0
 11
971.83456220609844
 21
830.75632950937552
 31
0.0
  0
LINE
  5
1B8
100
AcDbEntity
  8
0
  6
DOT
 62
               4
100
AcDbLine
 10
936.72653881718054
 20
858.79328508642789
 30
0.0
 11
971.83456220609844
 21
823.68526169750999
 31
0.0
  0
LINE
  5
1B9
100
AcDbEntity
  8
0
  6
DOT
 62
               4
100
AcDbLine
 10
929.65547100531501
 20
858.79328508642789
 30
0.0
 11
971.83456220609844
 21
816.61419388564445
 31
0.0
  0
LINE
  5
1BA
100
AcDbEntity
  8
0
  6
DOT
 62
               4
100
AcDbLine
 10
922.58440319344948
 20
858.79328508642789
 30
0.0
 11
967.38440319344943
 21
813.99328508642793
 31
0.0
  0
LINE
  5
1BB
100
AcDbEntity
  8
0
  6
DOT
 62
               4
100
AcDbLine
 10
915.51333538158417
 20
858.79328508642789
 30
0.0
 11
960.3133353815839
 21
813.99328508642793
 31
0.0
  0
LINE
  5
1BC
100
AcDbEntity
  8
0
  6
DOT
 62
               4
100
AcDbLine
 10
908.83456220609844
 20
858.40099045004786
 30
0.0
 11
953.24226756971859
 21
813.99328508642793
 31
0.0
  0
LINE
  5
1BD
100
AcDbEntity
  8
0
  6
DOT
 62
               4
100
AcDbLine
 10
908.83456220609844
 20
851.32992263818232
 30
0.0
 11
946.17119975785283
 21
813.99328508642793
 31
0.0
  0
LINE
  5
1BE
100
AcDbEntity
  8
0
  6
DOT
 62
               4
100
AcDbLine
 10
908.83456220609844
 20
844.25885482631702
 30
0.0
 11
939.10013194598753
 21
813.99328508642793
 31
0.0
  0
LINE
  5
1BF
100
AcDbEntity
  8
0
  6
DOT
 62
               4
100
AcDbLine
 10
908.83456220609844
 20
837.18778701445149
 30
0.0
 11
932.029064134122
 21
813.99328508642793
 31
0.0
  0
LINE
  5
1C0
100
AcDbEntity
  8
0
  6
DOT
 62
               4
100
AcDbLine
 10
908.83456220609844
 20
830.11671920258595
 30
0.0
 11
924.95799632225646
 21
813.99328508642793
 31
0.0
  0
LINE
  5
1C1
100
AcDbEntity
  8
0
  6
DOT
 62
               4
100
AcDbLine
 10
908.83456220609844
 20
823.04565139072042
 30
0.0
 11
917.88692851039116
 21
813.99328508642793
 31
0.0
  0
LINE
  5
1C2
100
AcDbEntity
  8
0
  6
DOT
 62
               4
100
AcDbLine
 10
908.83456220609844
 20
815.97458357885512
 30
0.0
 11
910.81586069852563
 21
813.99328508642793
 31
0.0
  0
LINE
  5
1C3
100
AcDbEntity
  8
0
  6
Continuous
 62
               6
100
AcDbLine
 10
1050.6391800329166
 20
801.44918636561579
 30
0.0
 11
1051.8259424986531
 21
800.26242389987897
 31
0.0
  0
LINE
  5
1C4
100
AcDbEntity
  8
0
  6
Continuous
 62
               6
100
AcDbLine
 10
1050.0160671832737
 20
800.65808565288557
 30
0.0
 11
1051.1589926117958
 21
799.5151602243634
 31
0.0
  0
LINE
  5
1C5
100
AcDbEntity
  8
0
  6
DIVIDE
 62
               6
100
AcDbLine
 10
1025.5345622060986
 20
798.79328508642811
 30
0.0
 11
1049.134562206099
 21
798.79328508642811
 31
0.0
  0
LINE
  5
1C6
100
AcDbEntity
  8
0
  6
DIVIDE
 62
               6
100
AcDbLine
 10
1052.3345622060988
 20
801.99328508642793
 30
0.0
 11
1052.3345622060988
 21
808.79328508642811
 31
0.0
  0
LINE
  5
1C7
100
AcDbEntity
  8
0
  6
DIVIDE
 62
               6
100
AcDbLine
 10
1050.7345622060989
 20
808.79328508642811
 30
0.0
 11
1442.3345622060988
 21
808.79328508642811
 31
0.0
  0
LINE
  5
1C8
100
AcDbEntity
  8
0
  6
DIVIDE
 62
               6
100
AcDbLine
 10
1050.7345622060989
 20
808.79328508642811
 30
0.0
 11
1050.7345622060989
 21
801.99328508642793
 31
0.0
  0
LINE
  5
1C9
100
AcDbEntity
  8
0
  6
DIVIDE
 62
               6
100
AcDbLine
 10
1049.134562206099
 20
800.39328508642802
 30
0.0
 11
1025.5345622060986
 21
800.39328508642802
 31
0.0
  0
LINE
  5
1CA
100
AcDbEntity
  8
0
  6
DIVIDE
 62
               6
100
AcDbLine
 10
1023.934562206099
 20
801.99328508642793
 30
0.0
 11
1023.934562206099
 21
860.5932850864283
 31
0.0
  0
LINE
  5
1CB
100
AcDbEntity
  8
0
  6
DIVIDE
 62
               6
100
AcDbLine
 10
1025.5345622060986
 20
862.1932850864282
 30
0.0
 11
1049.134562206099
 21
862.1932850864282
 31
0.0
  0
LINE
  5
1CC
100
AcDbEntity
  8
0
  6
DIVIDE
 62
               6
100
AcDbLine
 10
1050.7345622060989
 20
860.59328508642807
 30
0.0
 11
1050.7345622060989
 21
853.79328508642811
 31
0.0
  0
LINE
  5
1CD
100
AcDbEntity
  8
0
  6
DIVIDE
 62
               6
100
AcDbLine
 10
1050.7345622060989
 20
853.79328508642811
 30
0.0
 11
1442.3345622060988
 21
853.79328508642811
 31
0.0
  0
LINE
  5
1CE
100
AcDbEntity
  8
0
  6
DIVIDE
 62
               6
100
AcDbLine
 10
1052.3345622060988
 20
853.79328508642811
 30
0.0
 11
1052.3345622060988
 21
860.59328508642807
 31
0.0
  0
LINE
  5
1CF
100
AcDbEntity
  8
0
  6
DIVIDE
 62
               6
100
AcDbLine
 10
1025.5345622060986
 20
863.79328508642811
 30
0.0
 11
1442.3345622060988
 21
863.79328508642811
 31
0.0
  0
LINE
  5
1D0
100
AcDbEntity
  8
0
  6
DIVIDE
 62
               6
100
AcDbLine
 10
1022.3345622060989
 20
860.59328508642807
 30
0.0
 11
1022.3345622060989
 21
801.99328508642793
 31
0.0
  0
LINE
  5
1D1
100
AcDbEntity
  8
0
  6
DIVIDE
 62
               7
100
AcDbLine
 10
1442.3345622060988
 20
783.79328508642811
 30
0.0
 11
971.83456220609844
 21
783.79328508642811
 31
0.0
  0
LINE
  5
1D2
100
AcDbEntity
  8
0
  6
Continuous
 62
               4
100
AcDbLine
 10
971.83456220609844
 20
783.79328508642811
 30
0.0
 11
971.83456220609844
 21
798.79328508642811
 31
0.0
  0
LINE
  5
1D3
100
AcDbEntity
  8
0
  6
DIVIDE
 62
               7
100
AcDbLine
 10
1442.3345622060988
 20
798.79328508642811
 30
0.0
 11
971.83456220609844
 21
798.79328508642811
 31
0.0
  0
LINE
  5
1D4
100
AcDbEntity
  8
0
  6
DASHDOT
 62
               4
100
AcDbLine
 10
971.91332087008107
 20
813.99328508642793
 30
0.0
 11
971.83456220609844
 21
813.99328508642793
 31
0.0
  0
LINE
  5
1D5
100
AcDbEntity
  8
0
  6
DASHDOT
 62
               4
100
AcDbLine
 10
971.83456220609844
 20
813.99328508642793
 30
0.0
 11
971.83456220609844
 21
858.79328508642811
 31
0.0
  0
LINE
  5
1D6
100
AcDbEntity
  8
0
  6
DASHDOT
 62
               4
100
AcDbLine
 10
908.83456220609844
 20
858.79328508642811
 30
0.0
 11
908.83456220609844
 21
813.99328508642793
 31
0.0
  0
LINE
  5
1D7
100
AcDbEntity
  8
0
  6
DASHED
 62
               6
100
AcDbLine
 10
964.20832546113468
 20
852.79328508642811
 30
0.0
 11
942.52766762082149
 21
852.79328508642811
 31
0.0
  0
LINE
  5
1D8
100
AcDbEntity
  8
0
  6
DASHED
 62
               6
100
AcDbLine
 10
933.52773490915627
 20
843.75848299602717
 30
0.0
 11
933.63069530716541
 21
817.13259232759037
 31
0.0
  0
LINE
  5
1D9
100
AcDbEntity
  8
0
  6
DASHED
 62
               6
100
AcDbLine
 10
933.63069530716541
 20
817.13259232759037
 30
0.0
 11
934.63455472961743
 21
816.13646670300545
 31
0.0
  0
LINE
  5
1DA
100
AcDbEntity
  8
0
  6
DASHED
 62
               6
100
AcDbLine
 10
934.63455472961743
 20
816.13646670300545
 30
0.0
 11
941.63450239424594
 21
816.16353499553952
 31
0.0
  0
LINE
  5
1DB
100
AcDbEntity
  8
0
  6
DASHED
 62
               6
100
AcDbLine
 10
941.63450239424594
 20
816.16353499553952
 30
0.0
 11
942.63062801883063
 21
817.16739441799132
 31
0.0
  0
LINE
  5
1DC
100
AcDbEntity
  8
0
  6
DASHED
 62
               6
100
AcDbLine
 10
942.63062801883063
 20
817.16739441799132
 30
0.0
 11
942.52766762082149
 21
843.79328508642811
 31
0.0
  0
LINE
  5
1DD
100
AcDbEntity
  8
0
  6
DASHED
 62
               6
100
AcDbLine
 10
942.52766762082149
 20
843.79328508642811
 30
0.0
 11
964.20832546113468
 21
843.79328508642811
 31
0.0
  0
LINE
  5
1DE
100
AcDbEntity
  8
0
  6
DASHED
 62
               6
100
AcDbLine
 10
933.63069530716541
 20
817.13259232759037
 30
0.0
 11
942.63062801883063
 21
817.16739441799132
 31
0.0
  0
LINE
  5
1DF
100
AcDbEntity
  8
0
  6
Continuous
 62
               7
100
AcDbLine
 10
904.83456220609844
 20
822.77010936553802
 30
0.0
 11
904.83456220609844
 21
814.77010936553802
 31
0.0
  0
LINE
  5
1E0
100
AcDbEntity
  8
0
  6
Continuous
 62
               6
100
AcDbLine
 10
871.83456220609889
 20
823.79328508642811
 30
0.0
 11
871.83456220609889
 21
809.8034376309804
 31
0.0
  0
LINE
  5
1E1
100
AcDbEntity
  8
0
  6
Continuous
 62
               6
100
AcDbLine
 10
889.33456220609844
 20
822.79328508642811
 30
0.0
 11
889.33456220609844
 21
812.3034376309804
 31
0.0
  0
LINE
  5
1E2
100
AcDbEntity
  8
0
  6
Continuous
 62
               6
100
AcDbLine
 10
882.33456220609844
 20
812.45644731838956
 30
0.0
 11
882.33456220609844
 21
822.79328508642811
 31
0.0
  0
LINE
  5
1E3
100
AcDbEntity
  8
0
  6
Continuous
 62
               6
100
AcDbLine
 10
871.83456220609889
 20
823.79328508642811
 30
0.0
 11
888.33456220609844
 21
823.79328508642811
 31
0.0
  0
LINE
  5
1E4
100
AcDbEntity
  8
0
  6
Continuous
 62
               6
100
AcDbLine
 10
889.33456220609844
 20
813.17073303267534
 30
0.0
 11
889.33456220609844
 21
823.79328508642811
 31
0.0
  0
LINE
  5
1E5
100
AcDbEntity
  8
0
  6
Continuous
 62
               6
100
AcDbLine
 10
904.83458983363164
 20
814.42380601222908
 30
0.0
 11
904.83456220609844
 21
822.79328508642811
 31
0.0
  0
LINE
  5
1E6
100
AcDbEntity
  8
0
  6
Continuous
 62
               6
100
AcDbLine
 10
899.59456220609866
 20
814.92216160410408
 30
0.0
 11
899.59456220609866
 21
822.79328508642811
 31
0.0
  0
LINE
  5
1E7
100
AcDbEntity
  8
0
  6
Continuous
 62
               6
100
AcDbLine
 10
889.33456220609844
 20
823.79328508642811
 30
0.0
 11
903.83456220609844
 21
823.79328508642811
 31
0.0
  0
LINE
  5
1E8
100
AcDbEntity
  8
0
  6
Continuous
 62
               2
100
AcDbLine
 10
864.33456220609889
 20
823.79328508642811
 30
0.0
 11
904.83456220609844
 21
823.79328508642811
 31
0.0
  0
LINE
  5
1E9
100
AcDbEntity
  8
0
  6
DIVIDE
 62
               4
100
AcDbLine
 10
1007.3345622060989
 20
942.79328508642811
 30
0.0
 11
1007.3345622060989
 21
1151.2932850864281
 31
0.0
  0
LINE
  5
1EA
100
AcDbEntity
  8
0
  6
DIVIDE
 62
               4
100
AcDbLine
 10
1007.3345622060989
 20
942.79328508642811
 30
0.0
 11
1013.3345622060989
 21
942.79328508642811
 31
0.0
  0
LINE
  5
1EB
100
AcDbEntity
  8
0
  6
DIVIDE
 62
               4
100
AcDbLine
 10
1013.3345622060989
 20
942.79328508642811
 30
0.0
 11
1013.3345622060989
 21
837.79328508642811
 31
0.0
  0
LINE
  5
1EC
100
AcDbEntity
  8
0
  6
DIVIDE
 62
               4
100
AcDbLine
 10
1013.3345622060989
 20
837.79328508642811
 30
0.0
 11
986.83456220609844
 21
837.79328508642811
 31
0.0
  0
LINE
  5
1ED
100
AcDbEntity
  8
0
  6
DIVIDE
 62
               4
100
AcDbLine
 10
986.83456220609844
 20
837.79328508642811
 30
0.0
 11
986.83456220609844
 21
813.99328508642793
 31
0.0
  0
LINE
  5
1EE
100
AcDbEntity
  8
0
  6
Continuous
 62
               4
100
AcDbLine
 10
986.83456220609844
 20
813.99328508642793
 30
0.0
 11
971.83456220609844
 21
813.99328508642793
 31
0.0
  0
LINE
  5
1EF
100
AcDbEntity
  8
0
  6
Continuous
 62
               4
100
AcDbLine
 10
882.33456220609889
 20
337.93542071015878
 30
0.0
 11
882.33456220609889
 21
166.293285086428
 31
0.0
  0
LINE
  5
1F0
100
AcDbEntity
  8
0
  6
Continuous
 62
               4
100
AcDbLine
 10
897.47232965209344
 20
353.07318815615326
 30
0.0
 11
882.33456220609889
 21
337.93542071015878
 31
0.0
  0
LINE
  5
1F1
100
AcDbEntity
  8
0
  6
Continuous
 62
               4
100
AcDbLine
 10
922.33456220609889
 20
357.59359407506338
 30
0.0
 11
897.47232965209344
 21
353.07318815615326
 31
0.0
  0
LINE
  5
1F2
100
AcDbEntity
  8
0
  6
Continuous
 62
               4
100
AcDbLine
 10
922.33456220609889
 20
357.59359407506338
 30
0.0
 11
922.33456220609889
 21
347.42964872279163
 31
0.0
  0
LINE
  5
1F3
100
AcDbEntity
  8
0
  6
Continuous
 62
               4
100
AcDbLine
 10
934.47709387339557
 20
349.63738175320918
 30
0.0
 11
902.33456220609889
 21
343.793285086428
 31
0.0
  0
LINE
  5
1F4
100
AcDbEntity
  8
0
  6
Continuous
 62
               4
100
AcDbLine
 10
902.33456220609889
 20
343.793285086428
 30
0.0
 11
892.33456220609889
 21
333.793285086428
 31
0.0
  0
LINE
  5
1F5
100
AcDbEntity
  8
0
  6
Continuous
 62
               4
100
AcDbLine
 10
892.33456220609889
 20
333.793285086428
 30
0.0
 11
892.33456220609889
 21
193.793285086428
 31
0.0
  0
LINE
  5
1F6
100
AcDbEntity
  8
0
  6
Continuous
 62
               4
100
AcDbLine
 10
892.33456220609889
 20
333.793285086428
 30
0.0
 11
882.33456220609889
 21
337.93542071015878
 31
0.0
  0
LINE
  5
1F7
100
AcDbEntity
  8
0
  6
Continuous
 62
               4
100
AcDbLine
 10
897.47232965209344
 20
353.07318815615326
 30
0.0
 11
902.33456220609889
 21
343.793285086428
 31
0.0
  0
LINE
  5
1F8
100
AcDbEntity
  8
0
  6
Continuous
 62
               6
100
AcDbLine
 10
902.33456220609889
 20
373.793285086428
 30
0.0
 11
936.33456220609889
 21
373.79328508642789
 31
0.0
  0
LINE
  5
1F9
100
AcDbEntity
  8
0
  6
Continuous
 62
               6
100
AcDbLine
 10
936.51344764429916
 20
360.17157324564516
 30
0.0
 11
902.33456220609889
 21
353.95723043869975
 31
0.0
  0
LINE
  5
1FA
100
AcDbEntity
  8
0
  6
Continuous
 62
               6
100
AcDbLine
 10
912.33456220609889
 20
372.79328508642789
 30
0.0
 11
912.15567676789908
 21
356.94110034879986
 31
0.0
  0
LINE
  5
1FB
100
AcDbEntity
  8
0
  6
Continuous
 62
               6
100
AcDbLine
 10
937.33456220609889
 20
372.79328508642789
 30
0.0
 11
937.33456220609889
 21
361.15544315574516
 31
0.0
  0
LINE
  5
1FC
100
AcDbEntity
  8
0
  6
Continuous
 62
               6
100
AcDbLine
 10
903.33456220609889
 20
372.793285086428
 30
0.0
 11
903.33456220609889
 21
354.95723043869975
 31
0.0
  0
LINE
  5
1FD
100
AcDbEntity
  8
0
  6
DASHED
 62
               4
100
AcDbLine
 10
904.33456220609889
 20
454.543285086428
 30
0.0
 11
904.33456220609889
 21
423.793285086428
 31
0.0
  0
LINE
  5
1FE
100
AcDbEntity
  8
0
  6
DASHED
 62
               4
100
AcDbLine
 10
904.33456220609889
 20
423.793285086428
 30
0.0
 11
939.33456220609889
 21
423.793285086428
 31
0.0
  0
LINE
  5
1FF
100
AcDbEntity
  8
0
  6
DASHED
 62
               4
100
AcDbLine
 10
939.33456220609889
 20
423.793285086428
 30
0.0
 11
939.33456220609889
 21
373.793285086428
 31
0.0
  0
LINE
  5
200
100
AcDbEntity
  8
0
  6
Continuous
 62
               6
100
AcDbLine
 10
1442.3345622060988
 20
483.793285086428
 30
0.0
 11
1012.3345622060989
 21
483.793285086428
 31
0.0
  0
LINE
  5
201
100
AcDbEntity
  8
0
  6
Continuous
 62
               6
100
AcDbLine
 10
1012.3345622060989
 20
483.793285086428
 30
0.0
 11
1012.3345622060989
 21
363.793285086428
 31
0.0
  0
LINE
  5
202
100
AcDbEntity
  8
0
  6
Continuous
 62
               6
100
AcDbLine
 10
1012.3345622060989
 20
363.793285086428
 30
0.0
 11
902.33456220609889
 21
343.793285086428
 31
0.0
  0
LINE
  5
203
100
AcDbEntity
  8
0
  6
Continuous
 62
               6
100
AcDbLine
 10
892.33456220609889
 20
333.793285086428
 30
0.0
 11
892.33456220609889
 21
166.293285086428
 31
0.0
  0
LINE
  5
204
100
AcDbEntity
  8
0
  6
Continuous
 62
               6
100
AcDbLine
 10
902.33456220609889
 20
343.793285086428
 30
0.0
 11
892.33456220609889
 21
333.793285086428
 31
0.0
  0
LINE
  5
205
100
AcDbEntity
  8
0
  6
Continuous
 62
               7
100
AcDbLine
 10
904.83456220609889
 20
456.67225278852197
 30
0.0
 11
912.83456220609889
 21
456.67225278852197
 31
0.0
  0
LINE
  5
206
100
AcDbEntity
  8
0
  6
Continuous
 62
               7
100
AcDbLine
 10
912.83456220609889
 20
456.67225278852197
 30
0.0
 11
912.83456220609889
 21
460.67225278852197
 31
0.0
  0
LINE
  5
207
100
AcDbEntity
  8
0
  6
Continuous
 62
               7
100
AcDbLine
 10
912.83456220609889
 20
460.67225278852197
 30
0.0
 11
904.83456220609889
 21
460.67225278852197
 31
0.0
  0
LINE
  5
208
100
AcDbEntity
  8
0
  6
Continuous
 62
               7
100
AcDbLine
 10
904.83456220609889
 20
462.67225278852197
 30
0.0
 11
904.83456220609889
 21
454.67225278852197
 31
0.0
  0
LINE
  5
209
100
AcDbEntity
  8
0
  6
Continuous
 62
               7
100
AcDbLine
 10
902.23456220609899
 20
457.27225278852188
 30
0.0
 11
902.23456220609899
 21
460.07225278852184
 31
0.0
  0
LINE
  5
20A
100
AcDbEntity
  8
0
  6
Continuous
 62
               7
100
AcDbLine
 10
912.83456220609889
 20
457.17225278852197
 30
0.0
 11
916.96853680231459
 21
457.17225278852197
 31
0.0
  0
LINE
  5
20B
100
AcDbEntity
  8
0
  6
Continuous
 62
               7
100
AcDbLine
 10
912.83456220609889
 20
460.17225278852197
 30
0.0
 11
916.96853680231459
 21
460.17225278852197
 31
0.0
  0
LINE
  5
20C
100
AcDbEntity
  8
0
  6
Continuous
 62
               7
100
AcDbLine
 10
916.96853680231459
 20
457.17225278852197
 30
0.0
 11
917.83456220609889
 21
458.67225278852197
 31
0.0
  0
LINE
  5
20D
100
AcDbEntity
  8
0
  6
Continuous
 62
               7
100
AcDbLine
 10
916.96853680231459
 20
460.17225278852197
 30
0.0
 11
917.83456220609889
 21
458.67225278852197
 31
0.0
  0
LINE
  5
20E
100
AcDbEntity
  8
0
  6
Continuous
 62
               7
100
AcDbLine
 10
904.83456220609889
 20
457.17225278852197
 30
0.0
 11
912.83456220609889
 21
457.17225278852197
 31
0.0
  0
LINE
  5
20F
100
AcDbEntity
  8
0
  6
Continuous
 62
               7
100
AcDbLine
 10
904.83456220609889
 20
460.17225278852197
 30
0.0
 11
912.83456220609889
 21
460.17225278852197
 31
0.0
  0
LINE
  5
210
100
AcDbEntity
  8
0
  6
Continuous
 62
               7
100
AcDbLine
 10
912.83456220609889
 20
460.17225278852197
 30
0.0
 11
917.83456220609889
 21
458.67225278852197
 31
0.0
  0
LINE
  5
211
100
AcDbEntity
  8
0
  6
DASHDOT
 62
               4
100
AcDbLine
 10
899.23456220609899
 20
458.67225278852197
 30
0.0
 11
920.83456220609889
 21
458.67225278852197
 31
0.0
  0
LINE
  5
212
100
AcDbEntity
  8
0
  6
Continuous
 62
               7
100
AcDbLine
 10
939.33456220609889
 20
380.52055781370098
 30
0.0
 11
941.63456220609908
 21
380.52055781370098
 31
0.0
  0
LINE
  5
213
100
AcDbEntity
  8
0
  6
Continuous
 62
               7
100
AcDbLine
 10
939.33456220609889
 20
380.52055781370098
 30
0.0
 11
939.33456220609889
 21
353.27644706290528
 31
0.0
  0
LINE
  5
214
100
AcDbEntity
  8
0
  6
Continuous
 62
               7
100
AcDbLine
 10
941.63456220609908
 20
380.52055781370098
 30
0.0
 11
941.63456220609908
 21
353.27644706290528
 31
0.0
  0
LINE
  5
215
100
AcDbEntity
  8
0
  6
Continuous
 62
               7
100
AcDbLine
 10
941.63456220609908
 20
353.27644706290528
 30
0.0
 11
973.35857255173607
 21
359.04444894392986
 31
0.0
  0
LINE
  5
216
100
AcDbEntity
  8
0
  6
Continuous
 62
               7
100
AcDbLine
 10
973.77000905959596
 20
356.7815481506999
 30
0.0
 11
973.35857255173607
 21
359.04444894392986
 31
0.0
  0
LINE
  5
217
100
AcDbEntity
  8
0
  6
Continuous
 62
               7
100
AcDbLine
 10
937.33456220609889
 20
364.21315097377192
 30
0.0
 11
945.33456220609889
 21
364.21315097377192
 31
0.0
  0
LINE
  5
218
100
AcDbEntity
  8
0
  6
Continuous
 62
               7
100
AcDbLine
 10
945.33456220609889
 20
364.21315097377192
 30
0.0
 11
945.33456220609889
 21
368.21315097377192
 31
0.0
  0
LINE
  5
219
100
AcDbEntity
  8
0
  6
Continuous
 62
               7
100
AcDbLine
 10
945.33456220609889
 20
368.21315097377192
 30
0.0
 11
937.33456220609889
 21
368.21315097377192
 31
0.0
  0
LINE
  5
21A
100
AcDbEntity
  8
0
  6
Continuous
 62
               7
100
AcDbLine
 10
937.33456220609889
 20
370.21315097377192
 30
0.0
 11
937.33456220609889
 21
362.21315097377192
 31
0.0
  0
LINE
  5
21B
100
AcDbEntity
  8
0
  6
Continuous
 62
               7
100
AcDbLine
 10
934.73456220609899
 20
364.81315097377183
 30
0.0
 11
934.73456220609899
 21
367.61315097377189
 31
0.0
  0
LINE
  5
21C
100
AcDbEntity
  8
0
  6
Continuous
 62
               7
100
AcDbLine
 10
945.33456220609889
 20
364.71315097377192
 30
0.0
 11
949.46853680231459
 21
364.71315097377192
 31
0.0
  0
LINE
  5
21D
100
AcDbEntity
  8
0
  6
Continuous
 62
               7
100
AcDbLine
 10
945.33456220609889
 20
367.71315097377192
 30
0.0
 11
949.46853680231459
 21
367.71315097377192
 31
0.0
  0
LINE
  5
21E
100
AcDbEntity
  8
0
  6
Continuous
 62
               7
100
AcDbLine
 10
949.46853680231459
 20
364.71315097377192
 30
0.0
 11
950.33456220609889
 21
366.21315097377192
 31
0.0
  0
LINE
  5
21F
100
AcDbEntity
  8
0
  6
Continuous
 62
               7
100
AcDbLine
 10
949.46853680231459
 20
367.71315097377192
 30
0.0
 11
950.33456220609889
 21
366.21315097377192
 31
0.0
  0
LINE
  5
220
100
AcDbEntity
  8
0
  6
Continuous
 62
               7
100
AcDbLine
 10
937.33456220609889
 20
364.71315097377192
 30
0.0
 11
945.33456220609889
 21
364.71315097377192
 31
0.0
  0
LINE
  5
221
100
AcDbEntity
  8
0
  6
Continuous
 62
               7
100
AcDbLine
 10
937.33456220609889
 20
367.71315097377192
 30
0.0
 11
945.33456220609889
 21
367.71315097377192
 31
0.0
  0
LINE
  5
222
100
AcDbEntity
  8
0
  6
Continuous
 62
               7
100
AcDbLine
 10
945.33456220609889
 20
367.71315097377192
 30
0.0
 11
950.33456220609889
 21
366.21315097377192
 31
0.0
  0
LINE
  5
223
100
AcDbEntity
  8
0
  6
DASHDOT
 62
               4
100
AcDbLine
 10
931.73456220609899
 20
366.21315097377192
 30
0.0
 11
953.33456220609889
 21
366.21315097377192
 31
0.0
  0
LINE
  5
224
100
AcDbEntity
  8
0
  6
DASHDOT
 62
               4
100
AcDbLine
 10
824.33456220609889
 20
437.13343251191532
 30
0.0
 11
939.33456220609889
 21
373.793285086428
 31
0.0
  0
LINE
  5
225
100
AcDbEntity
  8
0
  6
DASHDOT
 62
               4
100
AcDbLine
 10
904.33456220609889
 20
453.79328508642777
 30
0.0
 11
824.33456220609889
 21
375.793285086428
 31
0.0
  0
LINE
  5
226
100
AcDbEntity
  8
0
  6
Continuous
 62
               6
100
AcDbLine
 10
873.11993635575902
 20
463.793285086428
 30
0.0
 11
873.11993635575902
 21
448.03062472226861
 31
0.0
  0
LINE
  5
227
100
AcDbEntity
  8
0
  6
Continuous
 62
               6
100
AcDbLine
 10
904.83456220609844
 20
462.793285086428
 30
0.0
 11
904.83456220609889
 21
454.67225278852197
 31
0.0
  0
LINE
  5
228
100
AcDbEntity
  8
0
  6
Continuous
 62
               6
100
AcDbLine
 10
883.61993635575902
 20
462.793285086428
 30
0.0
 11
883.61993635575902
 21
451.1365896786192
 31
0.0
  0
LINE
  5
229
100
AcDbEntity
  8
0
  6
Continuous
 62
               6
100
AcDbLine
 10
884.79871262472363
 20
450.15269992582421
 30
0.0
 11
904.01333847506373
 21
453.68836303572687
 31
0.0
  0
LINE
  5
22A
100
AcDbEntity
  8
0
  6
Continuous
 62
               6
100
AcDbLine
 10
873.11993635575902
 20
463.793285086428
 30
0.0
 11
903.83456220609844
 21
463.79328508642811
 31
0.0
  0
LINE
  5
22B
100
AcDbEntity
  8
0
  6
Continuous
 62
               6
100
AcDbLine
 10
873.11993635575902
 20
448.03062472226861
 30
0.0
 11
884.79871262472363
 21
450.15269992582421
 31
0.0
  0
LINE
  5
22C
100
AcDbEntity
  8
0
  6
Continuous
 62
               7
100
AcDbLine
 10
872.83456220609844
 20
463.793285086428
 30
0.0
 11
906.83456220609844
 21
463.793285086428
 31
0.0
  0
LINE
  5
22D
100
AcDbEntity
  8
0
  6
Continuous
 62
               7
100
AcDbLine
 10
904.83456220609844
 20
463.793285086428
 30
0.0
 11
904.83456220609844
 21
453.79328508642777
 31
0.0
  0
LINE
  5
22E
100
AcDbEntity
  8
0
  6
Continuous
 62
               7
100
AcDbLine
 10
904.83456220609844
 20
453.79328508642777
 30
0.0
 11
823.96598513599849
 21
439.09917688578412
 31
0.0
  0
LINE
  5
22F
100
AcDbEntity
  8
0
  6
Continuous
 62
               7
100
AcDbLine
 10
905.20313927619884
 20
451.82754071255931
 30
0.0
 11
824.33456220609889
 21
437.13343251191532
 31
0.0
  0
LINE
  5
230
100
AcDbEntity
  8
0
  6
Continuous
 62
               7
100
AcDbLine
 10
822.33456220609889
 20
437.13343251191532
 30
0.0
 11
822.33456220609889
 21
375.79328508642789
 31
0.0
  0
LINE
  5
231
100
AcDbEntity
  8
0
  6
Continuous
 62
               7
100
AcDbLine
 10
824.33456220609889
 20
437.13343251191532
 30
0.0
 11
824.33456220609889
 21
375.793285086428
 31
0.0
  0
LINE
  5
232
100
AcDbEntity
  8
0
  6
Continuous
 62
               7
100
AcDbLine
 10
824.33456220609889
 20
373.79328508642789
 30
0.0
 11
937.33456220609889
 21
373.79328508642789
 31
0.0
  0
LINE
  5
233
100
AcDbEntity
  8
0
  6
Continuous
 62
               7
100
AcDbLine
 10
824.33456220609889
 20
375.793285086428
 30
0.0
 11
937.33456220609912
 21
375.793285086428
 31
0.0
  0
LINE
  5
234
100
AcDbEntity
  8
0
  6
Continuous
 62
               7
100
AcDbLine
 10
937.33456220609889
 20
373.79328508642789
 30
0.0
 11
937.33456220609889
 21
358.79328508642789
 31
0.0
  0
LINE
  5
235
100
AcDbEntity
  8
0
  6
Continuous
 62
               7
100
AcDbLine
 10
937.33456220609889
 20
358.79328508642789
 30
0.0
 11
939.33456220609889
 21
358.79328508642789
 31
0.0
  0
LINE
  5
236
100
AcDbEntity
  8
0
  6
DASHED
 62
               6
100
AcDbLine
 10
957.99152976251219
 20
462.91452116895221
 30
0.0
 11
1021.6810654359257
 21
349.65700298369006
 31
0.0
  0
LINE
  5
237
100
AcDbEntity
  8
0
  6
DASHED
 62
               6
100
AcDbLine
 10
950.14682262258668
 20
458.50310757591842
 30
0.0
 11
1013.8363582960002
 21
345.24558939065605
 31
0.0
  0
LINE
  5
238
100
AcDbEntity
  8
0
  6
DASHED
 62
               6
100
AcDbLine
 10
957.99152976251219
 20
462.91452116895221
 30
0.0
 11
950.14682262258668
 21
458.50310757591842
 31
0.0
  0
LINE
  5
239
100
AcDbEntity
  8
0
  6
DASHED
 62
               6
100
AcDbLine
 10
956.76591768921605
 20
463.25785052364131
 30
0.0
 11
950.49015197727579
 21
459.72871964921421
 31
0.0
  0
LINE
  5
23A
100
AcDbEntity
  8
0
  6
DASHED
 62
               6
100
AcDbLine
 10
957.99152976251219
 20
462.91452116895221
 30
0.0
 11
956.76591768921605
 21
463.25785052364131
 31
0.0
  0
LINE
  5
23B
100
AcDbEntity
  8
0
  6
DASHED
 62
               6
100
AcDbLine
 10
950.14682262258668
 20
458.50310757591842
 30
0.0
 11
950.49015197727579
 21
459.72871964921421
 31
0.0
  0
LINE
  5
23C
100
AcDbEntity
  8
0
  6
Continuous
 62
               6
100
AcDbLine
 10
837.33456220609889
 20
373.79328508642789
 30
0.0
 11
856.33456220609844
 21
373.79328508642789
 31
0.0
  0
LINE
  5
23D
100
AcDbEntity
  8
0
  6
Continuous
 62
               6
100
AcDbLine
 10
837.33456220609889
 20
358.79328508642789
 30
0.0
 11
856.33456220609844
 21
358.793285086428
 31
0.0
  0
LINE
  5
23E
100
AcDbEntity
  8
0
  6
Continuous
 62
               6
100
AcDbLine
 10
849.33456220609844
 20
372.79328508642789
 30
0.0
 11
849.33456220609844
 21
359.793285086428
 31
0.0
  0
LINE
  5
23F
100
AcDbEntity
  8
0
  6
Continuous
 62
               6
100
AcDbLine
 10
857.33456220609844
 20
372.79328508642789
 30
0.0
 11
857.33456220609844
 21
359.793285086428
 31
0.0
  0
LINE
  5
240
100
AcDbEntity
  8
0
  6
Continuous
 62
               6
100
AcDbLine
 10
838.33456220609889
 20
372.79328508642789
 30
0.0
 11
838.33456220609889
 21
359.793285086428
 31
0.0
  0
LINE
  5
241
100
AcDbEntity
  8
0
  6
Continuous
 62
               4
100
AcDbLine
 10
902.33456220609889
 20
353.95723043869975
 30
0.0
 11
903.33456220609889
 21
354.95723043869975
 31
0.0
  0
LINE
  5
242
100
AcDbEntity
  8
0
  6
Continuous
 62
               4
100
AcDbLine
 10
903.33456220609889
 20
354.95723043869975
 30
0.0
 11
903.33456220609889
 21
358.79328508642789
 31
0.0
  0
LINE
  5
243
100
AcDbEntity
  8
0
  6
Continuous
 62
               4
100
AcDbLine
 10
903.33456220609889
 20
358.79328508642789
 30
0.0
 11
837.33456220609889
 21
358.79328508642789
 31
0.0
  0
LINE
  5
244
100
AcDbEntity
  8
0
  6
Continuous
 62
               4
100
AcDbLine
 10
837.33456220609889
 20
358.79328508642789
 30
0.0
 11
837.33456220609889
 21
166.293285086428
 31
0.0
  0
LINE
  5
245
100
AcDbEntity
  8
0
  6
Continuous
 62
               6
100
AcDbLine
 10
975.33456220609844
 20
508.79328508642766
 30
0.0
 11
970.03456220609871
 21
508.793285086428
 31
0.0
  0
LINE
  5
246
100
AcDbEntity
  8
0
  6
Continuous
 62
               6
100
AcDbLine
 10
975.33456220609844
 20
505.29328508642766
 30
0.0
 11
970.03456220609871
 21
505.29328508642811
 31
0.0
  0
LINE
  5
247
100
AcDbEntity
  8
0
  6
Continuous
 62
               6
100
AcDbLine
 10
970.03456220609871
 20
508.793285086428
 30
0.0
 11
970.03456220609871
 21
505.29328508642811
 31
0.0
  0
LINE
  5
248
100
AcDbEntity
  8
0
  6
Continuous
 62
               6
100
AcDbLine
 10
975.33456220609844
 20
508.79328508642766
 30
0.0
 11
975.33456220609844
 21
505.29328508642766
 31
0.0
  0
LINE
  5
249
100
AcDbEntity
  8
0
  6
DASHDOT
 62
               6
100
AcDbLine
 10
971.83456220609844
 20
523.793285086428
 30
0.0
 11
991.83456220609844
 21
523.79328508642811
 31
0.0
  0
LINE
  5
24A
100
AcDbEntity
  8
0
  6
DASHDOT
 62
               6
100
AcDbLine
 10
971.83456220609844
 20
503.18166979291198
 30
0.0
 11
971.83456220609844
 21
523.793285086428
 31
0.0
  0
LINE
  5
24B
100
AcDbEntity
  8
0
  6
DASHDOT
 62
               6
100
AcDbLine
 10
991.83456220609844
 20
503.18166979291198
 30
0.0
 11
971.83456220609844
 21
503.18166979291198
 31
0.0
  0
LINE
  5
24C
100
AcDbEntity
  8
0
  6
DASHDOT
 62
               6
100
AcDbLine
 10
991.83456220609844
 20
523.79328508642811
 30
0.0
 11
991.83456220609844
 21
503.18166979291198
 31
0.0
  0
LINE
  5
24D
100
AcDbEntity
  8
0
  6
Continuous
 62
               7
100
AcDbLine
 10
973.63456220609817
 20
495.88942157712802
 30
0.0
 11
973.63456220609817
 21
488.88942157712802
 31
0.0
  0
LINE
  5
24E
100
AcDbEntity
  8
0
  6
Continuous
 62
               7
100
AcDbLine
 10
976.2345622060983
 20
493.28942157712788
 30
0.0
 11
976.2345622060983
 21
491.48942157712781
 31
0.0
  0
LINE
  5
24F
100
AcDbEntity
  8
0
  6
Continuous
 62
               7
100
AcDbLine
 10
973.63456220609817
 20
494.38942157712802
 30
0.0
 11
965.63456220609817
 21
494.38942157712802
 31
0.0
  0
LINE
  5
250
100
AcDbEntity
  8
0
  6
Continuous
 62
               7
100
AcDbLine
 10
965.63456220609817
 20
494.38942157712802
 30
0.0
 11
965.63456220609817
 21
490.38942157712802
 31
0.0
  0
LINE
  5
251
100
AcDbEntity
  8
0
  6
Continuous
 62
               7
100
AcDbLine
 10
965.63456220609817
 20
490.38942157712802
 30
0.0
 11
973.63456220609817
 21
490.38942157712802
 31
0.0
  0
LINE
  5
252
100
AcDbEntity
  8
0
  6
Continuous
 62
               7
100
AcDbLine
 10
973.63456220609817
 20
493.88942157712802
 30
0.0
 11
965.63456220609817
 21
493.88942157712802
 31
0.0
  0
LINE
  5
253
100
AcDbEntity
  8
0
  6
Continuous
 62
               7
100
AcDbLine
 10
973.63456220609817
 20
490.88942157712802
 30
0.0
 11
965.63456220609817
 21
490.88942157712802
 31
0.0
  0
LINE
  5
254
100
AcDbEntity
  8
0
  6
DASHDOT
 62
               4
100
AcDbLine
 10
979.2345622060983
 20
492.38942157712802
 30
0.0
 11
962.63456220609817
 21
492.38942157712802
 31
0.0
  0
LINE
  5
255
100
AcDbEntity
  8
0
  6
Continuous
 62
               4
100
AcDbLine
 10
971.83456220609844
 20
508.793285086428
 30
0.0
 11
970.03456220609871
 21
508.793285086428
 31
0.0
  0
LINE
  5
256
100
AcDbEntity
  8
0
  6
Continuous
 62
               4
100
AcDbLine
 10
970.03456220609871
 20
508.793285086428
 30
0.0
 11
970.03456220609871
 21
473.79328508642766
 31
0.0
  0
LINE
  5
257
100
AcDbEntity
  8
0
  6
Continuous
 62
               4
100
AcDbLine
 10
970.03456220609871
 20
473.79328508642766
 30
0.0
 11
971.83456220609844
 21
473.79328508642766
 31
0.0
  0
LINE
  5
258
100
AcDbEntity
  8
0
  6
Continuous
 62
               7
100
AcDbLine
 10
991.83456220609844
 20
523.79328508642811
 30
0.0
 11
990.33456220609844
 21
523.79328508642766
 31
0.0
  0
LINE
  5
259
100
AcDbEntity
  8
0
  6
Continuous
 62
               7
100
AcDbLine
 10
991.83456220609844
 20
523.79328508642811
 30
0.0
 11
991.83456220609844
 21
507.29328508642766
 31
0.0
  0
LINE
  5
25A
100
AcDbEntity
  8
0
  6
DOT
 62
               4
100
AcDbLine
 10
1005.3345622060984
 20
522.29328508642766
 30
0.0
 11
1005.3345622060984
 21
520.79328508642766
 31
0.0
  0
LINE
  5
25B
100
AcDbEntity
  8
0
  6
DOT
 62
               4
100
AcDbLine
 10
1005.3345622060984
 20
520.79328508642766
 30
0.0
 11
1006.8345622060984
 21
520.79328508642766
 31
0.0
  0
LINE
  5
25C
100
AcDbEntity
  8
0
  6
DOT
 62
               4
100
AcDbLine
 10
1006.8345622060984
 20
520.79328508642766
 30
0.0
 11
1006.8345622060984
 21
523.79328508642766
 31
0.0
  0
LINE
  5
25D
100
AcDbEntity
  8
0
  6
DOT
 62
               4
100
AcDbLine
 10
1006.8345622060984
 20
523.79328508642766
 30
0.0
 11
991.83456220609844
 21
523.79328508642811
 31
0.0
  0
LINE
  5
25E
100
AcDbEntity
  8
0
  6
Continuous
 62
               7
100
AcDbLine
 10
990.33456220609844
 20
523.79328508642766
 30
0.0
 11
990.33456220609844
 21
508.79328508642766
 31
0.0
  0
LINE
  5
25F
100
AcDbEntity
  8
0
  6
Continuous
 62
               7
100
AcDbLine
 10
990.33456220609844
 20
508.79328508642766
 30
0.0
 11
975.33456220609844
 21
508.79328508642766
 31
0.0
  0
LINE
  5
260
100
AcDbEntity
  8
0
  6
Continuous
 62
               7
100
AcDbLine
 10
975.33456220609844
 20
508.79328508642766
 30
0.0
 11
975.33456220609844
 21
505.29328508642766
 31
0.0
  0
LINE
  5
261
100
AcDbEntity
  8
0
  6
Continuous
 62
               7
100
AcDbLine
 10
975.33456220609844
 20
505.29328508642766
 30
0.0
 11
971.83456220609844
 21
505.29328508642766
 31
0.0
  0
LINE
  5
262
100
AcDbEntity
  8
0
  6
Continuous
 62
               7
100
AcDbLine
 10
971.83456220609844
 20
505.29328508642766
 30
0.0
 11
971.83456220609844
 21
503.79328508642766
 31
0.0
  0
LINE
  5
263
100
AcDbEntity
  8
0
  6
Continuous
 62
               7
100
AcDbLine
 10
971.83456220609844
 20
503.79328508642766
 30
0.0
 11
972.03456220609826
 21
503.79328508642766
 31
0.0
  0
LINE
  5
264
100
AcDbEntity
  8
0
  6
Continuous
 62
               7
100
AcDbLine
 10
972.03456220609826
 20
503.79328508642766
 30
0.0
 11
972.03456220609826
 21
490.29328508642766
 31
0.0
  0
LINE
  5
265
100
AcDbEntity
  8
0
  6
Continuous
 62
               7
100
AcDbLine
 10
972.03456220609826
 20
490.29328508642766
 30
0.0
 11
971.83456220609844
 21
490.29328508642766
 31
0.0
  0
LINE
  5
266
100
AcDbEntity
  8
0
  6
Continuous
 62
               7
100
AcDbLine
 10
971.83456220609844
 20
490.29328508642766
 30
0.0
 11
971.83456220609844
 21
488.79328508642766
 31
0.0
  0
LINE
  5
267
100
AcDbEntity
  8
0
  6
Continuous
 62
               7
100
AcDbLine
 10
971.83456220609844
 20
488.79328508642766
 30
0.0
 11
972.03456220609826
 21
488.79328508642766
 31
0.0
  0
LINE
  5
268
100
AcDbEntity
  8
0
  6
Continuous
 62
               7
100
AcDbLine
 10
972.03456220609826
 20
488.79328508642766
 30
0.0
 11
972.03456220609826
 21
475.29328508642766
 31
0.0
  0
LINE
  5
269
100
AcDbEntity
  8
0
  6
Continuous
 62
               7
100
AcDbLine
 10
972.03456220609826
 20
475.29328508642766
 30
0.0
 11
971.83456220609844
 21
475.29328508642766
 31
0.0
  0
LINE
  5
26A
100
AcDbEntity
  8
0
  6
Continuous
 62
               7
100
AcDbLine
 10
971.83456220609844
 20
475.29328508642766
 30
0.0
 11
971.83456220609844
 21
473.79328508642766
 31
0.0
  0
LINE
  5
26B
100
AcDbEntity
  8
0
  6
Continuous
 62
               7
100
AcDbLine
 10
971.83456220609844
 20
473.79328508642766
 30
0.0
 11
973.63456220609817
 21
473.79328508642766
 31
0.0
  0
LINE
  5
26C
100
AcDbEntity
  8
0
  6
Continuous
 62
               7
100
AcDbLine
 10
973.63456220609817
 20
473.79328508642766
 30
0.0
 11
973.63456220609817
 21
479.49328508642736
 31
0.0
  0
LINE
  5
26D
100
AcDbEntity
  8
0
  6
Continuous
 62
               7
100
AcDbLine
 10
973.63456220609817
 20
503.79328508642766
 30
0.0
 11
975.78333294562037
 21
503.79328508642766
 31
0.0
  0
LINE
  5
26E
100
AcDbEntity
  8
0
  6
DOT
 62
               4
100
AcDbLine
 10
1005.3345622060984
 20
522.29328508642766
 30
0.0
 11
991.83456220609844
 21
522.29328508642766
 31
0.0
  0
LINE
  5
26F
100
AcDbEntity
  8
0
  6
Continuous
 62
               7
100
AcDbLine
 10
991.83456220609844
 20
507.29328508642766
 30
0.0
 11
982.43456220609835
 21
507.29328508642766
 31
0.0
  0
LINE
  5
270
100
AcDbEntity
  8
0
  6
Continuous
 62
               7
100
AcDbLine
 10
973.63456220609817
 20
495.09328508642761
 30
0.0
 11
973.63456220609817
 21
503.79328508642766
 31
0.0
  0
LINE
  5
271
100
AcDbEntity
  8
0
  6
Continuous
 62
               7
100
AcDbLine
 10
973.63456220609817
 20
485.09328508642761
 30
0.0
 11
973.63456220609817
 21
494.49328508642736
 31
0.0
  0
LINE
  5
272
100
AcDbEntity
  8
0
  6
Continuous
 62
               7
100
AcDbLine
 10
973.63456220609817
 20
480.09328508642761
 30
0.0
 11
973.63456220609817
 21
484.49328508642736
 31
0.0
  0
LINE
  5
273
100
AcDbEntity
  8
0
  6
Continuous
 62
               7
100
AcDbLine
 10
976.08501678912546
 20
503.29328508642766
 30
0.0
 11
977.48344786958535
 21
503.29328508642766
 31
0.0
  0
LINE
  5
274
100
AcDbEntity
  8
0
  6
Continuous
 62
               7
100
AcDbLine
 10
980.1856765426113
 20
503.29328508642766
 30
0.0
 11
981.58410762307233
 21
503.29328508642766
 31
0.0
  0
LINE
  5
275
100
AcDbEntity
  8
0
  6
Continuous
 62
               7
100
AcDbLine
 10
971.83456220609844
 20
518.93671797826096
 30
0.0
 11
970.83456220609844
 21
517.93671797826096
 31
0.0
  0
LINE
  5
276
100
AcDbEntity
  8
0
  6
Continuous
 62
               7
100
AcDbLine
 10
970.83456220609844
 20
517.93671797826096
 30
0.0
 11
965.83456220609844
 21
517.93671797826096
 31
0.0
  0
LINE
  5
277
100
AcDbEntity
  8
0
  6
Continuous
 62
               7
100
AcDbLine
 10
965.83456220609844
 20
517.93671797826096
 30
0.0
 11
965.83456220609844
 21
513.93671797826096
 31
0.0
  0
LINE
  5
278
100
AcDbEntity
  8
0
  6
Continuous
 62
               7
100
AcDbLine
 10
965.83456220609844
 20
513.93671797826096
 30
0.0
 11
970.83456220609844
 21
513.93671797826096
 31
0.0
  0
LINE
  5
279
100
AcDbEntity
  8
0
  6
Continuous
 62
               7
100
AcDbLine
 10
970.83456220609844
 20
513.93671797826096
 30
0.0
 11
971.83456220609844
 21
512.93671797826096
 31
0.0
  0
LINE
  5
27A
100
AcDbEntity
  8
0
  6
Continuous
 62
               7
100
AcDbLine
 10
971.83456220609844
 20
512.93671797826096
 30
0.0
 11
971.83456220609844
 21
518.93671797826096
 31
0.0
  0
LINE
  5
27B
100
AcDbEntity
  8
0
  6
Continuous
 62
               7
100
AcDbLine
 10
970.83456220609844
 20
517.93671797826096
 30
0.0
 11
970.83456220609844
 21
513.93671797826096
 31
0.0
  0
LINE
  5
27C
100
AcDbEntity
  8
0
  6
Continuous
 62
               7
100
AcDbLine
 10
970.83456220609844
 20
517.43671797826096
 30
0.0
 11
965.83456220609844
 21
517.43671797826096
 31
0.0
  0
LINE
  5
27D
100
AcDbEntity
  8
0
  6
Continuous
 62
               7
100
AcDbLine
 10
970.83456220609844
 20
514.43671797826096
 30
0.0
 11
965.83456220609844
 21
514.43671797826096
 31
0.0
  0
LINE
  5
27E
100
AcDbEntity
  8
0
  6
DASHDOT
 62
               4
100
AcDbLine
 10
974.83456220609844
 20
515.93671797826096
 30
0.0
 11
962.83456220609844
 21
515.93671797826096
 31
0.0
  0
LINE
  5
27F
100
AcDbEntity
  8
0
  6
Continuous
 62
               7
100
AcDbLine
 10
955.23456220609853
 20
520.99328508642816
 30
0.0
 11
970.03456220609871
 21
520.99328508642793
 31
0.0
  0
LINE
  5
280
100
AcDbEntity
  8
0
  6
Continuous
 62
               7
100
AcDbLine
 10
970.03456220609871
 20
520.99328508642816
 30
0.0
 11
970.03456220609894
 21
473.19204093564088
 31
0.0
  0
LINE
  5
281
100
AcDbEntity
  8
0
  6
Continuous
 62
               7
100
AcDbLine
 10
968.03456220609894
 20
520.99328508642793
 30
0.0
 11
968.03456220609894
 21
473.19204093564088
 31
0.0
  0
LINE
  5
282
100
AcDbEntity
  8
0
  6
Continuous
 62
               7
100
AcDbLine
 10
970.03456220609894
 20
473.19204093564088
 30
0.0
 11
968.03456220609894
 21
473.19204093564088
 31
0.0
  0
LINE
  5
283
100
AcDbEntity
  8
0
  6
Continuous
 62
               6
100
AcDbLine
 10
991.83456220609844
 20
483.793285086428
 30
0.0
 11
991.83456220609844
 21
523.79328508642811
 31
0.0
  0
LINE
  5
284
100
AcDbEntity
  8
0
  6
Continuous
 62
               6
100
AcDbLine
 10
1041.8345622060983
 20
483.79328508642811
 30
0.0
 11
991.83456220609844
 21
483.793285086428
 31
0.0
  0
LINE
  5
285
100
AcDbEntity
  8
0
  6
Continuous
 62
               6
100
AcDbLine
 10
1041.8345622060983
 20
498.79328508642811
 30
0.0
 11
1041.8345622060983
 21
483.79328508642811
 31
0.0
  0
LINE
  5
286
100
AcDbEntity
  8
0
  6
Continuous
 62
               6
100
AcDbLine
 10
1021.8345622060984
 20
523.793285086428
 30
0.0
 11
1041.8345622060983
 21
498.79328508642811
 31
0.0
  0
LINE
  5
287
100
AcDbEntity
  8
0
  6
Continuous
 62
               6
100
AcDbLine
 10
991.83456220609844
 20
523.79328508642811
 30
0.0
 11
1021.8345622060984
 21
523.793285086428
 31
0.0
  0
LINE
  5
288
100
AcDbEntity
  8
0
  6
DASHDOT
 62
               3
100
AcDbLine
 10
1442.3345622060988
 20
498.793285086428
 30
0.0
 11
626.33456220609901
 21
498.793285086428
 31
0.0
  0
LINE
  5
289
100
AcDbEntity
  8
0
  6
DASHED
 62
               6
100
AcDbLine
 10
964.83456220609844
 20
813.79328508642811
 30
0.0
 11
908.83456220609844
 21
813.79328508642811
 31
0.0
  0
LINE
  5
28A
100
AcDbEntity
  8
0
  6
DASHED
 62
               6
100
AcDbLine
 10
964.83456220609844
 20
816.09328508642807
 30
0.0
 11
964.83456220609844
 21
813.79328508642811
 31
0.0
  0
LINE
  5
28B
100
AcDbEntity
  8
0
  6
DASHED
 62
               6
100
AcDbLine
 10
908.83456220609844
 20
816.09328508642807
 30
0.0
 11
908.83456220609844
 21
813.79328508642811
 31
0.0
  0
LINE
  5
28C
100
AcDbEntity
  8
0
  6
DASHED
 62
               6
100
AcDbLine
 10
928.83456220609844
 20
826.79328508642811
 30
0.0
 11
928.83456220609844
 21
816.09328508642807
 31
0.0
  0
LINE
  5
28D
100
AcDbEntity
  8
0
  6
DASHED
 62
               6
100
AcDbLine
 10
908.83456220609844
 20
816.09328508642807
 30
0.0
 11
964.83456220609844
 21
816.09328508642807
 31
0.0
  0
LINE
  5
28E
100
AcDbEntity
  8
0
  6
DASHED
 62
               6
100
AcDbLine
 10
944.83456220609844
 20
826.79328508642811
 30
0.0
 11
944.83456220609844
 21
816.09328508642807
 31
0.0
  0
LINE
  5
28F
100
AcDbEntity
  8
0
  6
DASHED
 62
               6
100
AcDbLine
 10
942.83456220609844
 20
828.79328508642811
 30
0.0
 11
930.83456220609844
 21
828.79328508642811
 31
0.0
  0
LINE
  5
290
100
AcDbEntity
  8
0
  6
DASHED
 62
               6
100
AcDbLine
 10
964.83456220609844
 20
811.79328508642811
 30
0.0
 11
964.83456220609844
 21
809.49328508642793
 31
0.0
  0
LINE
  5
291
100
AcDbEntity
  8
0
  6
DASHED
 62
               6
100
AcDbLine
 10
959.83456220609844
 20
811.79328508642811
 30
0.0
 11
964.83456220609844
 21
811.79328508642811
 31
0.0
  0
LINE
  5
292
100
AcDbEntity
  8
0
  6
DASHED
 62
               6
100
AcDbLine
 10
958.88187101264054
 20
809.49328508642793
 30
0.0
 11
954.58187101264059
 21
813.79328508642811
 31
0.0
  0
LINE
  5
293
100
AcDbEntity
  8
0
  6
DASHED
 62
               6
100
AcDbLine
 10
959.83456220609844
 20
811.79328508642811
 30
0.0
 11
957.83456220609844
 21
813.79328508642811
 31
0.0
  0
LINE
  5
294
100
AcDbEntity
  8
0
  6
DASHED
 62
               6
100
AcDbLine
 10
964.83456220609844
 20
809.49328508642793
 30
0.0
 11
958.88187101264054
 21
809.49328508642793
 31
0.0
  0
LINE
  5
295
100
AcDbEntity
  8
0
  6
DASHED
 62
               6
100
AcDbLine
 10
908.83456220609844
 20
809.49328508642793
 30
0.0
 11
908.83456220609844
 21
811.79328508642811
 31
0.0
  0
LINE
  5
296
100
AcDbEntity
  8
0
  6
DASHED
 62
               6
100
AcDbLine
 10
908.83456220609844
 20
811.79328508642811
 30
0.0
 11
913.83456220609844
 21
811.79328508642811
 31
0.0
  0
LINE
  5
297
100
AcDbEntity
  8
0
  6
DASHED
 62
               6
100
AcDbLine
 10
919.08725339955674
 20
813.79328508642811
 30
0.0
 11
914.78725339955656
 21
809.49328508642793
 31
0.0
  0
LINE
  5
298
100
AcDbEntity
  8
0
  6
DASHED
 62
               6
100
AcDbLine
 10
915.83456220609844
 20
813.79328508642811
 30
0.0
 11
913.83456220609844
 21
811.79328508642811
 31
0.0
  0
LINE
  5
299
100
AcDbEntity
  8
0
  6
DASHED
 62
               6
100
AcDbLine
 10
914.78725339955656
 20
809.49328508642793
 30
0.0
 11
908.83456220609844
 21
809.49328508642793
 31
0.0
  0
LINE
  5
29A
100
AcDbEntity
  8
0
  6
Continuous
 62
               7
100
AcDbLine
 10
928.33456220609844
 20
761.54328508642811
 30
0.0
 11
927.33456220609844
 21
760.29328508642811
 31
0.0
  0
LINE
  5
29B
100
AcDbEntity
  8
0
  6
Continuous
 62
               7
100
AcDbLine
 10
925.83456220609844
 20
761.54328508642811
 30
0.0
 11
928.33456220609844
 21
761.54328508642811
 31
0.0
  0
LINE
  5
29C
100
AcDbEntity
  8
0
  6
Continuous
 62
               7
100
AcDbLine
 10
928.33456220609844
 20
769.54328508642811
 30
0.0
 11
927.33456220609844
 21
770.79328508642811
 31
0.0
  0
LINE
  5
29D
100
AcDbEntity
  8
0
  6
Continuous
 62
               7
100
AcDbLine
 10
925.83456220609844
 20
769.54328508642811
 30
0.0
 11
928.33456220609844
 21
769.54328508642811
 31
0.0
  0
LINE
  5
29E
100
AcDbEntity
  8
0
  6
Continuous
 62
               7
100
AcDbLine
 10
906.83456220609844
 20
780.59328508642807
 30
0.0
 11
889.34454796105535
 21
780.59328508642807
 31
0.0
  0
LINE
  5
29F
100
AcDbEntity
  8
0
  6
Continuous
 62
               7
100
AcDbLine
 10
877.93456220609858
 20
780.59328508642807
 30
0.0
 11
882.32457645114175
 21
780.59328508642807
 31
0.0
  0
LINE
  5
2A0
100
AcDbEntity
  8
0
  6
Continuous
 62
               7
100
AcDbLine
 10
961.73456220609853
 20
811.99328508642793
 30
0.0
 11
970.03456220609871
 21
811.99328508642793
 31
0.0
  0
LINE
  5
2A1
100
AcDbEntity
  8
0
  6
Continuous
 62
               7
100
AcDbLine
 10
966.03456220609871
 20
813.79328508642811
 30
0.0
 11
961.73456220609853
 21
813.79328508642811
 31
0.0
  0
LINE
  5
2A2
100
AcDbEntity
  8
0
  6
Continuous
 62
               7
100
AcDbLine
 10
971.83456220609844
 20
813.79328508642811
 30
0.0
 11
966.63456220609862
 21
813.79328508642811
 31
0.0
  0
LINE
  5
2A3
100
AcDbEntity
  8
0
  6
Continuous
 62
               7
100
AcDbLine
 10
873.63456220609862
 20
807.23215336337694
 30
0.0
 11
873.63456220609862
 21
783.79328508642811
 31
0.0
  0
LINE
  5
2A4
100
AcDbEntity
  8
0
  6
Continuous
 62
               7
100
AcDbLine
 10
906.83456220609844
 20
811.97501050623396
 30
0.0
 11
873.63456220609862
 21
807.23215336337694
 31
0.0
  0
LINE
  5
2A5
100
AcDbEntity
  8
0
  6
Continuous
 62
               7
100
AcDbLine
 10
906.83456220609844
 20
780.59328508642807
 30
0.0
 11
906.83456220609844
 21
811.97501050623396
 31
0.0
  0
LINE
  5
2A6
100
AcDbEntity
  8
0
  6
Continuous
 62
               7
100
AcDbLine
 10
908.63456220609862
 20
811.99328508642793
 30
0.0
 11
908.63456220609862
 21
781.59328508642807
 31
0.0
  0
LINE
  5
2A7
100
AcDbEntity
  8
0
  6
Continuous
 62
               7
100
AcDbLine
 10
911.93456220609858
 20
811.99328508642793
 30
0.0
 11
908.63456220609862
 21
811.99328508642793
 31
0.0
  0
LINE
  5
2A8
100
AcDbEntity
  8
0
  6
Continuous
 62
               7
100
AcDbLine
 10
908.63456220609862
 20
813.79328508642811
 30
0.0
 11
911.93456220609858
 21
813.79328508642811
 31
0.0
  0
LINE
  5
2A9
100
AcDbEntity
  8
0
  6
Continuous
 62
               7
100
AcDbLine
 10
908.63456220609862
 20
822.89328508642802
 30
0.0
 11
908.63456220609862
 21
813.79328508642811
 31
0.0
  0
LINE
  5
2AA
100
AcDbEntity
  8
0
  6
Continuous
 62
               7
100
AcDbLine
 10
906.83456220609844
 20
819.09328508642807
 30
0.0
 11
906.83456220609844
 21
822.89328508642802
 31
0.0
  0
LINE
  5
2AB
100
AcDbEntity
  8
0
  6
Continuous
 62
               7
100
AcDbLine
 10
906.83456220609844
 20
813.79328508642811
 30
0.0
 11
906.83456220609844
 21
818.49328508642793
 31
0.0
  0
LINE
  5
2AC
100
AcDbEntity
  8
0
  6
Continuous
 62
               7
100
AcDbLine
 10
871.83456220609844
 20
808.79328508642811
 30
0.0
 11
906.83456220609844
 21
813.79328508642811
 31
0.0
  0
LINE
  5
2AD
100
AcDbEntity
  8
0
  6
Continuous
 62
               7
100
AcDbLine
 10
874.93456220609858
 20
783.79329729345932
 30
0.0
 11
873.63456220609862
 21
783.79328508642811
 31
0.0
  0
LINE
  5
2AE
100
AcDbEntity
  8
0
  6
Continuous
 62
               7
100
AcDbLine
 10
877.93456220609858
 20
780.59328508642807
 30
0.0
 11
877.93456220609858
 21
780.79328508642811
 31
0.0
  0
LINE
  5
2AF
100
AcDbEntity
  8
0
  6
Continuous
 62
               7
100
AcDbLine
 10
934.33456220609844
 20
780.59328508642807
 30
0.0
 11
909.63456220609862
 21
780.59328508642807
 31
0.0
  0
LINE
  5
2B0
100
AcDbEntity
  8
0
  6
Continuous
 62
               7
100
AcDbLine
 10
871.83456220609844
 20
808.79328508642811
 30
0.0
 11
871.83456220609844
 21
778.79328508642811
 31
0.0
  0
LINE
  5
2B1
100
AcDbEntity
  8
0
  6
Continuous
 62
               7
100
AcDbLine
 10
875.23456220609853
 20
778.79328508642811
 30
0.0
 11
936.33456220609844
 21
778.79328508642811
 31
0.0
  0
LINE
  5
2B2
100
AcDbEntity
  8
0
  6
Continuous
 62
               7
100
AcDbLine
 10
874.83456220609844
 20
781.79328508642811
 30
0.0
 11
875.03456220609871
 21
781.79328508642811
 31
0.0
  0
LINE
  5
2B3
100
AcDbEntity
  8
0
  6
Continuous
 62
               7
100
AcDbLine
 10
873.83456220609844
 20
778.79328508642811
 30
0.0
 11
873.83456220609844
 21
780.79328508642811
 31
0.0
  0
LINE
  5
2B4
100
AcDbEntity
  8
0
  6
Continuous
 62
               7
100
AcDbLine
 10
871.83456220609844
 20
778.79328508642811
 30
0.0
 11
873.83456220609844
 21
778.79328508642811
 31
0.0
  0
LINE
  5
2B5
100
AcDbEntity
  8
0
  6
Continuous
 62
               7
100
AcDbLine
 10
969.03456220609871
 20
780.59328508642807
 30
0.0
 11
956.42685848546182
 21
780.59328508642807
 31
0.0
  0
LINE
  5
2B6
100
AcDbEntity
  8
0
  6
Continuous
 62
               7
100
AcDbLine
 10
952.33456220609844
 20
785.79328508642811
 30
0.0
 11
952.33456220609844
 21
784.79328508642811
 31
0.0
  0
LINE
  5
2B7
100
AcDbEntity
  8
0
  6
Continuous
 62
               7
100
AcDbLine
 10
947.33456220609844
 20
787.29328508642811
 30
0.0
 11
950.83456220609844
 21
787.29328508642811
 31
0.0
  0
LINE
  5
2B8
100
AcDbEntity
  8
0
  6
Continuous
 62
               7
100
AcDbLine
 10
947.33456220609844
 20
785.79328508642811
 30
0.0
 11
947.33456220609844
 21
787.29328508642811
 31
0.0
  0
LINE
  5
2B9
100
AcDbEntity
  8
0
  6
Continuous
 62
               7
100
AcDbLine
 10
950.33456220609844
 20
785.79328508642811
 30
0.0
 11
947.33456220609844
 21
785.79328508642811
 31
0.0
  0
LINE
  5
2BA
100
AcDbEntity
  8
0
  6
Continuous
 62
               7
100
AcDbLine
 10
950.33456220609844
 20
781.79328508642811
 30
0.0
 11
950.33456220609844
 21
785.79328508642811
 31
0.0
  0
LINE
  5
2BB
100
AcDbEntity
  8
0
  6
Continuous
 62
               7
100
AcDbLine
 10
935.83456220609844
 20
781.79328508642811
 30
0.0
 11
950.33456220609844
 21
781.79328508642811
 31
0.0
  0
LINE
  5
2BC
100
AcDbEntity
  8
0
  6
Continuous
 62
               7
100
AcDbLine
 10
934.33456220609844
 20
785.79328508642811
 30
0.0
 11
934.33456220609844
 21
780.59328508642807
 31
0.0
  0
LINE
  5
2BD
100
AcDbEntity
  8
0
  6
Continuous
 62
               7
100
AcDbLine
 10
935.83456220609844
 20
785.79328508642811
 30
0.0
 11
935.83456220609844
 21
781.79328508642811
 31
0.0
  0
LINE
  5
2BE
100
AcDbEntity
  8
0
  6
Continuous
 62
               7
100
AcDbLine
 10
938.33456220609844
 20
785.79328508642811
 30
0.0
 11
935.83456220609844
 21
785.79328508642811
 31
0.0
  0
LINE
  5
2BF
100
AcDbEntity
  8
0
  6
Continuous
 62
               7
100
AcDbLine
 10
938.33456220609844
 20
787.29328508642811
 30
0.0
 11
938.33456220609844
 21
785.79328508642811
 31
0.0
  0
LINE
  5
2C0
100
AcDbEntity
  8
0
  6
Continuous
 62
               7
100
AcDbLine
 10
935.83456220609844
 20
787.29328508642811
 30
0.0
 11
938.33456220609844
 21
787.29328508642811
 31
0.0
  0
LINE
  5
2C1
100
AcDbEntity
  8
0
  6
Continuous
 62
               7
100
AcDbLine
 10
970.03456220609871
 20
811.99328508642793
 30
0.0
 11
970.03456220609871
 21
781.59328508642807
 31
0.0
  0
LINE
  5
2C2
100
AcDbEntity
  8
0
  6
Continuous
 62
               7
100
AcDbLine
 10
971.83456220609844
 20
778.79328508642811
 30
0.0
 11
971.83456220609844
 21
813.79328508642811
 31
0.0
  0
LINE
  5
2C3
100
AcDbEntity
  8
0
  6
Continuous
 62
               7
100
AcDbLine
 10
938.33456220609844
 20
778.79328508642811
 30
0.0
 11
971.83456220609844
 21
778.79328508642811
 31
0.0
  0
LINE
  5
2C4
100
AcDbEntity
  8
0
  6
Continuous
 62
               7
100
AcDbLine
 10
936.33456220609844
 20
772.29328508642811
 30
0.0
 11
936.33456220609844
 21
778.79328508642811
 31
0.0
  0
LINE
  5
2C5
100
AcDbEntity
  8
0
  6
Continuous
 62
               7
100
AcDbLine
 10
925.83456220609844
 20
772.29328508642811
 30
0.0
 11
936.33456220609844
 21
772.29328508642811
 31
0.0
  0
LINE
  5
2C6
100
AcDbEntity
  8
0
  6
Continuous
 62
               7
100
AcDbLine
 10
925.83456220609844
 20
769.54328508642811
 30
0.0
 11
925.83456220609844
 21
772.29328508642811
 31
0.0
  0
LINE
  5
2C7
100
AcDbEntity
  8
0
  6
Continuous
 62
               7
100
AcDbLine
 10
936.33456220609844
 20
770.79328508642811
 30
0.0
 11
927.33456220609844
 21
770.79328508642811
 31
0.0
  0
LINE
  5
2C8
100
AcDbEntity
  8
0
  6
Continuous
 62
               7
100
AcDbLine
 10
936.33456220609844
 20
760.29328508642811
 30
0.0
 11
936.33456220609844
 21
770.79328508642811
 31
0.0
  0
LINE
  5
2C9
100
AcDbEntity
  8
0
  6
Continuous
 62
               7
100
AcDbLine
 10
927.33456220609844
 20
760.29328508642811
 30
0.0
 11
936.33456220609844
 21
760.29328508642811
 31
0.0
  0
LINE
  5
2CA
100
AcDbEntity
  8
0
  6
Continuous
 62
               7
100
AcDbLine
 10
925.83456220609844
 20
758.79328508642811
 30
0.0
 11
925.83456220609844
 21
761.54328508642811
 31
0.0
  0
LINE
  5
2CB
100
AcDbEntity
  8
0
  6
Continuous
 62
               7
100
AcDbLine
 10
938.33456220609844
 20
758.79328508642811
 30
0.0
 11
925.83456220609844
 21
758.79328508642811
 31
0.0
  0
LINE
  5
2CC
100
AcDbEntity
  8
0
  6
Continuous
 62
               7
100
AcDbLine
 10
938.33456220609844
 20
778.79328508642811
 30
0.0
 11
938.33456220609844
 21
758.79328508642811
 31
0.0
  0
LINE
  5
2CD
100
AcDbEntity
  8
0
  6
Continuous
 62
               7
100
AcDbLine
 10
875.23456220609853
 20
779.81348918931462
 30
0.0
 11
875.23456220609853
 21
778.79328508642811
 31
0.0
  0
LINE
  5
2CE
100
AcDbEntity
  8
0
  6
Continuous
 62
               7
100
AcDbLine
 10
888.58410762307187
 20
784.79328508642811
 30
0.0
 11
887.20627735150208
 21
784.79328508642811
 31
0.0
  0
LINE
  5
2CF
100
AcDbEntity
  8
0
  6
Continuous
 62
               7
100
AcDbLine
 10
883.08501678912501
 20
784.79328508642811
 30
0.0
 11
884.46284706069503
 21
784.79328508642811
 31
0.0
  0
LINE
  5
2D0
100
AcDbEntity
  8
0
  6
Continuous
 62
               7
100
AcDbLine
 10
956.5841076230721
 20
784.79328508642811
 30
0.0
 11
955.20627735150208
 21
784.79328508642811
 31
0.0
  0
LINE
  5
2D1
100
AcDbEntity
  8
0
  6
Continuous
 62
               7
100
AcDbLine
 10
952.33456220609844
 20
784.79328508642811
 30
0.0
 11
952.46284706069503
 21
784.79328508642811
 31
0.0
  0
LINE
  5
2D2
100
AcDbEntity
  8
0
  6
Continuous
 62
               6
100
AcDbLine
 10
925.83456220609844
 20
759.29328508642811
 30
0.0
 11
925.83456220609844
 21
761.54328508642811
 31
0.0
  0
LINE
  5
2D3
100
AcDbEntity
  8
0
  6
Continuous
 62
               6
100
AcDbLine
 10
923.83459220609859
 20
759.29328508642811
 30
0.0
 11
925.83456220609844
 21
759.29328508642811
 31
0.0
  0
LINE
  5
2D4
100
AcDbEntity
  8
0
  6
Continuous
 62
               6
100
AcDbLine
 10
920.83459220609859
 20
770.29327014446676
 30
0.0
 11
920.83459220609859
 21
762.29328508642811
 31
0.0
  0
LINE
  5
2D5
100
AcDbEntity
  8
0
  6
Continuous
 62
               6
100
AcDbLine
 10
922.83459220609859
 20
762.79328508642811
 30
0.0
 11
922.83459220609859
 21
770.28553917782801
 31
0.0
  0
LINE
  5
2D6
100
AcDbEntity
  8
0
  6
Continuous
 62
               6
100
AcDbLine
 10
923.83456220609844
 20
769.29328508642811
 30
0.0
 11
923.83456220609844
 21
761.79328508687809
 31
0.0
  0
LINE
  5
2D7
100
AcDbEntity
  8
0
  6
Continuous
 62
               6
100
AcDbLine
 10
925.83456220609844
 20
771.29328508642811
 30
0.0
 11
923.83456220609844
 21
771.29328508642811
 31
0.0
  0
LINE
  5
2D8
100
AcDbEntity
  8
0
  6
Continuous
 62
               6
100
AcDbLine
 10
925.83456220609844
 20
769.54328508642811
 30
0.0
 11
925.83456220609844
 21
771.29328508642811
 31
0.0
  0
LINE
  5
2D9
100
AcDbEntity
  8
0
  6
Continuous
 62
               6
100
AcDbLine
 10
928.33456220609844
 20
761.54328508642811
 30
0.0
 11
925.83456220609844
 21
761.54328508642811
 31
0.0
  0
LINE
  5
2DA
100
AcDbEntity
  8
0
  6
Continuous
 62
               6
100
AcDbLine
 10
928.33456220609844
 20
760.29328508642811
 30
0.0
 11
928.33456220609844
 21
761.54328508642811
 31
0.0
  0
LINE
  5
2DB
100
AcDbEntity
  8
0
  6
Continuous
 62
               6
100
AcDbLine
 10
928.92991254929723
 20
760.29328508642811
 30
0.0
 11
928.33456220609844
 21
760.29328508642811
 31
0.0
  0
LINE
  5
2DC
100
AcDbEntity
  8
0
  6
Continuous
 62
               6
100
AcDbLine
 10
931.63899547305903
 20
763.27845513543684
 30
0.0
 11
929.73434581625804
 21
760.69924205851885
 31
0.0
  0
LINE
  5
2DD
100
AcDbEntity
  8
0
  6
Continuous
 62
               6
100
AcDbLine
 10
931.83456220609844
 20
767.21407215025874
 30
0.0
 11
931.83456220609844
 21
763.87249816334611
 31
0.0
  0
LINE
  5
2DE
100
AcDbEntity
  8
0
  6
Continuous
 62
               6
100
AcDbLine
 10
929.73434614658856
 20
770.38732917853395
 30
0.0
 11
931.63899562392874
 21
767.80811497386458
 31
0.0
  0
LINE
  5
2DF
100
AcDbEntity
  8
0
  6
Continuous
 62
               6
100
AcDbLine
 10
928.33456220609844
 20
770.79328581370078
 30
0.0
 11
928.92991181966693
 21
770.79328635492766
 31
0.0
  0
LINE
  5
2E0
100
AcDbEntity
  8
0
  6
Continuous
 62
               6
100
AcDbLine
 10
928.33456220609844
 20
769.54328508642811
 30
0.0
 11
928.33456220609844
 21
770.79328581370078
 31
0.0
  0
LINE
  5
2E1
100
AcDbEntity
  8
0
  6
Continuous
 62
               6
100
AcDbLine
 10
925.83456220609844
 20
769.54328508642811
 30
0.0
 11
928.33456220609844
 21
769.54328508642811
 31
0.0
  0
LINE
  5
2E2
100
AcDbEntity
  8
0
  6
Continuous
 62
               6
100
AcDbLine
 10
930.13456220609862
 20
763.94328508642798
 30
0.0
 11
930.13456220609862
 21
767.14328508642802
 31
0.0
  0
LINE
  5
2E3
100
AcDbEntity
  8
0
  6
Continuous
 62
               6
100
AcDbLine
 10
925.83456220609844
 20
763.94328508642798
 30
0.0
 11
930.13456220609862
 21
763.94328508642798
 31
0.0
  0
LINE
  5
2E4
100
AcDbEntity
  8
0
  6
Continuous
 62
               6
100
AcDbLine
 10
925.83456220609844
 20
767.14328508642802
 30
0.0
 11
925.83456220609844
 21
763.94328508642798
 31
0.0
  0
LINE
  5
2E5
100
AcDbEntity
  8
0
  6
Continuous
 62
               6
100
AcDbLine
 10
930.13456220609862
 20
767.14328508642802
 30
0.0
 11
925.83456220609844
 21
767.14328508642802
 31
0.0
  0
LINE
  5
2E6
100
AcDbEntity
  8
0
  6
Continuous
 62
               6
100
AcDbLine
 10
874.1845522060986
 20
778.29328508642811
 30
0.0
 11
874.33455220609869
 21
778.29328508642811
 31
0.0
  0
LINE
  5
2E7
100
AcDbEntity
  8
0
  6
Continuous
 62
               6
100
AcDbLine
 10
874.73455220609856
 20
778.29328508642811
 30
0.0
 11
874.88455220609842
 21
778.29328508642811
 31
0.0
  0
LINE
  5
2E8
100
AcDbEntity
  8
0
  6
Continuous
 62
               6
100
AcDbLine
 10
874.33455220609869
 20
778.79327745702813
 30
0.0
 11
874.33455220609869
 21
778.29328508642811
 31
0.0
  0
LINE
  5
2E9
100
AcDbEntity
  8
0
  6
Continuous
 62
               6
100
AcDbLine
 10
874.73455220609856
 20
778.79328508642811
 30
0.0
 11
874.73455220609856
 21
778.29328508642811
 31
0.0
  0
LINE
  5
2EA
100
AcDbEntity
  8
0
  6
Continuous
 62
               6
100
AcDbLine
 10
874.73455220609856
 20
778.79328508642811
 30
0.0
 11
875.23456220609853
 21
778.79328508642811
 31
0.0
  0
LINE
  5
2EB
100
AcDbEntity
  8
0
  6
Continuous
 62
               6
100
AcDbLine
 10
873.83456220609844
 20
778.79327745702813
 30
0.0
 11
874.33455220609869
 21
778.79327745702813
 31
0.0
  0
LINE
  5
2EC
100
AcDbEntity
  8
0
  6
Continuous
 62
               6
100
AcDbLine
 10
874.33455220609869
 20
769.79327745702813
 30
0.0
 11
874.73455220609856
 21
769.79327745702813
 31
0.0
  0
LINE
  5
2ED
100
AcDbEntity
  8
0
  6
Continuous
 62
               6
100
AcDbLine
 10
874.88455220609842
 20
778.29328508642811
 30
0.0
 11
874.73455220609856
 21
769.79327745702813
 31
0.0
  0
LINE
  5
2EE
100
AcDbEntity
  8
0
  6
Continuous
 62
               6
100
AcDbLine
 10
874.1845522060986
 20
778.29328508642811
 30
0.0
 11
874.33455220609869
 21
769.79327745702813
 31
0.0
  0
LINE
  5
2EF
100
AcDbEntity
  8
0
  6
Continuous
 62
               6
100
AcDbLine
 10
873.83456220609844
 20
778.79327745702813
 30
0.0
 11
873.83456220609844
 21
780.79328508642811
 31
0.0
  0
LINE
  5
2F0
100
AcDbEntity
  8
0
  6
Continuous
 62
               6
100
AcDbLine
 10
875.23456220609853
 20
778.79328508642811
 30
0.0
 11
875.23456220609853
 21
779.81348918931462
 31
0.0
  0
LINE
  5
2F1
100
AcDbEntity
  8
0
  6
Continuous
 62
               6
100
AcDbLine
 10
874.83456220609844
 20
781.79328508642811
 30
0.0
 11
875.03456220609871
 21
781.79328508642811
 31
0.0
  0
LINE
  5
2F2
100
AcDbEntity
  8
0
  6
Continuous
 62
               7
100
AcDbLine
 10
880.83456220609844
 20
760.79328508642811
 30
0.0
 11
882.83456220609844
 21
760.79328508642811
 31
0.0
  0
LINE
  5
2F3
100
AcDbEntity
  8
0
  6
Continuous
 62
               7
100
AcDbLine
 10
882.83456220609844
 20
766.79328508642811
 30
0.0
 11
882.83456220609844
 21
760.79328508642811
 31
0.0
  0
LINE
  5
2F4
100
AcDbEntity
  8
0
  6
Continuous
 62
               7
100
AcDbLine
 10
882.83456220609844
 20
768.79328508642811
 30
0.0
 11
918.83456220609844
 21
768.79328508642811
 31
0.0
  0
LINE
  5
2F5
100
AcDbEntity
  8
0
  6
Continuous
 62
               7
100
AcDbLine
 10
882.83456220609844
 20
774.79328508642811
 30
0.0
 11
882.83456220609844
 21
768.79328508642811
 31
0.0
  0
LINE
  5
2F6
100
AcDbEntity
  8
0
  6
Continuous
 62
               7
100
AcDbLine
 10
880.83456220609844
 20
774.79328508642811
 30
0.0
 11
880.83456220609844
 21
760.79328508642811
 31
0.0
  0
LINE
  5
2F7
100
AcDbEntity
  8
0
  6
Continuous
 62
               7
100
AcDbLine
 10
918.83456220609844
 20
760.79328508642811
 30
0.0
 11
920.83456220609844
 21
760.79328508642811
 31
0.0
  0
LINE
  5
2F8
100
AcDbEntity
  8
0
  6
Continuous
 62
               7
100
AcDbLine
 10
918.83456220609844
 20
766.79328508642811
 30
0.0
 11
918.83456220609844
 21
760.79328508642811
 31
0.0
  0
LINE
  5
2F9
100
AcDbEntity
  8
0
  6
Continuous
 62
               7
100
AcDbLine
 10
882.83456220609844
 20
766.79328508642811
 30
0.0
 11
918.83456220609844
 21
766.79328508642811
 31
0.0
  0
LINE
  5
2FA
100
AcDbEntity
  8
0
  6
Continuous
 62
               7
100
AcDbLine
 10
918.83456220609844
 20
768.79328508642811
 30
0.0
 11
918.83456220609844
 21
774.79328508642811
 31
0.0
  0
LINE
  5
2FB
100
AcDbEntity
  8
0
  6
Continuous
 62
               7
100
AcDbLine
 10
920.83456220609844
 20
760.79328508642811
 30
0.0
 11
920.83456220609844
 21
774.79328508642811
 31
0.0
  0
LINE
  5
2FC
100
AcDbEntity
  8
0
  6
Continuous
 62
               4
100
AcDbLine
 10
925.83456220609844
 20
758.79328508642811
 30
0.0
 11
925.83456220609844
 21
645.29328508642789
 31
0.0
  0
LINE
  5
2FD
100
AcDbEntity
  8
0
  6
Continuous
 62
               4
100
AcDbLine
 10
938.33456220609844
 20
758.79328508642811
 30
0.0
 11
938.33456220609844
 21
645.29328508642789
 31
0.0
  0
LINE
  5
2FE
100
AcDbEntity
  8
0
  6
Continuous
 62
               4
100
AcDbLine
 10
880.83456220609844
 20
760.79328508642811
 30
0.0
 11
880.83456220609844
 21
645.29328508642789
 31
0.0
  0
LINE
  5
2FF
100
AcDbEntity
  8
0
  6
Continuous
 62
               4
100
AcDbLine
 10
920.83456220609844
 20
760.79328508642811
 30
0.0
 11
920.83456220609844
 21
645.29328508642789
 31
0.0
  0
LINE
  5
300
100
AcDbEntity
  8
0
  6
Continuous
 62
               4
100
AcDbLine
 10
971.83456220609844
 20
778.79328508642811
 30
0.0
 11
971.83456220609844
 21
645.29328508642789
 31
0.0
  0
LINE
  5
301
100
AcDbEntity
  8
0
  6
Continuous
 62
               4
100
AcDbLine
 10
882.83456220609844
 20
505.793285086428
 30
0.0
 11
885.63456220609862
 21
505.793285086428
 31
0.0
  0
LINE
  5
302
100
AcDbEntity
  8
0
  6
Continuous
 62
               4
100
AcDbLine
 10
916.03456220609871
 20
505.793285086428
 30
0.0
 11
918.83456220609844
 21
505.793285086428
 31
0.0
  0
LINE
  5
303
100
AcDbEntity
  8
0
  6
Continuous
 62
               4
100
AcDbLine
 10
918.83456220609844
 20
505.793285086428
 30
0.0
 11
918.83456220609844
 21
625.29328508642789
 31
0.0
  0
LINE
  5
304
100
AcDbEntity
  8
0
  6
Continuous
 62
               4
100
AcDbLine
 10
916.83456220609844
 20
625.29328508642789
 30
0.0
 11
916.83456220609844
 21
505.793285086428
 31
0.0
  0
LINE
  5
305
100
AcDbEntity
  8
0
  6
Continuous
 62
               4
100
AcDbLine
 10
884.83456220609844
 20
625.29328508642789
 30
0.0
 11
884.83456220609844
 21
505.793285086428
 31
0.0
  0
LINE
  5
306
100
AcDbEntity
  8
0
  6
Continuous
 62
               4
100
AcDbLine
 10
882.83456220609844
 20
625.29328508642789
 30
0.0
 11
882.83456220609844
 21
505.793285086428
 31
0.0
  0
LINE
  5
307
100
AcDbEntity
  8
0
  6
Continuous
 62
               4
100
AcDbLine
 10
916.03456220609871
 20
625.29328508642789
 30
0.0
 11
916.03456220609871
 21
505.793285086428
 31
0.0
  0
LINE
  5
308
100
AcDbEntity
  8
0
  6
Continuous
 62
               4
100
AcDbLine
 10
885.63456220609862
 20
625.29328508642789
 30
0.0
 11
885.63456220609862
 21
505.793285086428
 31
0.0
  0
LINE
  5
309
100
AcDbEntity
  8
0
  6
Continuous
 62
               4
100
AcDbLine
 10
887.23456220609853
 20
535.79328508642777
 30
0.0
 11
885.63456220609862
 21
535.79328508642777
 31
0.0
  0
LINE
  5
30A
100
AcDbEntity
  8
0
  6
Continuous
 62
               4
100
AcDbLine
 10
916.03456220609871
 20
535.79328508642777
 30
0.0
 11
914.4345622060988
 21
535.79328508642777
 31
0.0
  0
LINE
  5
30B
100
AcDbEntity
  8
0
  6
Continuous
 62
               4
100
AcDbLine
 10
887.23456220609853
 20
535.79328508642777
 30
0.0
 11
887.23456220609853
 21
507.39328508642802
 31
0.0
  0
LINE
  5
30C
100
AcDbEntity
  8
0
  6
Continuous
 62
               4
100
AcDbLine
 10
887.23456220609853
 20
507.39328508642802
 30
0.0
 11
914.4345622060988
 21
507.39328508642802
 31
0.0
  0
LINE
  5
30D
100
AcDbEntity
  8
0
  6
Continuous
 62
               4
100
AcDbLine
 10
914.4345622060988
 20
507.39328508642802
 30
0.0
 11
914.4345622060988
 21
535.79328508642777
 31
0.0
  0
LINE
  5
30E
100
AcDbEntity
  8
0
  6
Continuous
 62
               4
100
AcDbLine
 10
886.43456220609858
 20
505.793285086428
 30
0.0
 11
915.23456220609853
 21
505.793285086428
 31
0.0
  0
LINE
  5
30F
100
AcDbEntity
  8
0
  6
Continuous
 62
               4
100
AcDbLine
 10
882.83456220609844
 20
766.79328508642811
 30
0.0
 11
882.83456220609844
 21
645.29328508642789
 31
0.0
  0
LINE
  5
310
100
AcDbEntity
  8
0
  6
Continuous
 62
               4
100
AcDbLine
 10
884.83456220609844
 20
766.79328508642811
 30
0.0
 11
884.83456220609844
 21
645.29328508642789
 31
0.0
  0
LINE
  5
311
100
AcDbEntity
  8
0
  6
Continuous
 62
               4
100
AcDbLine
 10
916.83456220609844
 20
766.79328508642811
 30
0.0
 11
916.83456220609844
 21
645.29328508642789
 31
0.0
  0
LINE
  5
312
100
AcDbEntity
  8
0
  6
Continuous
 62
               4
100
AcDbLine
 10
918.83456220609844
 20
645.29328508642789
 30
0.0
 11
918.83456220609844
 21
766.79328508642811
 31
0.0
  0
LINE
  5
313
100
AcDbEntity
  8
0
  6
Continuous
 62
               4
100
AcDbLine
 10
916.03456220609871
 20
766.79328508642811
 30
0.0
 11
918.83456220609844
 21
766.79328508642811
 31
0.0
  0
LINE
  5
314
100
AcDbEntity
  8
0
  6
Continuous
 62
               4
100
AcDbLine
 10
882.83456220609844
 20
766.79328508642811
 30
0.0
 11
885.63456220609862
 21
766.79328508642811
 31
0.0
  0
LINE
  5
315
100
AcDbEntity
  8
0
  6
Continuous
 62
               4
100
AcDbLine
 10
885.63456220609862
 20
645.29328508642789
 30
0.0
 11
885.63456220609862
 21
766.79328508642811
 31
0.0
  0
LINE
  5
316
100
AcDbEntity
  8
0
  6
Continuous
 62
               4
100
AcDbLine
 10
916.03456220609871
 20
766.79328508642811
 30
0.0
 11
916.03456220609871
 21
645.29328508642789
 31
0.0
  0
LINE
  5
317
100
AcDbEntity
  8
0
  6
Continuous
 62
               7
100
AcDbLine
 10
885.63456220609862
 20
736.79328508642811
 30
0.0
 11
887.23456220609853
 21
736.79328508642811
 31
0.0
  0
LINE
  5
318
100
AcDbEntity
  8
0
  6
Continuous
 62
               7
100
AcDbLine
 10
885.63456220609862
 20
736.79328508642811
 30
0.0
 11
885.63456220609862
 21
765.19328508642798
 31
0.0
  0
LINE
  5
319
100
AcDbEntity
  8
0
  6
Continuous
 62
               7
100
AcDbLine
 10
887.23456220609853
 20
736.79328508642811
 30
0.0
 11
887.23456220609853
 21
765.19328508642798
 31
0.0
  0
LINE
  5
31A
100
AcDbEntity
  8
0
  6
Continuous
 62
               7
100
AcDbLine
 10
887.23456220609853
 20
765.19328508642798
 30
0.0
 11
914.4345622060988
 21
765.19328508642798
 31
0.0
  0
LINE
  5
31B
100
AcDbEntity
  8
0
  6
Continuous
 62
               7
100
AcDbLine
 10
916.03456220609871
 20
765.19328508642798
 30
0.0
 11
916.03456220609871
 21
736.79328508642811
 31
0.0
  0
LINE
  5
31C
100
AcDbEntity
  8
0
  6
Continuous
 62
               7
100
AcDbLine
 10
914.4345622060988
 20
765.19328508642798
 30
0.0
 11
914.4345622060988
 21
736.79328508642811
 31
0.0
  0
LINE
  5
31D
100
AcDbEntity
  8
0
  6
Continuous
 62
               7
100
AcDbLine
 10
916.03456220609871
 20
736.79328508642811
 30
0.0
 11
914.4345622060988
 21
736.79328508642811
 31
0.0
  0
LINE
  5
31E
100
AcDbEntity
  8
0
  6
Continuous
 62
               6
100
AcDbLine
 10
925.83456220609844
 20
513.92799841850388
 30
0.0
 11
930.13456220609862
 21
513.92799841850388
 31
0.0
  0
LINE
  5
31F
100
AcDbEntity
  8
0
  6
Continuous
 62
               6
100
AcDbLine
 10
925.83456220609844
 20
517.12799841850392
 30
0.0
 11
925.83456220609844
 21
513.92799841850388
 31
0.0
  0
LINE
  5
320
100
AcDbEntity
  8
0
  6
Continuous
 62
               6
100
AcDbLine
 10
930.13456220609862
 20
517.12799841850392
 30
0.0
 11
925.83456220609844
 21
517.12799841850392
 31
0.0
  0
LINE
  5
321
100
AcDbEntity
  8
0
  6
Continuous
 62
               6
100
AcDbLine
 10
930.13456220609862
 20
513.92799841850388
 30
0.0
 11
930.13456220609862
 21
517.12799841850392
 31
0.0
  0
LINE
  5
322
100
AcDbEntity
  8
0
  6
Continuous
 62
               6
100
AcDbLine
 10
928.33456220609844
 20
511.72799841850406
 30
0.0
 11
925.83456220609844
 21
511.72799841850406
 31
0.0
  0
LINE
  5
323
100
AcDbEntity
  8
0
  6
Continuous
 62
               6
100
AcDbLine
 10
928.33456220609844
 20
510.27799769123112
 30
0.0
 11
928.33456220609844
 21
511.72799841850406
 31
0.0
  0
LINE
  5
324
100
AcDbEntity
  8
0
  6
Continuous
 62
               6
100
AcDbLine
 10
928.92991181966693
 20
510.27799715000424
 30
0.0
 11
928.33456220609844
 21
510.27799769123112
 31
0.0
  0
LINE
  5
325
100
AcDbEntity
  8
0
  6
Continuous
 62
               6
100
AcDbLine
 10
931.63899562392874
 20
513.26316853106732
 30
0.0
 11
929.73434614658834
 21
510.68395432639795
 31
0.0
  0
LINE
  5
326
100
AcDbEntity
  8
0
  6
Continuous
 62
               6
100
AcDbLine
 10
931.83456220609844
 20
517.19878534158602
 30
0.0
 11
931.83456220609844
 21
513.85721135467315
 31
0.0
  0
LINE
  5
327
100
AcDbEntity
  8
0
  6
Continuous
 62
               6
100
AcDbLine
 10
929.73434581625781
 20
520.37204144641305
 30
0.0
 11
931.63899547305903
 21
517.79282836949506
 31
0.0
  0
LINE
  5
328
100
AcDbEntity
  8
0
  6
Continuous
 62
               6
100
AcDbLine
 10
928.33456220609844
 20
520.77799841850401
 30
0.0
 11
928.92991254929723
 21
520.77799841850401
 31
0.0
  0
LINE
  5
329
100
AcDbEntity
  8
0
  6
Continuous
 62
               6
100
AcDbLine
 10
928.33456220609844
 20
519.32799841850397
 30
0.0
 11
928.33456220609844
 21
520.77799841850401
 31
0.0
  0
LINE
  5
32A
100
AcDbEntity
  8
0
  6
Continuous
 62
               6
100
AcDbLine
 10
925.83456220609844
 20
519.32799841850397
 30
0.0
 11
928.33456220609844
 21
519.32799841850397
 31
0.0
  0
LINE
  5
32B
100
AcDbEntity
  8
0
  6
Continuous
 62
               6
100
AcDbLine
 10
925.83456220609844
 20
509.77799841850401
 30
0.0
 11
925.83456220609844
 21
511.72799841850406
 31
0.0
  0
LINE
  5
32C
100
AcDbEntity
  8
0
  6
Continuous
 62
               6
100
AcDbLine
 10
923.83456220609844
 20
509.77799841850401
 30
0.0
 11
925.83456220609844
 21
509.77799841850401
 31
0.0
  0
LINE
  5
32D
100
AcDbEntity
  8
0
  6
Continuous
 62
               6
100
AcDbLine
 10
923.83456220609844
 20
519.27799841805381
 30
0.0
 11
923.83456220609844
 21
511.77799841850401
 31
0.0
  0
LINE
  5
32E
100
AcDbEntity
  8
0
  6
Continuous
 62
               6
100
AcDbLine
 10
922.83459220609859
 20
510.78574432710377
 30
0.0
 11
922.83459220609859
 21
518.27799841850401
 31
0.0
  0
LINE
  5
32F
100
AcDbEntity
  8
0
  6
Continuous
 62
               6
100
AcDbLine
 10
920.83459220609859
 20
518.77799841850401
 30
0.0
 11
920.83459220609859
 21
510.77801336046537
 31
0.0
  0
LINE
  5
330
100
AcDbEntity
  8
0
  6
Continuous
 62
               6
100
AcDbLine
 10
925.83456220609844
 20
521.77799841850401
 30
0.0
 11
923.83459220609859
 21
521.77799841850401
 31
0.0
  0
LINE
  5
331
100
AcDbEntity
  8
0
  6
Continuous
 62
               6
100
AcDbLine
 10
925.83456220609844
 20
519.32799841850397
 30
0.0
 11
925.83456220609844
 21
521.77799841850401
 31
0.0
  0
LINE
  5
332
100
AcDbEntity
  8
0
  6
Continuous
 62
               7
100
AcDbLine
 10
919.83456220609844
 20
470.49328508642793
 30
0.0
 11
919.83456220609844
 21
464.793285086428
 31
0.0
  0
LINE
  5
333
100
AcDbEntity
  8
0
  6
Continuous
 62
               7
100
AcDbLine
 10
908.63456220609862
 20
463.793285086428
 30
0.0
 11
908.63456220609862
 21
454.69328508642786
 31
0.0
  0
LINE
  5
334
100
AcDbEntity
  8
0
  6
Continuous
 62
               7
100
AcDbLine
 10
918.83456220609844
 20
463.793285086428
 30
0.0
 11
908.63456220609862
 21
463.793285086428
 31
0.0
  0
LINE
  5
335
100
AcDbEntity
  8
0
  6
Continuous
 62
               7
100
AcDbLine
 10
935.23456220609853
 20
480.45165721726312
 30
0.0
 11
935.23456220609853
 21
480.43334003106906
 31
0.0
  0
LINE
  5
336
100
AcDbEntity
  8
0
  6
Continuous
 62
               7
100
AcDbLine
 10
956.5841076230721
 20
514.793285086428
 30
0.0
 11
955.20627735150208
 21
514.793285086428
 31
0.0
  0
LINE
  5
337
100
AcDbEntity
  8
0
  6
Continuous
 62
               7
100
AcDbLine
 10
951.08501678912501
 20
514.793285086428
 30
0.0
 11
952.46284706069503
 21
514.793285086428
 31
0.0
  0
LINE
  5
338
100
AcDbEntity
  8
0
  6
Continuous
 62
               7
100
AcDbLine
 10
937.0841076230721
 20
474.79328508642857
 30
0.0
 11
935.70627735150208
 21
474.79328508642857
 31
0.0
  0
LINE
  5
339
100
AcDbEntity
  8
0
  6
Continuous
 62
               7
100
AcDbLine
 10
931.58501678912501
 20
474.79328508642857
 30
0.0
 11
932.96284706069503
 21
474.79328508642857
 31
0.0
  0
LINE
  5
33A
100
AcDbEntity
  8
0
  6
Continuous
 62
               7
100
AcDbLine
 10
897.58060818405295
 20
471.78834991342842
 30
0.0
 11
896.20277791248293
 21
471.78834991342842
 31
0.0
  0
LINE
  5
33B
100
AcDbEntity
  8
0
  6
Continuous
 62
               7
100
AcDbLine
 10
892.08151735010586
 20
471.78834991342842
 30
0.0
 11
893.45934762167587
 21
471.78834991342842
 31
0.0
  0
LINE
  5
33C
100
AcDbEntity
  8
0
  6
Continuous
 62
               7
100
AcDbLine
 10
893.93106276707942
 20
477.42840485806857
 30
0.0
 11
893.93106276707942
 21
477.82818438383538
 31
0.0
  0
LINE
  5
33D
100
AcDbEntity
  8
0
  6
Continuous
 62
               7
100
AcDbLine
 10
895.73106276707938
 20
477.42840485806857
 30
0.0
 11
895.73106276707938
 21
478.00182779468821
 31
0.0
  0
LINE
  5
33E
100
AcDbEntity
  8
0
  6
Continuous
 62
               7
100
AcDbLine
 10
896.20011447040963
 20
478.50086907848447
 30
0.0
 11
918.03456220609871
 21
479.85494335666681
 31
0.0
  0
LINE
  5
33F
100
AcDbEntity
  8
0
  6
Continuous
 62
               7
100
AcDbLine
 10
873.63456220609862
 20
477.10145498457382
 30
0.0
 11
893.4001144704099
 21
478.32722566763186
 31
0.0
  0
LINE
  5
340
100
AcDbEntity
  8
0
  6
Continuous
 62
               7
100
AcDbLine
 10
971.83456220609844
 20
523.793285086428
 30
0.0
 11
963.33456220609844
 21
523.793285086428
 31
0.0
  0
LINE
  5
341
100
AcDbEntity
  8
0
  6
Continuous
 62
               7
100
AcDbLine
 10
963.33456220609844
 20
523.793285086428
 30
0.0
 11
963.33456220609844
 21
522.793285086428
 31
0.0
  0
LINE
  5
342
100
AcDbEntity
  8
0
  6
Continuous
 62
               7
100
AcDbLine
 10
963.33456220609844
 20
522.793285086428
 30
0.0
 11
959.33456220609844
 21
522.793285086428
 31
0.0
  0
LINE
  5
343
100
AcDbEntity
  8
0
  6
Continuous
 62
               7
100
AcDbLine
 10
959.33456220609844
 20
522.793285086428
 30
0.0
 11
959.33456220609844
 21
523.793285086428
 31
0.0
  0
LINE
  5
344
100
AcDbEntity
  8
0
  6
Continuous
 62
               7
100
AcDbLine
 10
959.33456220609844
 20
523.793285086428
 30
0.0
 11
956.33456220609844
 21
523.793285086428
 31
0.0
  0
LINE
  5
345
100
AcDbEntity
  8
0
  6
Continuous
 62
               7
100
AcDbLine
 10
956.33456220609844
 20
523.793285086428
 30
0.0
 11
956.33456220609844
 21
522.793285086428
 31
0.0
  0
LINE
  5
346
100
AcDbEntity
  8
0
  6
Continuous
 62
               7
100
AcDbLine
 10
956.33456220609844
 20
522.793285086428
 30
0.0
 11
952.33456220609844
 21
522.793285086428
 31
0.0
  0
LINE
  5
347
100
AcDbEntity
  8
0
  6
Continuous
 62
               7
100
AcDbLine
 10
952.33456220609844
 20
522.793285086428
 30
0.0
 11
952.33456220609844
 21
523.793285086428
 31
0.0
  0
LINE
  5
348
100
AcDbEntity
  8
0
  6
Continuous
 62
               7
100
AcDbLine
 10
952.33456220609844
 20
523.793285086428
 30
0.0
 11
949.33456220609844
 21
523.793285086428
 31
0.0
  0
LINE
  5
349
100
AcDbEntity
  8
0
  6
Continuous
 62
               7
100
AcDbLine
 10
949.33456220609844
 20
523.793285086428
 30
0.0
 11
949.33456220609844
 21
522.793285086428
 31
0.0
  0
LINE
  5
34A
100
AcDbEntity
  8
0
  6
Continuous
 62
               7
100
AcDbLine
 10
949.33456220609844
 20
522.793285086428
 30
0.0
 11
945.33456220609844
 21
522.793285086428
 31
0.0
  0
LINE
  5
34B
100
AcDbEntity
  8
0
  6
Continuous
 62
               7
100
AcDbLine
 10
945.33456220609844
 20
522.793285086428
 30
0.0
 11
945.33456220609844
 21
523.793285086428
 31
0.0
  0
LINE
  5
34C
100
AcDbEntity
  8
0
  6
Continuous
 62
               7
100
AcDbLine
 10
945.33456220609844
 20
523.793285086428
 30
0.0
 11
942.33456220609844
 21
523.793285086428
 31
0.0
  0
LINE
  5
34D
100
AcDbEntity
  8
0
  6
Continuous
 62
               7
100
AcDbLine
 10
942.33456220609844
 20
523.793285086428
 30
0.0
 11
942.33456220609844
 21
522.793285086428
 31
0.0
  0
LINE
  5
34E
100
AcDbEntity
  8
0
  6
Continuous
 62
               7
100
AcDbLine
 10
942.33456220609844
 20
522.793285086428
 30
0.0
 11
938.33456220609844
 21
522.793285086428
 31
0.0
  0
LINE
  5
34F
100
AcDbEntity
  8
0
  6
Continuous
 62
               7
100
AcDbLine
 10
938.33456220609844
 20
522.793285086428
 30
0.0
 11
938.33456220609844
 21
523.793285086428
 31
0.0
  0
LINE
  5
350
100
AcDbEntity
  8
0
  6
Continuous
 62
               7
100
AcDbLine
 10
938.33456220609844
 20
523.793285086428
 30
0.0
 11
925.83456220609844
 21
523.793285086428
 31
0.0
  0
LINE
  5
351
100
AcDbEntity
  8
0
  6
Continuous
 62
               7
100
AcDbLine
 10
971.83456220609844
 20
523.793285086428
 30
0.0
 11
971.83456220609844
 21
509.69328508642786
 31
0.0
  0
LINE
  5
352
100
AcDbEntity
  8
0
  6
Continuous
 62
               7
100
AcDbLine
 10
954.73456220609853
 20
520.49328508642816
 30
0.0
 11
954.73456220609853
 21
520.43334003106816
 31
0.0
  0
LINE
  5
353
100
AcDbEntity
  8
0
  6
Continuous
 62
               7
100
AcDbLine
 10
952.93456220609858
 20
520.43334003106816
 30
0.0
 11
952.93456220609858
 21
520.49328508642816
 31
0.0
  0
LINE
  5
354
100
AcDbEntity
  8
0
  6
Continuous
 62
               7
100
AcDbLine
 10
925.83456220609844
 20
523.793285086428
 30
0.0
 11
925.83456220609844
 21
519.543285086428
 31
0.0
  0
LINE
  5
355
100
AcDbEntity
  8
0
  6
Continuous
 62
               7
100
AcDbLine
 10
925.83456220609844
 20
519.543285086428
 30
0.0
 11
928.33456220609844
 21
519.543285086428
 31
0.0
  0
LINE
  5
356
100
AcDbEntity
  8
0
  6
Continuous
 62
               7
100
AcDbLine
 10
928.33456220609844
 20
519.543285086428
 30
0.0
 11
927.33456220609844
 21
520.793285086428
 31
0.0
  0
LINE
  5
357
100
AcDbEntity
  8
0
  6
Continuous
 62
               7
100
AcDbLine
 10
927.33456220609844
 20
520.793285086428
 30
0.0
 11
936.33456220609844
 21
520.793285086428
 31
0.0
  0
LINE
  5
358
100
AcDbEntity
  8
0
  6
Continuous
 62
               7
100
AcDbLine
 10
936.33456220609844
 20
520.793285086428
 30
0.0
 11
936.33456220609844
 21
510.293285086428
 31
0.0
  0
LINE
  5
359
100
AcDbEntity
  8
0
  6
Continuous
 62
               7
100
AcDbLine
 10
936.33456220609844
 20
510.293285086428
 30
0.0
 11
927.33456220609844
 21
510.293285086428
 31
0.0
  0
LINE
  5
35A
100
AcDbEntity
  8
0
  6
Continuous
 62
               7
100
AcDbLine
 10
927.33456220609844
 20
510.293285086428
 30
0.0
 11
928.33456220609844
 21
511.543285086428
 31
0.0
  0
LINE
  5
35B
100
AcDbEntity
  8
0
  6
Continuous
 62
               7
100
AcDbLine
 10
928.33456220609844
 20
511.543285086428
 30
0.0
 11
925.83456220609844
 21
511.543285086428
 31
0.0
  0
LINE
  5
35C
100
AcDbEntity
  8
0
  6
Continuous
 62
               7
100
AcDbLine
 10
925.83456220609844
 20
511.543285086428
 30
0.0
 11
925.83456220609844
 21
508.793285086428
 31
0.0
  0
LINE
  5
35D
100
AcDbEntity
  8
0
  6
Continuous
 62
               7
100
AcDbLine
 10
925.83456220609844
 20
508.793285086428
 30
0.0
 11
936.33456220609844
 21
508.793285086428
 31
0.0
  0
LINE
  5
35E
100
AcDbEntity
  8
0
  6
Continuous
 62
               7
100
AcDbLine
 10
952.43456220609858
 20
520.99328508642816
 30
0.0
 11
938.33456220609844
 21
520.99328508642816
 31
0.0
  0
LINE
  5
35F
100
AcDbEntity
  8
0
  6
Continuous
 62
               7
100
AcDbLine
 10
906.83456220609844
 20
463.793285086428
 30
0.0
 11
906.83456220609844
 21
453.79328508642777
 31
0.0
  0
LINE
  5
360
100
AcDbEntity
  8
0
  6
Continuous
 62
               7
100
AcDbLine
 10
871.83456220609844
 20
464.793285086428
 30
0.0
 11
871.83456220609844
 21
478.79328508642777
 31
0.0
  0
LINE
  5
361
100
AcDbEntity
  8
0
  6
Continuous
 62
               7
100
AcDbLine
 10
918.03456220609871
 20
465.59328508642807
 30
0.0
 11
873.63456220609862
 21
465.59328508642807
 31
0.0
  0
LINE
  5
362
100
AcDbEntity
  8
0
  6
Continuous
 62
               7
100
AcDbLine
 10
873.63456220609862
 20
465.59328508642807
 30
0.0
 11
873.63456220609862
 21
477.10145498457382
 31
0.0
  0
LINE
  5
363
100
AcDbEntity
  8
0
  6
Continuous
 62
               7
100
AcDbLine
 10
918.03456220609871
 20
479.85494335666681
 30
0.0
 11
918.03456220609871
 21
465.59328508642807
 31
0.0
  0
LINE
  5
364
100
AcDbEntity
  8
0
  6
Continuous
 62
               7
100
AcDbLine
 10
871.83456220609844
 20
478.79328508642777
 30
0.0
 11
936.33456220609844
 21
482.79328508642777
 31
0.0
  0
LINE
  5
365
100
AcDbEntity
  8
0
  6
Continuous
 62
               7
100
AcDbLine
 10
936.33456220609844
 20
482.79328508642777
 30
0.0
 11
936.33456220609844
 21
508.793285086428
 31
0.0
  0
LINE
  5
366
100
AcDbEntity
  8
0
  6
Continuous
 62
               7
100
AcDbLine
 10
938.33456220609844
 20
520.99328508642816
 30
0.0
 11
938.33456220609844
 21
482.80568818720326
 31
0.0
  0
LINE
  5
367
100
AcDbEntity
  8
0
  6
Continuous
 62
               7
100
AcDbLine
 10
932.90361390942883
 20
480.77705509020677
 30
0.0
 11
919.83456220609844
 21
479.96657126364357
 31
0.0
  0
LINE
  5
368
100
AcDbEntity
  8
0
  6
Continuous
 62
               7
100
AcDbLine
 10
919.83456220609844
 20
479.96657126364357
 30
0.0
 11
919.83456220609844
 21
471.09328508642807
 31
0.0
  0
LINE
  5
369
100
AcDbEntity
  8
0
  6
Continuous
 62
               7
100
AcDbLine
 10
933.43456220609858
 20
480.27801380641017
 30
0.0
 11
933.43456220609858
 21
480.07200434857987
 31
0.0
  0
LINE
  5
36A
100
AcDbEntity
  8
0
  6
Continuous
 62
               7
100
AcDbLine
 10
936.64597607410894
 20
481.00913956553586
 30
0.0
 11
935.70361390942901
 21
480.95069850105938
 31
0.0
  0
LINE
  5
36B
100
AcDbEntity
  8
0
  6
DASHED
 62
               6
100
AcDbLine
 10
940.63456220609862
 20
483.79328508642777
 30
0.0
 11
938.33456220609844
 21
483.79328508642777
 31
0.0
  0
LINE
  5
36C
100
AcDbEntity
  8
0
  6
DASHED
 62
               6
100
AcDbLine
 10
940.63456220609862
 20
519.99328508642793
 30
0.0
 11
940.63456220609862
 21
483.79328508642777
 31
0.0
  0
LINE
  5
36D
100
AcDbEntity
  8
0
  6
DASHED
 62
               6
100
AcDbLine
 10
919.83456220609844
 20
460.793285086428
 30
0.0
 11
922.13456220609862
 21
460.793285086428
 31
0.0
  0
LINE
  5
36E
100
AcDbEntity
  8
0
  6
DASHED
 62
               6
100
AcDbLine
 10
919.83456220609844
 20
467.543285086428
 30
0.0
 11
922.13456220609862
 21
467.543285086428
 31
0.0
  0
LINE
  5
36F
100
AcDbEntity
  8
0
  6
DASHED
 62
               6
100
AcDbLine
 10
919.83456220609844
 20
473.793285086428
 30
0.0
 11
937.33456220609844
 21
473.793285086428
 31
0.0
  0
LINE
  5
370
100
AcDbEntity
  8
0
  6
DASHED
 62
               6
100
AcDbLine
 10
938.33456220609844
 20
513.793285086428
 30
0.0
 11
961.33456220609844
 21
513.793285086428
 31
0.0
  0
LINE
  5
371
100
AcDbEntity
  8
0
  6
DASHED
 62
               6
100
AcDbLine
 10
938.33456220609844
 20
519.99328508642793
 30
0.0
 11
938.33456220609844
 21
474.793285086428
 31
0.0
  0
LINE
  5
372
100
AcDbEntity
  8
0
  6
DASHED
 62
               6
100
AcDbLine
 10
922.13456220609862
 20
478.79328508642777
 30
0.0
 11
922.13456220609862
 21
460.793285086428
 31
0.0
  0
LINE
  5
373
100
AcDbEntity
  8
0
  6
DASHED
 62
               6
100
AcDbLine
 10
919.83456220609844
 20
478.79328508642777
 30
0.0
 11
922.13456220609862
 21
478.79328508642777
 31
0.0
  0
LINE
  5
374
100
AcDbEntity
  8
0
  6
DASHED
 62
               6
100
AcDbLine
 10
919.83456220609844
 20
478.79328508642777
 30
0.0
 11
919.83456220609844
 21
453.793285086428
 31
0.0
  0
LINE
  5
375
100
AcDbEntity
  8
0
  6
DASHED
 62
               6
100
AcDbLine
 10
958.33456220609844
 20
448.793285086428
 30
0.0
 11
924.83456220609844
 21
448.793285086428
 31
0.0
  0
LINE
  5
376
100
AcDbEntity
  8
0
  6
DASHED
 62
               6
100
AcDbLine
 10
963.33456220609844
 20
511.793285086428
 30
0.0
 11
963.33456220609844
 21
453.793285086428
 31
0.0
  0
LINE
  5
377
100
AcDbEntity
  8
0
  6
DASHED
 62
               6
100
AcDbLine
 10
938.33456220609844
 20
519.99328508642793
 30
0.0
 11
940.63456220609862
 21
519.99328508642793
 31
0.0
  0
LINE
  5
378
100
AcDbEntity
  8
0
  6
DASHED
 62
               6
100
AcDbLine
 10
919.83456220609844
 20
474.043285086428
 30
0.0
 11
922.13456220609862
 21
474.043285086428
 31
0.0
  0
LINE
  5
379
100
AcDbEntity
  8
0
  6
Continuous
 62
               7
100
AcDbLine
 10
882.83456220609844
 20
503.793285086428
 30
0.0
 11
918.83456220609844
 21
503.793285086428
 31
0.0
  0
LINE
  5
37A
100
AcDbEntity
  8
0
  6
Continuous
 62
               7
100
AcDbLine
 10
882.83456220609844
 20
505.793285086428
 30
0.0
 11
918.83456220609844
 21
505.793285086428
 31
0.0
  0
LINE
  5
37B
100
AcDbEntity
  8
0
  6
Continuous
 62
               7
100
AcDbLine
 10
918.83456220609844
 20
503.793285086428
 30
0.0
 11
918.83456220609844
 21
497.79328508642777
 31
0.0
  0
LINE
  5
37C
100
AcDbEntity
  8
0
  6
Continuous
 62
               7
100
AcDbLine
 10
920.83456220609844
 20
521.793285086428
 30
0.0
 11
920.83456220609844
 21
497.79328508642777
 31
0.0
  0
LINE
  5
37D
100
AcDbEntity
  8
0
  6
Continuous
 62
               7
100
AcDbLine
 10
918.83456220609844
 20
521.793285086428
 30
0.0
 11
918.83456220609844
 21
505.793285086428
 31
0.0
  0
LINE
  5
37E
100
AcDbEntity
  8
0
  6
Continuous
 62
               7
100
AcDbLine
 10
920.83456220609844
 20
521.793285086428
 30
0.0
 11
918.83456220609844
 21
521.793285086428
 31
0.0
  0
LINE
  5
37F
100
AcDbEntity
  8
0
  6
Continuous
 62
               7
100
AcDbLine
 10
880.83456220609844
 20
511.793285086428
 30
0.0
 11
880.83456220609844
 21
497.79328508642777
 31
0.0
  0
LINE
  5
380
100
AcDbEntity
  8
0
  6
Continuous
 62
               7
100
AcDbLine
 10
882.83456220609844
 20
503.793285086428
 30
0.0
 11
882.83456220609844
 21
497.79328508642777
 31
0.0
  0
LINE
  5
381
100
AcDbEntity
  8
0
  6
Continuous
 62
               7
100
AcDbLine
 10
882.83456220609844
 20
511.793285086428
 30
0.0
 11
882.83456220609844
 21
505.793285086428
 31
0.0
  0
LINE
  5
382
100
AcDbEntity
  8
0
  6
Continuous
 62
               7
100
AcDbLine
 10
880.83456220609844
 20
511.793285086428
 30
0.0
 11
882.83456220609844
 21
511.793285086428
 31
0.0
  0
LINE
  5
383
100
AcDbEntity
  8
0
  6
Continuous
 62
               4
100
AcDbLine
 10
971.83456220609844
 20
625.29328508642811
 30
0.0
 11
971.83456220609844
 21
523.793285086428
 31
0.0
  0
LINE
  5
384
100
AcDbEntity
  8
0
  6
DIVIDE
 62
               7
100
AcDbLine
 10
871.83456220609844
 20
625.29328508642789
 30
0.0
 11
871.83456220609844
 21
478.79328508642777
 31
0.0
  0
LINE
  5
385
100
AcDbEntity
  8
0
  6
Continuous
 62
               4
100
AcDbLine
 10
920.83456220609844
 20
625.29328508642789
 30
0.0
 11
920.83456220609844
 21
511.793285086428
 31
0.0
  0
LINE
  5
386
100
AcDbEntity
  8
0
  6
Continuous
 62
               4
100
AcDbLine
 10
880.83456220609844
 20
625.29328508642789
 30
0.0
 11
880.83456220609844
 21
511.793285086428
 31
0.0
  0
LINE
  5
387
100
AcDbEntity
  8
0
  6
Continuous
 62
               4
100
AcDbLine
 10
938.33456220609844
 20
625.29328508642811
 30
0.0
 11
938.33456220609844
 21
523.793285086428
 31
0.0
  0
LINE
  5
388
100
AcDbEntity
  8
0
  6
Continuous
 62
               4
100
AcDbLine
 10
925.83456220609844
 20
625.29328508642811
 30
0.0
 11
925.83456220609844
 21
523.793285086428
 31
0.0
  0
LINE
  5
389
100
AcDbEntity
  8
0
  6
DASHDOT
 62
               6
100
AcDbLine
 10
921.83456220609844
 20
399.79328508642789
 30
0.0
 11
921.83456220609844
 21
463.793285086428
 31
0.0
  0
LINE
  5
38A
100
AcDbEntity
  8
0
  6
DASHDOT
 62
               4
100
AcDbLine
 10
921.83456220609844
 20
813.79322398383943
 30
0.0
 11
921.83456220609844
 21
902.79328508642811
 31
0.0
  0
LINE
  5
38B
100
AcDbEntity
  8
0
  6
Continuous
 62
               6
100
AcDbLine
 10
973.83456220609844
 20
523.793285086428
 30
0.0
 11
990.33456220609844
 21
523.793285086428
 31
0.0
  0
LINE
  5
38C
100
AcDbEntity
  8
0
  6
Continuous
 62
               2
100
AcDbLine
 10
904.83456220609844
 20
813.79328508642811
 30
0.0
 11
904.83456220609844
 21
823.79328508642811
 31
0.0
  0
LINE
  5
38D
100
AcDbEntity
  8
0
  6
Continuous
 62
               4
100
AcDbLine
 10
909.83456220609844
 20
823.79328508642811
 30
0.0
 11
1015.9133208700811
 21
823.79328508642811
 31
0.0
  0
LINE
  5
38E
100
AcDbEntity
  8
0
  6
Continuous
 62
               4
100
AcDbLine
 10
975.83456220609844
 20
813.79328508642811
 30
0.0
 11
1015.9133208700811
 21
813.79328508642811
 31
0.0
  0
LINE
  5
38F
100
AcDbEntity
  8
0
  6
Continuous
 62
               4
100
AcDbLine
 10
1013.9133208700811
 20
823.79328508642811
 30
0.0
 11
1013.9133208700811
 21
813.79328508642811
 31
0.0
  0
LINE
  5
390
100
AcDbEntity
  8
0
  6
Continuous
 62
               4
100
AcDbLine
 10
975.83456220609844
 20
778.79328508642811
 30
0.0
 11
1085.913320870081
 21
778.79328508642811
 31
0.0
  0
LINE
  5
391
100
AcDbEntity
  8
0
  6
Continuous
 62
               4
100
AcDbLine
 10
1013.9133208700811
 20
813.79328508642811
 30
0.0
 11
1013.9133208700811
 21
778.79328508642811
 31
0.0
  0
LINE
  5
392
100
AcDbEntity
  8
0
  6
Continuous
 62
               4
100
AcDbLine
 10
942.33456220609844
 20
758.79328508642811
 30
0.0
 11
1015.9133208700811
 21
758.79328508642811
 31
0.0
  0
LINE
  5
393
100
AcDbEntity
  8
0
  6
Continuous
 62
               4
100
AcDbLine
 10
1013.9133208700811
 20
778.79328508642811
 30
0.0
 11
1013.9133208700811
 21
758.79328508642811
 31
0.0
  0
LINE
  5
394
100
AcDbEntity
  8
0
  6
Continuous
 62
               4
100
AcDbLine
 10
987.83456220609889
 20
858.79328508642811
 30
0.0
 11
1085.913320870081
 21
858.79328508642811
 31
0.0
  0
LINE
  5
395
100
AcDbEntity
  8
0
  6
Continuous
 62
               4
100
AcDbLine
 10
1083.913320870081
 20
858.79328508642811
 30
0.0
 11
1083.913320870081
 21
778.79328508642811
 31
0.0
  0
LINE
  5
396
100
AcDbEntity
  8
0
  6
Continuous
 62
               4
100
AcDbLine
 10
1083.913320870081
 20
778.79328508642811
 30
0.0
 11
1083.913320870081
 21
858.79328508642811
 31
0.0
  0
LINE
  5
397
100
AcDbEntity
  8
0
  6
Continuous
 62
               4
100
AcDbLine
 10
1069.913320870081
 20
858.79328508642811
 30
0.0
 11
1069.913320870081
 21
783.79328508642811
 31
0.0
  0
LINE
  5
398
100
AcDbEntity
  8
0
  6
Continuous
 62
               4
100
AcDbLine
 10
1069.913320870081
 20
783.79328508642811
 30
0.0
 11
1069.913320870081
 21
778.79328508642811
 31
0.0
  0
LINE
  5
399
100
AcDbEntity
  8
0
  6
Continuous
 62
               4
100
AcDbLine
 10
1039.8345622060983
 20
523.793285086428
 30
0.0
 11
1085.913320870081
 21
523.793285086428
 31
0.0
  0
LINE
  5
39A
100
AcDbEntity
  8
0
  6
Continuous
 62
               4
100
AcDbLine
 10
1083.913320870081
 20
778.79328508642811
 30
0.0
 11
1083.913320870081
 21
523.793285086428
 31
0.0
  0
LINE
  5
39B
100
AcDbEntity
  8
0
  6
Continuous
 62
               4
100
AcDbLine
 10
906.33456220609889
 20
343.793285086428
 30
0.0
 11
1085.913320870081
 21
343.793285086428
 31
0.0
  0
LINE
  5
39C
100
AcDbEntity
  8
0
  6
Continuous
 62
               4
100
AcDbLine
 10
1083.913320870081
 20
523.793285086428
 30
0.0
 11
1083.913320870081
 21
343.793285086428
 31
0.0
  0
LINE
  5
39D
100
AcDbEntity
  8
0
  6
Continuous
 62
               4
100
AcDbLine
 10
1016.3345622060989
 20
363.793285086428
 30
0.0
 11
1071.913320870081
 21
363.793285086428
 31
0.0
  0
LINE
  5
39E
100
AcDbEntity
  8
0
  6
Continuous
 62
               4
100
AcDbLine
 10
1069.913320870081
 20
343.793285086428
 30
0.0
 11
1069.913320870081
 21
363.793285086428
 31
0.0
  0
LINE
  5
39F
100
AcDbEntity
  8
0
  6
Continuous
 62
               4
100
AcDbLine
 10
1069.913320870081
 20
363.793285086428
 30
0.0
 11
1069.913320870081
 21
483.793285086428
 31
0.0
  0
LINE
  5
3A0
100
AcDbEntity
  8
0
  6
Continuous
 62
               4
100
AcDbLine
 10
1069.913320870081
 20
483.793285086428
 30
0.0
 11
1069.913320870081
 21
498.793285086428
 31
0.0
  0
LINE
  5
3A1
100
AcDbEntity
  8
0
  6
Continuous
 62
               4
100
AcDbLine
 10
1069.913320870081
 20
498.793285086428
 30
0.0
 11
1069.913320870081
 21
523.793285086428
 31
0.0
  0
LINE
  5
3A2
100
AcDbEntity
  8
0
  6
Continuous
 62
               4
100
AcDbLine
 10
1083.913320870081
 20
523.793285086428
 30
0.0
 11
1079.2945187165637
 21
531.793285086428
 31
0.0
  0
LINE
  5
3A3
100
AcDbEntity
  8
0
  6
Continuous
 62
               4
100
AcDbLine
 10
1083.913320870081
 20
523.793285086428
 30
0.0
 11
1088.5321230235977
 21
531.79328508642789
 31
0.0
  0
LINE
  5
3A4
100
AcDbEntity
  8
0
  6
Continuous
 62
               4
100
AcDbLine
 10
1088.5321230235977
 20
531.79328508642789
 30
0.0
 11
1079.2945187165637
 21
531.793285086428
 31
0.0
  0
LINE
  5
3A5
100
AcDbEntity
  8
0
  6
Continuous
 62
               4
100
AcDbLine
 10
1083.913320870081
 20
778.79328508642811
 30
0.0
 11
1088.5321230235977
 21
770.79328508642811
 31
0.0
  0
LINE
  5
3A6
100
AcDbEntity
  8
0
  6
Continuous
 62
               4
100
AcDbLine
 10
1083.913320870081
 20
778.79328508642811
 30
0.0
 11
1079.2945187165637
 21
770.79328508642811
 31
0.0
  0
LINE
  5
3A7
100
AcDbEntity
  8
0
  6
Continuous
 62
               4
100
AcDbLine
 10
1088.5321230235977
 20
770.79328508642811
 30
0.0
 11
1079.2945187165637
 21
770.79328508642811
 31
0.0
  0
LINE
  5
3A8
100
AcDbEntity
  8
0
  6
Continuous
 62
               4
100
AcDbLine
 10
806.33456220609889
 20
823.79328508642811
 30
0.0
 11
860.33456220609889
 21
823.79328508642811
 31
0.0
  0
LINE
  5
3A9
100
AcDbEntity
  8
0
  6
Continuous
 62
               4
100
AcDbLine
 10
806.33456220609889
 20
808.79328508642811
 30
0.0
 11
867.83456220609889
 21
808.79328508642811
 31
0.0
  0
LINE
  5
3AA
100
AcDbEntity
  8
0
  6
Continuous
 62
               4
100
AcDbLine
 10
808.33456220609889
 20
823.79328508642811
 30
0.0
 11
808.33456220609889
 21
808.79328508642811
 31
0.0
  0
LINE
  5
3AB
100
AcDbEntity
  8
0
  6
Continuous
 62
               4
100
AcDbLine
 10
808.33456220609889
 20
808.79328508642811
 30
0.0
 11
808.33456220609889
 21
778.79328508642811
 31
0.0
  0
LINE
  5
3AC
100
AcDbEntity
  8
0
  6
Continuous
 62
               4
100
AcDbLine
 10
806.33456220609889
 20
775.79328508642811
 30
0.0
 11
877.83456220609844
 21
775.79328508642811
 31
0.0
  0
LINE
  5
3AD
100
AcDbEntity
  8
0
  6
Continuous
 62
               4
100
AcDbLine
 10
808.33456220609889
 20
778.79328508642811
 30
0.0
 11
808.33456220609889
 21
775.79328508642811
 31
0.0
  0
LINE
  5
3AE
100
AcDbEntity
  8
0
  6
Continuous
 62
               4
100
AcDbLine
 10
806.33456220609889
 20
760.79328508642811
 30
0.0
 11
876.83456220609844
 21
760.79328508642811
 31
0.0
  0
LINE
  5
3AF
100
AcDbEntity
  8
0
  6
Continuous
 62
               4
100
AcDbLine
 10
808.33456220609889
 20
775.79328508642811
 30
0.0
 11
808.33456220609889
 21
760.79328508642811
 31
0.0
  0
LINE
  5
3B0
100
AcDbEntity
  8
0
  6
Continuous
 62
               4
100
AcDbLine
 10
971.83456220609844
 20
674.79328508642811
 30
0.0
 11
938.33456220609844
 21
674.79328508642811
 31
0.0
  0
LINE
  5
3B1
100
AcDbEntity
  8
0
  6
Continuous
 62
               4
100
AcDbLine
 10
938.33456220609844
 20
674.79328508642811
 30
0.0
 11
925.83456220609844
 21
674.79328508642811
 31
0.0
  0
LINE
  5
3B2
100
AcDbEntity
  8
0
  6
Continuous
 62
               4
100
AcDbLine
 10
925.83456220609844
 20
674.79328508642811
 30
0.0
 11
920.83456220609844
 21
674.79328508642811
 31
0.0
  0
LINE
  5
3B3
100
AcDbEntity
  8
0
  6
Continuous
 62
               4
100
AcDbLine
 10
920.83456220609844
 20
674.79328508642811
 30
0.0
 11
880.83456220609844
 21
674.79328508642811
 31
0.0
  0
LINE
  5
3B4
100
AcDbEntity
  8
0
  6
Continuous
 62
               7
100
AcDbLine
 10
865.83456220609844
 20
750.79217382100705
 30
0.0
 11
865.83456220609844
 21
645.29328508642789
 31
0.0
  0
LINE
  5
3B5
100
AcDbEntity
  8
0
  6
Continuous
 62
               7
100
AcDbLine
 10
880.83456220609844
 20
750.79217382100705
 30
0.0
 11
865.83456220609844
 21
750.79217382100705
 31
0.0
  0
LINE
  5
3B6
100
AcDbEntity
  8
0
  6
DASHED
 62
               6
100
AcDbLine
 10
864.83456220609844
 20
750.79217382100705
 30
0.0
 11
864.83456220609844
 21
645.29328508642789
 31
0.0
  0
LINE
  5
3B7
100
AcDbEntity
  8
0
  6
Continuous
 62
               2
100
AcDbLine
 10
863.83456220609844
 20
769.29217382100705
 30
0.0
 11
863.83456220609844
 21
691.79217382100705
 31
0.0
  0
LINE
  5
3B8
100
AcDbEntity
  8
0
  6
Continuous
 62
               2
100
AcDbLine
 10
862.83456220609844
 20
769.29217382100705
 30
0.0
 11
862.83456220609844
 21
645.29328508642789
 31
0.0
  0
LINE
  5
3B9
100
AcDbEntity
  8
0
  6
Continuous
 62
               2
100
AcDbLine
 10
864.83456220609844
 20
769.29217382100705
 30
0.0
 11
864.83456220609844
 21
751.79217382100705
 31
0.0
  0
LINE
  5
3BA
100
AcDbEntity
  8
0
  6
Continuous
 62
               2
100
AcDbLine
 10
879.23456220609853
 20
751.79217382100705
 30
0.0
 11
864.83456220609844
 21
751.79217382100705
 31
0.0
  0
LINE
  5
3BB
100
AcDbEntity
  8
0
  6
Continuous
 62
               2
100
AcDbLine
 10
865.83456220609844
 20
769.29217382100705
 30
0.0
 11
866.54109761537836
 21
755.81067510182038
 31
0.0
  0
LINE
  5
3BC
100
AcDbEntity
  8
0
  6
Continuous
 62
               6
100
AcDbLine
 10
865.83456220609844
 20
769.29217382100705
 30
0.0
 11
880.83456220609844
 21
769.29217382100705
 31
0.0
  0
LINE
  5
3BD
100
AcDbEntity
  8
0
  6
Continuous
 62
               2
100
AcDbLine
 10
842.83456220609844
 20
749.29217382100705
 30
0.0
 11
842.83456220609844
 21
645.29328508642789
 31
0.0
  0
LINE
  5
3BE
100
AcDbEntity
  8
0
  6
Continuous
 62
               2
100
AcDbLine
 10
862.83456220609844
 20
769.29217382100705
 30
0.0
 11
842.83456220609844
 21
749.29217382100705
 31
0.0
  0
LINE
  5
3BF
100
AcDbEntity
  8
0
  6
Continuous
 62
               4
100
AcDbLine
 10
865.33456220609889
 20
796.79328508642811
 30
0.0
 11
865.33456220609889
 21
821.79328508642811
 31
0.0
  0
LINE
  5
3C0
100
AcDbEntity
  8
0
  6
Continuous
 62
               4
100
AcDbLine
 10
865.33456220609889
 20
798.79328508642811
 30
0.0
 11
871.83456220609844
 21
798.79328508642811
 31
0.0
  0
LINE
  5
3C1
100
AcDbEntity
  8
0
  6
Continuous
 62
               4
100
AcDbLine
 10
865.33456220609889
 20
798.79328508642811
 30
0.0
 11
850.58455384511865
 21
798.79328508642811
 31
0.0
  0
LINE
  5
3C2
100
AcDbEntity
  8
0
  6
Continuous
 62
               4
100
AcDbLine
 10
921.83456220609844
 20
900.79328508642811
 30
0.0
 11
942.33456220609889
 21
900.79328508642811
 31
0.0
  0
LINE
  5
3C3
100
AcDbEntity
  8
0
  6
Continuous
 62
               4
100
AcDbLine
 10
914.4345622060988
 20
519.48171607846461
 30
0.0
 11
902.34613121406198
 21
507.39328508642802
 31
0.0
  0
LINE
  5
3C4
100
AcDbEntity
  8
0
  6
Continuous
 62
               4
100
AcDbLine
 10
914.4345622060988
 20
533.62385170219557
 30
0.0
 11
888.20399559033115
 21
507.39328508642802
 31
0.0
  0
LINE
  5
3C5
100
AcDbEntity
  8
0
  6
Continuous
 62
               4
100
AcDbLine
 10
916.03456220609871
 20
549.36598732592643
 30
0.0
 11
887.23456220609853
 21
520.56598732592647
 31
0.0
  0
LINE
  5
3C6
100
AcDbEntity
  8
0
  6
Continuous
 62
               4
100
AcDbLine
 10
916.03456220609871
 20
563.50812294965726
 30
0.0
 11
887.23456220609853
 21
534.70812294965754
 31
0.0
  0
LINE
  5
3C7
100
AcDbEntity
  8
0
  6
Continuous
 62
               4
100
AcDbLine
 10
916.03456220609871
 20
577.65025857338833
 30
0.0
 11
885.63456220609862
 21
547.25025857338824
 31
0.0
  0
LINE
  5
3C8
100
AcDbEntity
  8
0
  6
Continuous
 62
               4
100
AcDbLine
 10
916.03456220609871
 20
591.79239419711917
 30
0.0
 11
885.63456220609862
 21
561.3923941971193
 31
0.0
  0
LINE
  5
3C9
100
AcDbEntity
  8
0
  6
Continuous
 62
               4
100
AcDbLine
 10
916.03456220609871
 20
605.93452982085023
 30
0.0
 11
885.63456220609862
 21
575.53452982085014
 31
0.0
  0
LINE
  5
3CA
100
AcDbEntity
  8
0
  6
Continuous
 62
               4
100
AcDbLine
 10
916.03456220609871
 20
620.07666544458107
 30
0.0
 11
885.63456220609862
 21
589.6766654445812
 31
0.0
  0
LINE
  5
3CB
100
AcDbEntity
  8
0
  6
Continuous
 62
               4
100
AcDbLine
 10
907.10904622421424
 20
625.29328508642789
 30
0.0
 11
885.63456220609862
 21
603.81880106831204
 31
0.0
  0
LINE
  5
3CC
100
AcDbEntity
  8
0
  6
Continuous
 62
               4
100
AcDbLine
 10
916.03456220609871
 20
648.3609366920432
 30
0.0
 11
912.9669106004834
 21
645.29328508642789
 31
0.0
  0
LINE
  5
3CD
100
AcDbEntity
  8
0
  6
Continuous
 62
               4
100
AcDbLine
 10
892.96691060048317
 20
625.29328508642789
 30
0.0
 11
885.63456220609862
 21
617.96093669204311
 31
0.0
  0
LINE
  5
3CE
100
AcDbEntity
  8
0
  6
Continuous
 62
               4
100
AcDbLine
 10
916.03456220609871
 20
662.50307231577403
 30
0.0
 11
898.82477497675256
 21
645.29328508642789
 31
0.0
  0
LINE
  5
3CF
100
AcDbEntity
  8
0
  6
Continuous
 62
               4
100
AcDbLine
 10
916.03456220609871
 20
676.6452079395051
 30
0.0
 11
885.63456220609862
 21
646.24520793950501
 31
0.0
  0
LINE
  5
3D0
100
AcDbEntity
  8
0
  6
Continuous
 62
               4
100
AcDbLine
 10
916.03456220609871
 20
690.78734356323594
 30
0.0
 11
885.63456220609862
 21
660.38734356323607
 31
0.0
  0
LINE
  5
3D1
100
AcDbEntity
  8
0
  6
Continuous
 62
               4
100
AcDbLine
 10
916.03456220609871
 20
704.929479186967
 30
0.0
 11
885.63456220609862
 21
674.52947918696691
 31
0.0
  0
LINE
  5
3D2
100
AcDbEntity
  8
0
  6
Continuous
 62
               4
100
AcDbLine
 10
916.03456220609871
 20
719.07161481069784
 30
0.0
 11
885.63456220609862
 21
688.67161481069797
 31
0.0
  0
LINE
  5
3D3
100
AcDbEntity
  8
0
  6
Continuous
 62
               4
100
AcDbLine
 10
916.03456220609871
 20
733.2137504344289
 30
0.0
 11
885.63456220609862
 21
702.81375043442881
 31
0.0
  0
LINE
  5
3D4
100
AcDbEntity
  8
0
  6
Continuous
 62
               4
100
AcDbLine
 10
914.4345622060988
 20
745.75588605815983
 30
0.0
 11
885.63456220609862
 21
716.95588605815988
 31
0.0
  0
LINE
  5
3D5
100
AcDbEntity
  8
0
  6
Continuous
 62
               4
100
AcDbLine
 10
914.4345622060988
 20
759.89802168189067
 30
0.0
 11
885.63456220609862
 21
731.09802168189071
 31
0.0
  0
LINE
  5
3D6
100
AcDbEntity
  8
0
  6
Continuous
 62
               4
100
AcDbLine
 10
905.58768998690505
 20
765.19328508642798
 30
0.0
 11
887.23456220609853
 21
746.84015730562169
 31
0.0
  0
LINE
  5
3D7
100
AcDbEntity
  8
0
  6
Continuous
 62
               4
100
AcDbLine
 10
891.44555436317398
 20
765.19328508642798
 30
0.0
 11
887.23456220609853
 21
760.98229292935275
 31
0.0
  0
LINE
  5
3D8
100
AcDbEntity
  8
0
  6
Continuous
 62
               4
100
AcDbLine
 10
897.06408046844274
 20
507.39328508642802
 30
0.0
 11
887.23456220609853
 21
517.22280334877189
 31
0.0
  0
LINE
  5
3D9
100
AcDbEntity
  8
0
  6
Continuous
 62
               4
100
AcDbLine
 10
911.20621609217358
 20
507.39328508642802
 30
0.0
 11
887.23456220609853
 21
531.36493897250284
 31
0.0
  0
LINE
  5
3DA
100
AcDbEntity
  8
0
  6
Continuous
 62
               4
100
AcDbLine
 10
914.4345622060988
 20
518.30707459623386
 30
0.0
 11
885.63456220609862
 21
547.10707459623382
 31
0.0
  0
LINE
  5
3DB
100
AcDbEntity
  8
0
  6
Continuous
 62
               4
100
AcDbLine
 10
914.4345622060988
 20
532.44921021996481
 30
0.0
 11
885.63456220609862
 21
561.24921021996488
 31
0.0
  0
LINE
  5
3DC
100
AcDbEntity
  8
0
  6
Continuous
 62
               4
100
AcDbLine
 10
916.03456220609871
 20
544.99134584369585
 30
0.0
 11
885.63456220609862
 21
575.39134584369572
 31
0.0
  0
LINE
  5
3DD
100
AcDbEntity
  8
0
  6
Continuous
 62
               4
100
AcDbLine
 10
916.03456220609871
 20
559.13348146742669
 30
0.0
 11
885.63456220609862
 21
589.53348146742678
 31
0.0
  0
LINE
  5
3DE
100
AcDbEntity
  8
0
  6
Continuous
 62
               4
100
AcDbLine
 10
916.03456220609871
 20
573.27561709115776
 30
0.0
 11
885.63456220609862
 21
603.67561709115762
 31
0.0
  0
LINE
  5
3DF
100
AcDbEntity
  8
0
  6
Continuous
 62
               4
100
AcDbLine
 10
916.03456220609871
 20
587.41775271488859
 30
0.0
 11
885.63456220609862
 21
617.81775271488868
 31
0.0
  0
LINE
  5
3E0
100
AcDbEntity
  8
0
  6
Continuous
 62
               4
100
AcDbLine
 10
916.03456220609871
 20
601.55988833861966
 30
0.0
 11
892.30116545829026
 21
625.29328508642789
 31
0.0
  0
LINE
  5
3E1
100
AcDbEntity
  8
0
  6
Continuous
 62
               4
100
AcDbLine
 10
916.03456220609871
 20
615.70202396235049
 30
0.0
 11
906.44330108202132
 21
625.29328508642789
 31
0.0
  0
LINE
  5
3E2
100
AcDbEntity
  8
0
  6
Continuous
 62
               4
100
AcDbLine
 10
886.44330108202132
 20
645.29328508642789
 30
0.0
 11
885.63456220609862
 21
646.10202396235036
 31
0.0
  0
LINE
  5
3E3
100
AcDbEntity
  8
0
  6
Continuous
 62
               4
100
AcDbLine
 10
900.58543670575216
 20
645.29328508642789
 30
0.0
 11
885.63456220609862
 21
660.24415958608142
 31
0.0
  0
LINE
  5
3E4
100
AcDbEntity
  8
0
  6
Continuous
 62
               4
100
AcDbLine
 10
914.727572329483
 20
645.29328508642789
 30
0.0
 11
885.63456220609862
 21
674.38629520981226
 31
0.0
  0
LINE
  5
3E5
100
AcDbEntity
  8
0
  6
Continuous
 62
               4
100
AcDbLine
 10
916.03456220609871
 20
658.12843083354323
 30
0.0
 11
885.63456220609862
 21
688.52843083354333
 31
0.0
  0
LINE
  5
3E6
100
AcDbEntity
  8
0
  6
Continuous
 62
               4
100
AcDbLine
 10
916.03456220609871
 20
672.2705664572743
 30
0.0
 11
885.63456220609862
 21
702.67056645727416
 31
0.0
  0
LINE
  5
3E7
100
AcDbEntity
  8
0
  6
Continuous
 62
               4
100
AcDbLine
 10
916.03456220609871
 20
686.41270208100514
 30
0.0
 11
885.63456220609862
 21
716.81270208100523
 31
0.0
  0
LINE
  5
3E8
100
AcDbEntity
  8
0
  6
Continuous
 62
               4
100
AcDbLine
 10
916.03456220609871
 20
700.5548377047362
 30
0.0
 11
885.63456220609862
 21
730.95483770473606
 31
0.0
  0
LINE
  5
3E9
100
AcDbEntity
  8
0
  6
Continuous
 62
               4
100
AcDbLine
 10
916.03456220609871
 20
714.69697332846704
 30
0.0
 11
887.23456220609853
 21
743.49697332846699
 31
0.0
  0
LINE
  5
3EA
100
AcDbEntity
  8
0
  6
Continuous
 62
               4
100
AcDbLine
 10
916.03456220609871
 20
728.8391089521981
 30
0.0
 11
887.23456220609853
 21
757.63910895219806
 31
0.0
  0
LINE
  5
3EB
100
AcDbEntity
  8
0
  6
Continuous
 62
               4
100
AcDbLine
 10
914.4345622060988
 20
744.58124457592908
 30
0.0
 11
893.82252169559968
 21
765.19328508642798
 31
0.0
  0
LINE
  5
3EC
100
AcDbEntity
  8
0
  6
Continuous
 62
               4
100
AcDbLine
 10
914.4345622060988
 20
758.72338019965991
 30
0.0
 11
907.96465731933051
 21
765.19328508642798
 31
0.0
  0
LINE
  5
3ED
100
AcDbEntity
  8
0
  6
Continuous
 62
               4
100
AcDbLine
 10
764.33456220609901
 20
770.79217382100705
 30
0.0
 11
860.33456220609844
 21
770.79217382100705
 31
0.0
  0
LINE
  5
3EE
100
AcDbEntity
  8
0
  6
Continuous
 62
               4
100
AcDbLine
 10
766.33456220609901
 20
778.79328508642811
 30
0.0
 11
766.33456220609901
 21
770.79217382100705
 31
0.0
  0
LINE
  5
3EF
100
AcDbEntity
  8
0
  6
Continuous
 62
               4
100
AcDbLine
 10
778.33456220609901
 20
750.79217382100705
 30
0.0
 11
861.83456220609844
 21
750.79217382100705
 31
0.0
  0
LINE
  5
3F0
100
AcDbEntity
  8
0
  6
Continuous
 62
               4
100
AcDbLine
 10
780.33456220609901
 20
770.79217382100705
 30
0.0
 11
780.33456220609901
 21
750.79217382100705
 31
0.0
  0
LINE
  5
3F1
100
AcDbEntity
  8
0
  6
DASHED
 62
               6
100
AcDbLine
 10
852.83456220609844
 20
759.29217382100705
 30
0.0
 11
852.83456220609844
 21
645.29328508642789
 31
0.0
  0
LINE
  5
3F2
100
AcDbEntity
  8
0
  6
Continuous
 62
               7
100
AcDbLine
 10
865.83456220609844
 20
625.29328508642789
 30
0.0
 11
865.83456220609844
 21
521.79328508642777
 31
0.0
  0
LINE
  5
3F3
100
AcDbEntity
  8
0
  6
Continuous
 62
               7
100
AcDbLine
 10
880.83456220609844
 20
521.79328508642777
 30
0.0
 11
865.83456220609844
 21
521.79328508642777
 31
0.0
  0
LINE
  5
3F4
100
AcDbEntity
  8
0
  6
DASHED
 62
               6
100
AcDbLine
 10
864.83456220609844
 20
625.29328508642789
 30
0.0
 11
864.83456220609844
 21
521.79328508642777
 31
0.0
  0
LINE
  5
3F5
100
AcDbEntity
  8
0
  6
Continuous
 62
               2
100
AcDbLine
 10
863.83456220609844
 20
580.79328508642789
 30
0.0
 11
863.83456220609844
 21
503.29328508642777
 31
0.0
  0
LINE
  5
3F6
100
AcDbEntity
  8
0
  6
Continuous
 62
               2
100
AcDbLine
 10
862.83456220609844
 20
625.29328508642789
 30
0.0
 11
862.83456220609844
 21
503.29328508642777
 31
0.0
  0
LINE
  5
3F7
100
AcDbEntity
  8
0
  6
Continuous
 62
               2
100
AcDbLine
 10
879.23456220609853
 20
520.79328508642777
 30
0.0
 11
864.83456220609844
 21
520.79328508642777
 31
0.0
  0
LINE
  5
3F8
100
AcDbEntity
  8
0
  6
Continuous
 62
               2
100
AcDbLine
 10
864.83456220609844
 20
520.79328508642777
 30
0.0
 11
864.83456220609844
 21
503.29328508642777
 31
0.0
  0
LINE
  5
3F9
100
AcDbEntity
  8
0
  6
Continuous
 62
               2
100
AcDbLine
 10
866.54109761537836
 20
516.77478380561456
 30
0.0
 11
865.83456220609844
 21
503.29328508642777
 31
0.0
  0
LINE
  5
3FA
100
AcDbEntity
  8
0
  6
Continuous
 62
               6
100
AcDbLine
 10
880.83456220609844
 20
503.29327647461832
 30
0.0
 11
865.83456220609844
 21
503.29328508642766
 31
0.0
  0
LINE
  5
3FB
100
AcDbEntity
  8
0
  6
Continuous
 62
               2
100
AcDbLine
 10
842.83456220609844
 20
625.29328508642789
 30
0.0
 11
842.83456220609844
 21
523.29328508642777
 31
0.0
  0
LINE
  5
3FC
100
AcDbEntity
  8
0
  6
Continuous
 62
               2
100
AcDbLine
 10
862.83456220609844
 20
503.29328508642777
 30
0.0
 11
842.83456220609844
 21
523.29328508642777
 31
0.0
  0
LINE
  5
3FD
100
AcDbEntity
  8
0
  6
DASHED
 62
               6
100
AcDbLine
 10
852.83456220609844
 20
625.29328508642789
 30
0.0
 11
852.83456220609844
 21
513.29328508642777
 31
0.0
  0
LINE
  5
3FE
100
AcDbEntity
  8
0
  6
Continuous
 62
               6
100
AcDbLine
 10
880.83456220609844
 20
513.29328508642777
 30
0.0
 11
866.35863999892911
 21
513.29328508642743
 31
0.0
  0
LINE
  5
3FF
100
AcDbEntity
  8
0
  6
Continuous
 62
               6
100
AcDbLine
 10
866.35863999892911
 20
759.29217382100728
 30
0.0
 11
880.83456220609844
 21
759.29217382100705
 31
0.0
  0
LINE
  5
400
100
AcDbEntity
  8
0
  6
Continuous
 62
               6
100
AcDbLine
 10
880.83456220609844
 20
761.35104527301769
 30
0.0
 11
878.77568770305299
 21
759.29217382100705
 31
0.0
  0
LINE
  5
401
100
AcDbEntity
  8
0
  6
Continuous
 62
               6
100
AcDbLine
 10
880.83456220609844
 20
764.17947544879894
 30
0.0
 11
875.94726057830678
 21
759.29217382100705
 31
0.0
  0
LINE
  5
402
100
AcDbEntity
  8
0
  6
Continuous
 62
               6
100
AcDbLine
 10
880.83456220609844
 20
767.00790257354515
 30
0.0
 11
873.11883345356057
 21
759.29217382100705
 31
0.0
  0
LINE
  5
403
100
AcDbEntity
  8
0
  6
Continuous
 62
               6
100
AcDbLine
 10
880.29040632881436
 20
769.29217382100705
 30
0.0
 11
870.29040632881436
 21
759.29217382100705
 31
0.0
  0
LINE
  5
404
100
AcDbEntity
  8
0
  6
Continuous
 62
               6
100
AcDbLine
 10
877.46197920406814
 20
769.29217382100705
 30
0.0
 11
867.46197920406814
 21
759.29217382100705
 31
0.0
  0
LINE
  5
405
100
AcDbEntity
  8
0
  6
Continuous
 62
               6
100
AcDbLine
 10
874.63355207932193
 20
769.29217382100705
 30
0.0
 11
866.27273410891723
 21
760.93135585060236
 31
0.0
  0
LINE
  5
406
100
AcDbEntity
  8
0
  6
Continuous
 62
               6
100
AcDbLine
 10
871.80512495457572
 20
769.29217382100705
 30
0.0
 11
866.13188415760567
 21
763.61893302403701
 31
0.0
  0
LINE
  5
407
100
AcDbEntity
  8
0
  6
Continuous
 62
               6
100
AcDbLine
 10
868.9766978298295
 20
769.29217382100705
 30
0.0
 11
865.9910342062941
 21
766.30651019747165
 31
0.0
  0
LINE
  5
408
100
AcDbEntity
  8
0
  6
Continuous
 62
               6
100
AcDbLine
 10
866.14827070508329
 20
769.29217382100705
 30
0.0
 11
865.85018425498276
 21
768.9940873709063
 31
0.0
  0
LINE
  5
409
100
AcDbEntity
  8
0
  6
Continuous
 62
               6
100
AcDbLine
 10
867.66298933084465
 20
759.29217382100705
 30
0.0
 11
866.28650131901952
 21
760.66866183283219
 31
0.0
  0
LINE
  5
40A
100
AcDbEntity
  8
0
  6
Continuous
 62
               6
100
AcDbLine
 10
870.49141645559087
 20
759.29217382100705
 30
0.0
 11
866.13007160037989
 21
763.65351867621803
 31
0.0
  0
LINE
  5
40B
100
AcDbEntity
  8
0
  6
Continuous
 62
               6
100
AcDbLine
 10
873.31984358033708
 20
759.29217382100705
 30
0.0
 11
865.97364188174026
 21
766.63837551960387
 31
0.0
  0
LINE
  5
40C
100
AcDbEntity
  8
0
  6
Continuous
 62
               6
100
AcDbLine
 10
876.14827070508329
 20
759.29217382100705
 30
0.0
 11
866.14827070508329
 21
769.29217382100705
 31
0.0
  0
LINE
  5
40D
100
AcDbEntity
  8
0
  6
Continuous
 62
               6
100
AcDbLine
 10
878.9766978298295
 20
759.29217382100705
 30
0.0
 11
868.9766978298295
 21
769.29217382100705
 31
0.0
  0
LINE
  5
40E
100
AcDbEntity
  8
0
  6
Continuous
 62
               6
100
AcDbLine
 10
880.83456220609844
 20
760.2627365694841
 30
0.0
 11
871.80512495457572
 21
769.29217382100705
 31
0.0
  0
LINE
  5
40F
100
AcDbEntity
  8
0
  6
Continuous
 62
               6
100
AcDbLine
 10
880.83456220609844
 20
763.09116369423032
 30
0.0
 11
874.63355207932193
 21
769.29217382100705
 31
0.0
  0
LINE
  5
410
100
AcDbEntity
  8
0
  6
Continuous
 62
               6
100
AcDbLine
 10
880.83456220609844
 20
765.91959081897653
 30
0.0
 11
877.46197920406814
 21
769.29217382100705
 31
0.0
  0
LINE
  5
411
100
AcDbEntity
  8
0
  6
Continuous
 62
               6
100
AcDbLine
 10
880.83456220609844
 20
768.74801794372274
 30
0.0
 11
880.29040632881436
 21
769.29217382100705
 31
0.0
  0
LINE
  5
412
100
AcDbEntity
  8
0
  6
Continuous
 62
               6
100
AcDbLine
 10
880.83456220609844
 20
503.96417997214951
 30
0.0
 11
880.16366732037693
 21
503.29328508642777
 31
0.0
  0
LINE
  5
413
100
AcDbEntity
  8
0
  6
Continuous
 62
               6
100
AcDbLine
 10
880.83456220609844
 20
506.79260709689561
 30
0.0
 11
877.33524019563072
 21
503.29328508642777
 31
0.0
  0
LINE
  5
414
100
AcDbEntity
  8
0
  6
Continuous
 62
               6
100
AcDbLine
 10
880.83456220609844
 20
509.62103422164182
 30
0.0
 11
874.5068130708845
 21
503.29328508642777
 31
0.0
  0
LINE
  5
415
100
AcDbEntity
  8
0
  6
Continuous
 62
               6
100
AcDbLine
 10
880.83456220609844
 20
512.44946134638803
 30
0.0
 11
871.67838594613829
 21
503.29328508642777
 31
0.0
  0
LINE
  5
416
100
AcDbEntity
  8
0
  6
Continuous
 62
               6
100
AcDbLine
 10
878.84995882139231
 20
513.29328508642777
 30
0.0
 11
868.84995882139208
 21
503.29328508642777
 31
0.0
  0
LINE
  5
417
100
AcDbEntity
  8
0
  6
Continuous
 62
               6
100
AcDbLine
 10
876.02153169664609
 20
513.29328508642777
 30
0.0
 11
866.02153169664609
 21
503.29328508642777
 31
0.0
  0
LINE
  5
418
100
AcDbEntity
  8
0
  6
Continuous
 62
               6
100
AcDbLine
 10
873.19310457189965
 20
513.29328508642766
 30
0.0
 11
865.98065134196543
 21
506.08083185649332
 31
0.0
  0
LINE
  5
419
100
AcDbEntity
  8
0
  6
Continuous
 62
               6
100
AcDbLine
 10
870.36467744715344
 20
513.29328508642766
 30
0.0
 11
866.13708106060506
 21
509.06568869987927
 31
0.0
  0
LINE
  5
41A
100
AcDbEntity
  8
0
  6
Continuous
 62
               6
100
AcDbLine
 10
867.53625032240723
 20
513.29328508642766
 30
0.0
 11
866.29351077924468
 21
512.050545543265
 31
0.0
  0
LINE
  5
41B
100
AcDbEntity
  8
0
  6
Continuous
 62
               6
100
AcDbLine
 10
866.27500971352072
 20
503.29328508642777
 30
0.0
 11
865.85649560131776
 21
503.71179919863062
 31
0.0
  0
LINE
  5
41C
100
AcDbEntity
  8
0
  6
Continuous
 62
               6
100
AcDbLine
 10
869.10343683826693
 20
503.29328508642777
 30
0.0
 11
865.99734555262933
 21
506.39937637206549
 31
0.0
  0
LINE
  5
41D
100
AcDbEntity
  8
0
  6
Continuous
 62
               6
100
AcDbLine
 10
871.93186396301314
 20
503.29328508642777
 30
0.0
 11
866.13819550394066
 21
509.08695354550014
 31
0.0
  0
LINE
  5
41E
100
AcDbEntity
  8
0
  6
Continuous
 62
               6
100
AcDbLine
 10
874.76029108775913
 20
503.29328508642777
 30
0.0
 11
866.27904545525223
 21
511.77453071893478
 31
0.0
  0
LINE
  5
41F
100
AcDbEntity
  8
0
  6
Continuous
 62
               6
100
AcDbLine
 10
877.58871821250534
 20
503.29328508642777
 30
0.0
 11
867.58871821250557
 21
513.29328508642766
 31
0.0
  0
LINE
  5
420
100
AcDbEntity
  8
0
  6
Continuous
 62
               6
100
AcDbLine
 10
880.41714533725155
 20
503.29328508642777
 30
0.0
 11
870.41714533725178
 21
513.29328508642766
 31
0.0
  0
LINE
  5
421
100
AcDbEntity
  8
0
  6
Continuous
 62
               6
100
AcDbLine
 10
880.83456220609844
 20
505.7042953423271
 30
0.0
 11
873.24557246199777
 21
513.29328508642766
 31
0.0
  0
LINE
  5
422
100
AcDbEntity
  8
0
  6
Continuous
 62
               6
100
AcDbLine
 10
880.83456220609844
 20
508.53272246707331
 30
0.0
 11
876.07399958674398
 21
513.29328508642777
 31
0.0
  0
LINE
  5
423
100
AcDbEntity
  8
0
  6
Continuous
 62
               6
100
AcDbLine
 10
880.83456220609844
 20
511.36114959181941
 30
0.0
 11
878.90242671149019
 21
513.29328508642777
 31
0.0
  0
LINE
  5
424
100
AcDbEntity
  8
0
  6
Continuous
 62
               4
100
AcDbLine
 10
764.33456220609889
 20
501.79328508642777
 30
0.0
 11
849.33456220609844
 21
501.79328508642777
 31
0.0
  0
LINE
  5
425
100
AcDbEntity
  8
0
  6
Continuous
 62
               4
100
AcDbLine
 10
766.33456220609889
 20
770.79217382100705
 30
0.0
 11
766.33456220609889
 21
501.79328508642777
 31
0.0
  0
LINE
  5
426
100
AcDbEntity
  8
0
  6
Continuous
 62
               4
100
AcDbLine
 10
778.33456220609889
 20
521.79328508642777
 30
0.0
 11
850.83456220609844
 21
521.79328508642777
 31
0.0
  0
LINE
  5
427
100
AcDbEntity
  8
0
  6
Continuous
 62
               4
100
AcDbLine
 10
780.33456220609889
 20
501.79328508642777
 30
0.0
 11
780.33456220609889
 21
521.79328508642777
 31
0.0
  0
LINE
  5
428
100
AcDbEntity
  8
0
  6
Continuous
 62
               4
100
AcDbLine
 10
780.33456220609889
 20
521.79328508642777
 30
0.0
 11
780.33456220609889
 21
750.79217382100705
 31
0.0
  0
LINE
  5
429
100
AcDbEntity
  8
0
  6
Continuous
 62
               4
100
AcDbLine
 10
806.33456220609889
 20
511.793285086428
 30
0.0
 11
876.83456220609844
 21
511.793285086428
 31
0.0
  0
LINE
  5
42A
100
AcDbEntity
  8
0
  6
Continuous
 62
               4
100
AcDbLine
 10
806.33456220609889
 20
496.79328508642777
 30
0.0
 11
877.83456220609844
 21
496.79328508642777
 31
0.0
  0
LINE
  5
42B
100
AcDbEntity
  8
0
  6
Continuous
 62
               4
100
AcDbLine
 10
808.33456220609889
 20
511.793285086428
 30
0.0
 11
808.33456220609889
 21
496.79328508642777
 31
0.0
  0
LINE
  5
42C
100
AcDbEntity
  8
0
  6
Continuous
 62
               4
100
AcDbLine
 10
806.33456220609889
 20
478.79328508642777
 30
0.0
 11
867.83456220609844
 21
478.79328508642777
 31
0.0
  0
LINE
  5
42D
100
AcDbEntity
  8
0
  6
Continuous
 62
               4
100
AcDbLine
 10
808.33456220609889
 20
496.79328508642777
 30
0.0
 11
808.33456220609889
 21
478.79328508642777
 31
0.0
  0
LINE
  5
42E
100
AcDbEntity
  8
0
  6
Continuous
 62
               4
100
AcDbLine
 10
806.33456220609889
 20
463.793285086428
 30
0.0
 11
868.83456220609844
 21
463.793285086428
 31
0.0
  0
LINE
  5
42F
100
AcDbEntity
  8
0
  6
Continuous
 62
               4
100
AcDbLine
 10
808.33456220609889
 20
478.79328508642777
 30
0.0
 11
808.33456220609889
 21
463.793285086428
 31
0.0
  0
LINE
  5
430
100
AcDbEntity
  8
0
  6
Continuous
 62
               4
100
AcDbLine
 10
778.33456220609889
 20
453.79328508642777
 30
0.0
 11
900.83456220609844
 21
453.79328508642777
 31
0.0
  0
LINE
  5
431
100
AcDbEntity
  8
0
  6
Continuous
 62
               4
100
AcDbLine
 10
808.33456220609889
 20
463.793285086428
 30
0.0
 11
808.33456220609889
 21
453.79328508642777
 31
0.0
  0
LINE
  5
432
100
AcDbEntity
  8
0
  6
Continuous
 62
               4
100
AcDbLine
 10
871.83456220609844
 20
798.79328508642811
 30
0.0
 11
906.83456220609844
 21
798.79328508642811
 31
0.0
  0
LINE
  5
433
100
AcDbEntity
  8
0
  6
DOT
 62
               4
100
AcDbLine
 10
837.33456220609889
 20
188.2143502334269
 30
0.0
 11
859.25562735309757
 21
166.293285086428
 31
0.0
  0
LINE
  5
434
100
AcDbEntity
  8
0
  6
DOT
 62
               4
100
AcDbLine
 10
837.33456220609889
 20
181.14328242156137
 30
0.0
 11
852.18455954123158
 21
166.293285086428
 31
0.0
  0
LINE
  5
435
100
AcDbEntity
  8
0
  6
DOT
 62
               4
100
AcDbLine
 10
837.33456220609889
 20
174.07221460969578
 30
0.0
 11
845.11349172936673
 21
166.293285086428
 31
0.0
  0
LINE
  5
436
100
AcDbEntity
  8
0
  6
DOT
 62
               4
100
AcDbLine
 10
837.33456220609889
 20
167.0011467978303
 30
0.0
 11
838.0424239175012
 21
166.293285086428
 31
0.0
  0
LINE
  5
437
100
AcDbEntity
  8
0
  6
Continuous
 62
               6
100
AcDbLine
 10
1041.8345622060983
 20
491.74999576092046
 30
0.0
 11
1033.8778515316062
 21
483.79328508642811
 31
0.0
  0
LINE
  5
438
100
AcDbEntity
  8
0
  6
Continuous
 62
               6
100
AcDbLine
 10
1038.6795194068877
 20
502.73708858544092
 30
0.0
 11
1019.735715907875
 21
483.79328508642811
 31
0.0
  0
LINE
  5
439
100
AcDbEntity
  8
0
  6
Continuous
 62
               6
100
AcDbLine
 10
1032.3941257963406
 20
510.59383059862478
 30
0.0
 11
1005.5935802841442
 21
483.793285086428
 31
0.0
  0
LINE
  5
43A
100
AcDbEntity
  8
0
  6
Continuous
 62
               6
100
AcDbLine
 10
1026.1087321857935
 20
518.45057261180864
 30
0.0
 11
991.83456220609844
 21
484.17640263211331
 31
0.0
  0
LINE
  5
43B
100
AcDbEntity
  8
0
  6
Continuous
 62
               6
100
AcDbLine
 10
1017.3093090366821
 20
523.793285086428
 30
0.0
 11
991.83456220609844
 21
498.31853825584426
 31
0.0
  0
LINE
  5
43C
100
AcDbEntity
  8
0
  6
Continuous
 62
               6
100
AcDbLine
 10
1003.1671734129512
 20
523.793285086428
 30
0.0
 11
991.83456220609844
 21
512.46067387957521
 31
0.0
  0
LINE
  5
43D
100
AcDbEntity
  8
0
  6
Continuous
 62
               4
100
AcDbLine
 10
822.33456220609889
 20
285.793285086428
 30
0.0
 11
822.33456220609889
 21
371.79328508642789
 31
0.0
  0
LINE
  5
43E
100
AcDbEntity
  8
0
  6
Continuous
 62
               4
100
AcDbLine
 10
822.33456220609889
 20
287.793285086428
 30
0.0
 11
837.33456220609889
 21
287.793285086428
 31
0.0
  0
LINE
  5
43F
100
AcDbEntity
  8
0
  6
Continuous
 62
               4
100
AcDbLine
 10
1012.3345622060989
 20
285.793285086428
 30
0.0
 11
1012.3345622060989
 21
359.793285086428
 31
0.0
  0
LINE
  5
440
100
AcDbEntity
  8
0
  6
Continuous
 62
               4
100
AcDbLine
 10
837.33456220609889
 20
287.793285086428
 30
0.0
 11
1012.3345622060989
 21
287.793285086428
 31
0.0
  0
LINE
  5
441
100
AcDbEntity
  8
0
  6
Continuous
 62
               4
100
AcDbLine
 10
837.33456220609889
 20
301.793285086428
 30
0.0
 11
892.33456220609889
 21
301.793285086428
 31
0.0
  0
LINE
  5
442
100
AcDbEntity
  8
0
  6
Continuous
 62
               4
100
AcDbLine
 10
892.33456220609889
 20
301.793285086428
 30
0.0
 11
1012.3345622060989
 21
301.793285086428
 31
0.0
  0
LINE
  5
443
100
AcDbEntity
  8
0
  6
Continuous
 62
               4
100
AcDbLine
 10
937.33456220609889
 20
313.793285086428
 30
0.0
 11
937.33456220609889
 21
354.79328508642789
 31
0.0
  0
LINE
  5
444
100
AcDbEntity
  8
0
  6
Continuous
 62
               4
100
AcDbLine
 10
1012.3345622060989
 20
315.793285086428
 30
0.0
 11
937.33456220609889
 21
315.793285086428
 31
0.0
  0
LINE
  5
445
100
AcDbEntity
  8
0
  6
Continuous
 62
               4
100
AcDbLine
 10
937.33456220609889
 20
315.793285086428
 30
0.0
 11
892.33456220609889
 21
315.793285086428
 31
0.0
  0
LINE
  5
446
100
AcDbEntity
  8
0
  6
Continuous
 62
               4
100
AcDbLine
 10
778.33456220609889
 20
438.80274153448352
 30
0.0
 11
818.33456220609889
 21
438.80274153448352
 31
0.0
  0
LINE
  5
447
100
AcDbEntity
  8
0
  6
Continuous
 62
               4
100
AcDbLine
 10
780.33456220609889
 20
453.79328508642777
 30
0.0
 11
780.33456220609889
 21
438.80274153448352
 31
0.0
  0
LINE
  5
448
100
AcDbEntity
  8
0
  6
Continuous
 62
               4
100
AcDbLine
 10
764.33456220609889
 20
373.79328508642789
 30
0.0
 11
820.33456220609889
 21
373.79328508642789
 31
0.0
  0
LINE
  5
449
100
AcDbEntity
  8
0
  6
Continuous
 62
               4
100
AcDbLine
 10
780.33456220609889
 20
438.80274153448352
 30
0.0
 11
780.33456220609889
 21
373.79328508642789
 31
0.0
  0
LINE
  5
44A
100
AcDbEntity
  8
0
  6
Continuous
 62
               4
100
AcDbLine
 10
780.33456220609889
 20
498.793285086428
 30
0.0
 11
780.33456220609889
 21
453.79328508642777
 31
0.0
  0
LINE
  5
44B
100
AcDbEntity
  8
0
  6
Continuous
 62
               4
100
AcDbLine
 10
766.33456220609889
 20
498.793285086428
 30
0.0
 11
766.33456220609889
 21
373.79328508642789
 31
0.0
  0
LINE
  5
44C
100
AcDbEntity
  8
0
  6
Continuous
 62
               4
100
AcDbLine
 10
764.33456220609889
 20
358.79328508642789
 30
0.0
 11
833.33456220609889
 21
358.79328508642789
 31
0.0
  0
LINE
  5
44D
100
AcDbEntity
  8
0
  6
Continuous
 62
               4
100
AcDbLine
 10
766.33456220609889
 20
373.79328508642789
 30
0.0
 11
766.33456220609889
 21
358.79328508642789
 31
0.0
  0
LINE
  5
44E
100
AcDbEntity
  8
0
  6
Continuous
 62
               4
100
AcDbLine
 10
766.33456220609889
 20
498.793285086428
 30
0.0
 11
766.33456220609889
 21
501.79328508642777
 31
0.0
  0
LINE
  5
44F
100
AcDbEntity
  8
0
  6
Continuous
 62
               4
100
AcDbLine
 10
766.33456220609889
 20
501.79328508642777
 30
0.0
 11
766.33456220609889
 21
506.29329838038666
 31
0.0
  0
LINE
  5
450
100
AcDbEntity
  8
0
  6
Continuous
 62
               4
100
AcDbLine
 10
836.33456220609889
 20
501.79328508642777
 30
0.0
 11
836.33456220609889
 21
498.793285086428
 31
0.0
  0
LINE
  5
451
100
AcDbEntity
  8
0
  6
Continuous
 62
               4
100
AcDbLine
 10
836.33456220609889
 20
501.79328508642777
 30
0.0
 11
836.33456220609889
 21
508.29329838038666
 31
0.0
  0
LINE
  5
452
100
AcDbEntity
  8
0
  6
Continuous
 62
               4
100
AcDbLine
 10
822.33456220609889
 20
387.79328508642789
 30
0.0
 11
939.33456220609889
 21
387.79328508642789
 31
0.0
  0
LINE
  5
453
100
AcDbEntity
  8
0
  6
Continuous
 62
               6
100
AcDbLine
 10
903.69584453841583
 20
166.293285086428
 30
0.0
 11
892.33456220609889
 21
177.65456741874499
 31
0.0
  0
LINE
  5
454
100
AcDbEntity
  8
0
  6
Continuous
 62
               6
100
AcDbLine
 10
910.76691235028159
 20
166.293285086428
 30
0.0
 11
892.33456220609889
 21
184.72563523061046
 31
0.0
  0
LINE
  5
455
100
AcDbEntity
  8
0
  6
Continuous
 62
               6
100
AcDbLine
 10
917.83798016214689
 20
166.293285086428
 30
0.0
 11
892.33456220609889
 21
191.796703042476
 31
0.0
  0
LINE
  5
456
100
AcDbEntity
  8
0
  6
Continuous
 62
               6
100
AcDbLine
 10
1115.8278788943803
 20
166.293285086428
 30
0.0
 11
932.79044555772168
 21
349.33071842308664
 31
0.0
  0
LINE
  5
457
100
AcDbEntity
  8
0
  6
Continuous
 62
               6
100
AcDbLine
 10
1122.8989467062456
 20
166.293285086428
 30
0.0
 11
938.77365678314629
 21
350.41857500952756
 31
0.0
  0
LINE
  5
458
100
AcDbEntity
  8
0
  6
Continuous
 62
               6
100
AcDbLine
 10
1129.9700145181109
 20
166.293285086428
 30
0.0
 11
944.7568680085709
 21
351.50643159596825
 31
0.0
  0
LINE
  5
459
100
AcDbEntity
  8
0
  6
Continuous
 62
               6
100
AcDbLine
 10
1327.9599132503449
 20
166.293285086428
 30
0.0
 11
1012.3345622060989
 21
481.91863613067358
 31
0.0
  0
LINE
  5
45A
100
AcDbEntity
  8
0
  6
Continuous
 62
               6
100
AcDbLine
 10
1335.0309810622098
 20
166.293285086428
 30
0.0
 11
1017.5309810622101
 21
483.793285086428
 31
0.0
  0
LINE
  5
45B
100
AcDbEntity
  8
0
  6
Continuous
 62
               6
100
AcDbLine
 10
1342.102048874076
 20
166.293285086428
 30
0.0
 11
1024.6020488740755
 21
483.793285086428
 31
0.0
  0
LINE
  5
45C
100
AcDbEntity
  8
0
  6
Continuous
 62
               6
100
AcDbLine
 10
1442.3345622060988
 20
264.05067048663778
 30
0.0
 11
1222.5919476063086
 21
483.793285086428
 31
0.0
  0
LINE
  5
45D
100
AcDbEntity
  8
0
  6
Continuous
 62
               6
100
AcDbLine
 10
1442.3345622060988
 20
271.12173829850326
 30
0.0
 11
1229.6630154181739
 21
483.793285086428
 31
0.0
  0
LINE
  5
45E
100
AcDbEntity
  8
0
  6
Continuous
 62
               6
100
AcDbLine
 10
1442.3345622060988
 20
278.19280611036879
 30
0.0
 11
1236.7340832300397
 21
483.793285086428
 31
0.0
  0
LINE
  5
45F
100
AcDbEntity
  8
0
  6
Continuous
 62
               4
100
AcDbLine
 10
862.83456220609844
 20
674.79328508642811
 30
0.0
 11
842.83456220609844
 21
674.79328508642811
 31
0.0
  0
LINE
  5
460
100
AcDbEntity
  8
0
  6
Continuous
 62
               4
100
AcDbLine
 10
942.33456220609889
 20
591.79328508642789
 30
0.0
 11
842.83456220609844
 21
591.79328508642789
 31
0.0
  0
LINE
  5
461
100
AcDbEntity
  8
0
  6
Continuous
 62
               4
100
AcDbLine
 10
871.83456220609889
 20
816.29328508642811
 30
0.0
 11
822.47111419038595
 21
844.79328508642811
 31
0.0
  0
LINE
  5
462
100
AcDbEntity
  8
0
  6
Continuous
 62
               4
100
AcDbLine
 10
871.83456220609889
 20
816.29328508642811
 30
0.0
 11
866.03900724836433
 21
817.84619935704313
 31
0.0
  0
LINE
  5
463
100
AcDbEntity
  8
0
  6
Continuous
 62
               4
100
AcDbLine
 10
871.83456220609889
 20
816.29328508642811
 30
0.0
 11
867.59192151897935
 21
820.53592577354743
 31
0.0
  0
LINE
  5
464
100
AcDbEntity
  8
0
  6
Continuous
 62
               4
100
AcDbLine
 10
885.08456220609889
 20
823.79328508642811
 30
0.0
 11
836.08456220609889
 21
872.79328508642811
 31
0.0
  0
LINE
  5
465
100
AcDbEntity
  8
0
  6
Continuous
 62
               4
100
AcDbLine
 10
885.08456220609889
 20
823.79328508642811
 30
0.0
 11
879.88840978339215
 21
826.79328508642811
 31
0.0
  0
LINE
  5
466
100
AcDbEntity
  8
0
  6
Continuous
 62
               4
100
AcDbLine
 10
885.08456220609889
 20
823.79328508642811
 30
0.0
 11
882.08456220609889
 21
828.98943750913463
 31
0.0
  0
LINE
  5
467
100
AcDbEntity
  8
0
  6
Continuous
 62
               4
100
AcDbLine
 10
822.47111419038595
 20
844.79328508642811
 30
0.0
 11
873.33456220609844
 21
769.29217382100705
 31
0.0
  0
LINE
  5
468
100
AcDbEntity
  8
0
  6
Continuous
 62
               4
100
AcDbLine
 10
841.83456220609889
 20
792.45550421584699
 30
0.0
 11
803.49678133551799
 21
830.79328508642789
 31
0.0
  0
LINE
  5
469
100
AcDbEntity
  8
0
  6
Continuous
 62
               4
100
AcDbLine
 10
841.83456220609889
 20
792.45550421584699
 30
0.0
 11
836.63840978339238
 21
795.45550421584699
 31
0.0
  0
LINE
  5
46A
100
AcDbEntity
  8
0
  6
Continuous
 62
               4
100
AcDbLine
 10
841.83456220609889
 20
792.45550421584699
 30
0.0
 11
838.83456220609889
 21
797.65165663855373
 31
0.0
  0
LINE
  5
46B
100
AcDbEntity
  8
0
  6
Continuous
 62
               4
100
AcDbLine
 10
800.83345094067761
 20
816.79328508642789
 30
0.0
 11
724.565801463409
 21
816.79328508642811
 31
0.0
  0
LINE
  5
46C
100
AcDbEntity
  8
0
  6
Continuous
 62
               4
100
AcDbLine
 10
873.33456220609844
 20
710.79217382100705
 30
0.0
 11
461.33456220609901
 21
710.79217382100705
 31
0.0
  0
LINE
  5
46D
100
AcDbEntity
  8
0
  6
Continuous
 62
               4
100
AcDbLine
 10
666.33456220609901
 20
696.79217382100705
 30
0.0
 11
461.33456220609901
 21
696.79217382100705
 31
0.0
  0
LINE
  5
46E
100
AcDbEntity
  8
0
  6
Continuous
 62
               4
100
AcDbLine
 10
666.33456220609901
 20
682.79217382100705
 30
0.0
 11
461.33456220609901
 21
682.79217382100705
 31
0.0
  0
LINE
  5
46F
100
AcDbEntity
  8
0
  6
Continuous
 62
               4
100
AcDbLine
 10
666.33456220609901
 20
682.79217382100705
 30
0.0
 11
666.33456220609901
 21
710.79217382100705
 31
0.0
  0
LINE
  5
470
100
AcDbEntity
  8
0
  6
Continuous
 62
               4
100
AcDbLine
 10
873.33456220609844
 20
710.79217382100705
 30
0.0
 11
867.53900724836433
 21
709.23925955039181
 31
0.0
  0
LINE
  5
471
100
AcDbEntity
  8
0
  6
Continuous
 62
               4
100
AcDbLine
 10
873.33456220609844
 20
710.79217382100705
 30
0.0
 11
867.53900724836433
 21
712.34508809162207
 31
0.0
  0
LINE
  5
472
100
AcDbEntity
  8
0
  6
Continuous
 62
               4
100
AcDbLine
 10
921.83456220609844
 20
401.79328508642789
 30
0.0
 11
942.33456220609889
 21
401.79328508642789
 31
0.0
  0
LINE
  5
473
100
AcDbEntity
  8
0
  6
Continuous
 62
               4
100
AcDbLine
 10
1008.971647195946
 20
501.31348762196103
 30
0.0
 11
1034.0747199663665
 21
544.793285086428
 31
0.0
  0
LINE
  5
474
100
AcDbEntity
  8
0
  6
Continuous
 62
               4
100
AcDbLine
 10
1008.971647195946
 20
501.31348762196103
 30
0.0
 11
1010.5245614665611
 21
507.10904257969537
 31
0.0
  0
LINE
  5
475
100
AcDbEntity
  8
0
  6
Continuous
 62
               4
100
AcDbLine
 10
1008.971647195946
 20
501.31348762196103
 30
0.0
 11
1013.2142878830654
 21
505.55612830908035
 31
0.0
  0
LINE
  5
476
100
AcDbEntity
  8
0
  6
Continuous
 62
               4
100
AcDbLine
 10
1034.0747199663665
 20
544.793285086428
 30
0.0
 11
1113.6537985259588
 21
544.793285086428
 31
0.0
  0
LINE
  5
477
100
AcDbEntity
  8
0
  6
Continuous
 62
               4
100
AcDbLine
 10
992.33456220609889
 20
423.793285086428
 30
0.0
 11
1014.8512227044945
 21
384.793285086428
 31
0.0
  0
LINE
  5
478
100
AcDbEntity
  8
0
  6
Continuous
 62
               4
100
AcDbLine
 10
992.33456220609889
 20
423.793285086428
 30
0.0
 11
996.57720289321821
 21
419.55064439930868
 31
0.0
  0
LINE
  5
479
100
AcDbEntity
  8
0
  6
Continuous
 62
               4
100
AcDbLine
 10
992.33456220609889
 20
423.793285086428
 30
0.0
 11
993.88747647671414
 21
417.99773012869355
 31
0.0
  0
LINE
  5
47A
100
AcDbEntity
  8
0
  6
Continuous
 62
               4
100
AcDbLine
 10
1014.8512227044945
 20
384.793285086428
 30
0.0
 11
1114.2646446013682
 21
384.793285086428
 31
0.0
  0
LINE
  5
47B
100
AcDbEntity
  8
0
  6
Continuous
 62
               4
100
AcDbLine
 10
838.33456220609889
 20
366.293285086428
 30
0.0
 11
813.79717576553969
 21
323.79328508642789
 31
0.0
  0
LINE
  5
47C
100
AcDbEntity
  8
0
  6
Continuous
 62
               4
100
AcDbLine
 10
838.33456220609889
 20
366.293285086428
 30
0.0
 11
836.78164793548387
 21
360.49773012869355
 31
0.0
  0
LINE
  5
47D
100
AcDbEntity
  8
0
  6
Continuous
 62
               4
100
AcDbLine
 10
838.33456220609889
 20
366.293285086428
 30
0.0
 11
834.0919215189798
 21
362.05064439930857
 31
0.0
  0
LINE
  5
47E
100
AcDbEntity
  8
0
  6
Continuous
 62
               4
100
AcDbLine
 10
813.79717576553969
 20
323.79328508642789
 30
0.0
 11
718.12471879585178
 21
323.79328508642789
 31
0.0
  0
LINE
  5
47F
100
AcDbEntity
  8
0
  6
Continuous
 62
               4
100
AcDbLine
 10
991.83456220609844
 20
527.79328508642811
 30
0.0
 11
991.83456220609844
 21
553.79328508642789
 31
0.0
  0
LINE
  5
480
100
AcDbEntity
  8
0
  6
Continuous
 62
               4
100
AcDbLine
 10
991.83456220609844
 20
551.793285086428
 30
0.0
 11
971.83456220609844
 21
551.793285086428
 31
0.0
  0
LINE
  5
481
100
AcDbEntity
  8
0
  6
Continuous
 62
               4
100
AcDbLine
 10
971.83456220609844
 20
551.793285086428
 30
0.0
 11
871.83456220609844
 21
551.793285086428
 31
0.0
  0
LINE
  5
482
100
AcDbEntity
  8
0
  6
Continuous
 62
               4
100
AcDbLine
 10
822.33456220609889
 20
441.13343251191532
 30
0.0
 11
822.33456220609889
 21
553.79328508642789
 31
0.0
  0
LINE
  5
483
100
AcDbEntity
  8
0
  6
Continuous
 62
               4
100
AcDbLine
 10
871.83456220609844
 20
551.793285086428
 30
0.0
 11
822.33456220609889
 21
551.793285086428
 31
0.0
  0
LINE
  5
484
100
AcDbEntity
  8
0
  6
DIVIDE
 62
               7
100
AcDbLine
 10
871.83456220609844
 20
778.79328508642811
 30
0.0
 11
871.83456220609844
 21
645.29328508642789
 31
0.0
  0
LINE
  5
485
100
AcDbEntity
  8
0
  6
Continuous
 62
               4
100
AcDbLine
 10
822.33456220609889
 20
406.46335879917171
 30
0.0
 11
782.6878766627749
 21
337.79328508642789
 31
0.0
  0
LINE
  5
486
100
AcDbEntity
  8
0
  6
Continuous
 62
               4
100
AcDbLine
 10
822.33456220609889
 20
406.46335879917171
 30
0.0
 11
820.78164793548387
 21
400.66780384143726
 31
0.0
  0
LINE
  5
487
100
AcDbEntity
  8
0
  6
Continuous
 62
               4
100
AcDbLine
 10
822.33456220609889
 20
406.46335879917171
 30
0.0
 11
818.0919215189798
 21
402.22071811205228
 31
0.0
  0
LINE
  5
488
100
AcDbEntity
  8
0
  6
Continuous
 62
               4
100
AcDbLine
 10
782.6878766627749
 20
337.79328508642789
 30
0.0
 11
664.41123004352528
 21
337.79328508642789
 31
0.0
  0
LINE
  5
489
100
AcDbEntity
  8
0
  6
Continuous
 62
               4
100
AcDbLine
 10
873.11993635575902
 20
455.91195490434825
 30
0.0
 11
800.2386061736795
 21
528.79328508642777
 31
0.0
  0
LINE
  5
48A
100
AcDbEntity
  8
0
  6
Continuous
 62
               4
100
AcDbLine
 10
873.11993635575902
 20
455.91195490434825
 30
0.0
 11
867.92378393305228
 21
458.91195490434825
 31
0.0
  0
LINE
  5
48B
100
AcDbEntity
  8
0
  6
Continuous
 62
               4
100
AcDbLine
 10
873.11993635575902
 20
455.91195490434825
 30
0.0
 11
870.11993635575902
 21
461.10810732705488
 31
0.0
  0
LINE
  5
48C
100
AcDbEntity
  8
0
  6
Continuous
 62
               4
100
AcDbLine
 10
800.2386061736795
 20
528.79328508642777
 30
0.0
 11
702.09480502339989
 21
528.79328508642777
 31
0.0
  0
LINE
  5
48D
100
AcDbEntity
  8
0
  6
Continuous
 62
               4
100
AcDbLine
 10
873.33456220609844
 20
508.29328508642777
 30
0.0
 11
800.2386061736795
 21
528.79328508642777
 31
0.0
  0
LINE
  5
48E
100
AcDbEntity
  8
0
  6
Continuous
 62
               4
100
AcDbLine
 10
872.03456220609871
 20
520.79328508642777
 30
0.0
 11
829.03456220609871
 21
563.79328508642789
 31
0.0
  0
LINE
  5
48F
100
AcDbEntity
  8
0
  6
Continuous
 62
               4
100
AcDbLine
 10
829.03456220609871
 20
563.79328508642789
 30
0.0
 11
755.81577152748446
 21
563.79328508642789
 31
0.0
  0
LINE
  5
490
100
AcDbEntity
  8
0
  6
Continuous
 62
               4
100
AcDbLine
 10
872.03456220609871
 20
520.79328508642777
 30
0.0
 11
866.83840978339197
 21
523.79328508642777
 31
0.0
  0
LINE
  5
491
100
AcDbEntity
  8
0
  6
Continuous
 62
               4
100
AcDbLine
 10
872.03456220609871
 20
520.79328508642777
 30
0.0
 11
869.03456220609871
 21
525.98943750913452
 31
0.0
  0
LINE
  5
492
100
AcDbEntity
  8
0
  6
Continuous
 62
               4
100
AcDbLine
 10
865.83456220609844
 20
674.79328508642811
 30
0.0
 11
880.83456220609844
 21
674.79328508642811
 31
0.0
  0
LINE
  5
493
100
AcDbEntity
  8
0
  6
DASHED
 62
               6
100
AcDbLine
 10
905.83456220609844
 20
823.31767165931933
 30
0.0
 11
905.83456220609844
 21
813.79328508642811
 31
0.0
  0
LINE
  5
494
100
AcDbEntity
  8
0
  6
DASHED
 62
               6
100
AcDbLine
 10
904.85924604085733
 20
824.31736696705138
 30
0.0
 11
866.30987837134001
 21
825.26920320580484
 31
0.0
  0
LINE
  5
495
100
AcDbEntity
  8
0
  6
Continuous
 62
               4
100
AcDbLine
 10
873.33456220609844
 20
508.29328508642777
 30
0.0
 11
867.3349679432182
 21
508.36306101933781
 31
0.0
  0
LINE
  5
496
100
AcDbEntity
  8
0
  6
Continuous
 62
               4
100
AcDbLine
 10
873.33456220609844
 20
508.29328508642777
 30
0.0
 11
868.17364912849973
 21
511.35350994834084
 31
0.0
  0
LINE
  5
497
100
AcDbEntity
  8
0
  6
Continuous
 62
               4
100
AcDbLine
 10
873.33456220609844
 20
769.29217382100705
 30
0.0
 11
868.80855289337262
 21
773.23111272648885
 31
0.0
  0
LINE
  5
498
100
AcDbEntity
  8
0
  6
Continuous
 62
               4
100
AcDbLine
 10
873.33456220609844
 20
769.29217382100705
 30
0.0
 11
871.38439261625365
 21
774.96639963347207
 31
0.0
  0
LINE
  5
499
100
AcDbEntity
  8
0
  6
Continuous
 62
               7
100
AcDbLine
 10
910.83456220609889
 20
846.79328508642811
 30
0.0
 11
865.83456220609889
 21
846.79328508642811
 31
0.0
  0
LINE
  5
49A
100
AcDbEntity
  8
0
  6
Continuous
 62
               7
100
AcDbLine
 10
910.83456220609889
 20
850.79328508642811
 30
0.0
 11
865.83456220609889
 21
850.79328508642811
 31
0.0
  0
LINE
  5
49B
100
AcDbEntity
  8
0
  6
Continuous
 62
               7
100
AcDbLine
 10
863.83456220609889
 20
845.29328508642811
 30
0.0
 11
863.83456220609889
 21
852.29328508642811
 31
0.0
  0
LINE
  5
49C
100
AcDbEntity
  8
0
  6
Continuous
 62
               7
100
AcDbLine
 10
865.83456220609889
 20
846.79328508642811
 30
0.0
 11
865.83456220609889
 21
850.79328508642811
 31
0.0
  0
LINE
  5
49D
100
AcDbEntity
  8
0
  6
Continuous
 62
               7
100
AcDbLine
 10
863.83456220609889
 20
845.29328508642811
 30
0.0
 11
865.83456220609889
 21
846.79328508642811
 31
0.0
  0
LINE
  5
49E
100
AcDbEntity
  8
0
  6
Continuous
 62
               7
100
AcDbLine
 10
865.83456220609889
 20
850.79328508642811
 30
0.0
 11
863.83456220609889
 21
852.29328508642811
 31
0.0
  0
LINE
  5
49F
100
AcDbEntity
  8
0
  6
Continuous
 62
               7
100
AcDbLine
 10
913.83456220609889
 20
848.79328508642811
 30
0.0
 11
910.83456220609889
 21
846.79328508642811
 31
0.0
  0
LINE
  5
4A0
100
AcDbEntity
  8
0
  6
Continuous
 62
               7
100
AcDbLine
 10
913.83456220609889
 20
848.79328508642811
 30
0.0
 11
910.83456220609889
 21
850.79328508642811
 31
0.0
  0
LINE
  5
4A1
100
AcDbEntity
  8
0
  6
Continuous
 62
               7
100
AcDbLine
 10
875.83456220609889
 20
846.79328508642811
 30
0.0
 11
873.83456220609889
 21
850.79328508642811
 31
0.0
  0
LINE
  5
4A2
100
AcDbEntity
  8
0
  6
Continuous
 62
               7
100
AcDbLine
 10
877.83456220609889
 20
846.79328508642811
 30
0.0
 11
875.83456220609889
 21
850.79328508642811
 31
0.0
  0
LINE
  5
4A3
100
AcDbEntity
  8
0
  6
Continuous
 62
               7
100
AcDbLine
 10
879.83456220609889
 20
846.79328508642811
 30
0.0
 11
877.83456220609889
 21
850.79328508642811
 31
0.0
  0
LINE
  5
4A4
100
AcDbEntity
  8
0
  6
Continuous
 62
               7
100
AcDbLine
 10
881.83456220609889
 20
846.79328508642811
 30
0.0
 11
879.83456220609889
 21
850.79328508642811
 31
0.0
  0
LINE
  5
4A5
100
AcDbEntity
  8
0
  6
Continuous
 62
               7
100
AcDbLine
 10
883.83456220609889
 20
846.79328508642811
 30
0.0
 11
881.83456220609889
 21
850.79328508642811
 31
0.0
  0
LINE
  5
4A6
100
AcDbEntity
  8
0
  6
Continuous
 62
               7
100
AcDbLine
 10
885.83456220609889
 20
846.79328508642811
 30
0.0
 11
883.83456220609889
 21
850.79328508642811
 31
0.0
  0
LINE
  5
4A7
100
AcDbEntity
  8
0
  6
Continuous
 62
               7
100
AcDbLine
 10
887.83456220609889
 20
846.79328508642811
 30
0.0
 11
885.83456220609889
 21
850.79328508642811
 31
0.0
  0
LINE
  5
4A8
100
AcDbEntity
  8
0
  6
Continuous
 62
               7
100
AcDbLine
 10
889.83456220609889
 20
846.79328508642811
 30
0.0
 11
887.83456220609889
 21
850.79328508642811
 31
0.0
  0
LINE
  5
4A9
100
AcDbEntity
  8
0
  6
Continuous
 62
               7
100
AcDbLine
 10
891.83456220609889
 20
846.79328508642811
 30
0.0
 11
889.83456220609889
 21
850.79328508642811
 31
0.0
  0
LINE
  5
4AA
100
AcDbEntity
  8
0
  6
Continuous
 62
               7
100
AcDbLine
 10
893.83456220609889
 20
846.79328508642811
 30
0.0
 11
891.83456220609889
 21
850.79328508642811
 31
0.0
  0
LINE
  5
4AB
100
AcDbEntity
  8
0
  6
Continuous
 62
               7
100
AcDbLine
 10
895.83456220609889
 20
846.79328508642811
 30
0.0
 11
893.83456220609889
 21
850.79328508642811
 31
0.0
  0
LINE
  5
4AC
100
AcDbEntity
  8
0
  6
Continuous
 62
               7
100
AcDbLine
 10
897.83456220609889
 20
846.79328508642811
 30
0.0
 11
895.83456220609889
 21
850.79328508642811
 31
0.0
  0
LINE
  5
4AD
100
AcDbEntity
  8
0
  6
Continuous
 62
               7
100
AcDbLine
 10
899.83456220609889
 20
846.79328508642811
 30
0.0
 11
897.83456220609889
 21
850.79328508642811
 31
0.0
  0
LINE
  5
4AE
100
AcDbEntity
  8
0
  6
Continuous
 62
               7
100
AcDbLine
 10
901.83456220609889
 20
846.79328508642811
 30
0.0
 11
899.83456220609889
 21
850.79328508642811
 31
0.0
  0
LINE
  5
4AF
100
AcDbEntity
  8
0
  6
Continuous
 62
               7
100
AcDbLine
 10
903.83456220609889
 20
846.79328508642811
 30
0.0
 11
901.83456220609889
 21
850.79328508642811
 31
0.0
  0
LINE
  5
4B0
100
AcDbEntity
  8
0
  6
Continuous
 62
               7
100
AcDbLine
 10
905.83456220609889
 20
846.79328508642811
 30
0.0
 11
903.83456220609889
 21
850.79328508642811
 31
0.0
  0
LINE
  5
4B1
100
AcDbEntity
  8
0
  6
Continuous
 62
               7
100
AcDbLine
 10
907.83456220609889
 20
846.79328508642811
 30
0.0
 11
905.83456220609889
 21
850.79328508642811
 31
0.0
  0
LINE
  5
4B2
100
AcDbEntity
  8
0
  6
Continuous
 62
               7
100
AcDbLine
 10
909.83456220609889
 20
846.79328508642811
 30
0.0
 11
907.83456220609889
 21
850.79328508642811
 31
0.0
  0
LINE
  5
4B3
100
AcDbEntity
  8
0
  6
Continuous
 62
               7
100
AcDbLine
 10
911.58456220609889
 20
847.29328508642811
 30
0.0
 11
909.83456220609889
 21
850.79328508642811
 31
0.0
  0
LINE
  5
4B4
100
AcDbEntity
  8
0
  6
Continuous
 62
               7
100
AcDbLine
 10
913.08456220609889
 20
848.29328508642811
 30
0.0
 11
912.33456220609889
 21
849.79328508642811
 31
0.0
  0
LINE
  5
4B5
100
AcDbEntity
  8
0
  6
DASHDOT
 62
               7
100
AcDbLine
 10
921.83456220609867
 20
818.77010936553802
 30
0.0
 11
898.83456220609867
 21
818.77010936553802
 31
0.0
  0
LINE
  5
4B6
100
AcDbEntity
  8
0
  6
Continuous
 62
               7
100
AcDbLine
 10
918.33456220609867
 20
821.27010936553802
 30
0.0
 11
903.83456220609867
 21
821.27010936553802
 31
0.0
  0
LINE
  5
4B7
100
AcDbEntity
  8
0
  6
Continuous
 62
               7
100
AcDbLine
 10
903.83456220609867
 20
823.77010936553802
 30
0.0
 11
902.83456220609867
 21
823.77010936553802
 31
0.0
  0
LINE
  5
4B8
100
AcDbEntity
  8
0
  6
Continuous
 62
               7
100
AcDbLine
 10
918.33456220609867
 20
816.27010936553802
 30
0.0
 11
903.83456220609867
 21
816.27010936553802
 31
0.0
  0
LINE
  5
4B9
100
AcDbEntity
  8
0
  6
Continuous
 62
               7
100
AcDbLine
 10
903.83456220609867
 20
813.77010936553802
 30
0.0
 11
902.83456220609867
 21
813.77010936553802
 31
0.0
  0
LINE
  5
4BA
100
AcDbEntity
  8
0
  6
Continuous
 62
               7
100
AcDbLine
 10
903.83456220609867
 20
823.77010936553802
 30
0.0
 11
903.83456220609867
 21
813.77010936553802
 31
0.0
  0
LINE
  5
4BB
100
AcDbEntity
  8
0
  6
Continuous
 62
               7
100
AcDbLine
 10
918.33456220609867
 20
821.27010936553802
 30
0.0
 11
919.83456220609867
 21
818.77010936553802
 31
0.0
  0
LINE
  5
4BC
100
AcDbEntity
  8
0
  6
Continuous
 62
               7
100
AcDbLine
 10
918.33456220609867
 20
816.27010936553802
 30
0.0
 11
919.83456220609867
 21
818.77010936553802
 31
0.0
  0
LINE
  5
4BD
100
AcDbEntity
  8
0
  6
Continuous
 62
               7
100
AcDbLine
 10
906.83456220609867
 20
821.27010936553802
 30
0.0
 11
908.83456220609867
 21
816.27010936553802
 31
0.0
  0
LINE
  5
4BE
100
AcDbEntity
  8
0
  6
Continuous
 62
               7
100
AcDbLine
 10
908.83456220609867
 20
821.27010936553802
 30
0.0
 11
910.83456220609867
 21
816.27010936553802
 31
0.0
  0
LINE
  5
4BF
100
AcDbEntity
  8
0
  6
Continuous
 62
               7
100
AcDbLine
 10
910.83456220609867
 20
821.27010936553802
 30
0.0
 11
912.83456220609867
 21
816.27010936553802
 31
0.0
  0
LINE
  5
4C0
100
AcDbEntity
  8
0
  6
Continuous
 62
               7
100
AcDbLine
 10
914.83456220609867
 20
816.27010936553802
 30
0.0
 11
912.83456220609867
 21
821.27010936553802
 31
0.0
  0
LINE
  5
4C1
100
AcDbEntity
  8
0
  6
Continuous
 62
               7
100
AcDbLine
 10
916.83456220609867
 20
816.27010936553802
 30
0.0
 11
915.63456220609862
 21
819.27010936553802
 31
0.0
  0
LINE
  5
4C2
100
AcDbEntity
  8
0
  6
Continuous
 62
               7
100
AcDbLine
 10
917.83456220609867
 20
820.77010936553802
 30
0.0
 11
915.03456220609871
 21
820.77010936553802
 31
0.0
  0
LINE
  5
4C3
100
AcDbEntity
  8
0
  6
Continuous
 62
               7
100
AcDbLine
 10
918.53456220609871
 20
819.27010936553802
 30
0.0
 11
915.63456220609862
 21
819.27010936553802
 31
0.0
  0
LINE
  5
4C4
100
AcDbEntity
  8
0
  6
Continuous
 62
               7
100
AcDbLine
 10
918.33456220609867
 20
821.27010936553802
 30
0.0
 11
917.83456220609867
 21
820.77010936553802
 31
0.0
  0
LINE
  5
4C5
100
AcDbEntity
  8
0
  6
Continuous
 62
               7
100
AcDbLine
 10
915.63456220609862
 20
819.27010936553802
 30
0.0
 11
914.58456220609867
 21
820.32010936553797
 31
0.0
  0
LINE
  5
4C6
100
AcDbEntity
  8
0
  6
Continuous
 62
               7
100
AcDbLine
 10
915.03456220609871
 20
820.77010936553802
 30
0.0
 11
914.58456220609867
 21
820.32010936553797
 31
0.0
  0
LINE
  5
4C7
100
AcDbEntity
  8
0
  6
Continuous
 62
               7
100
AcDbLine
 10
915.03456220609871
 20
820.77010936553802
 30
0.0
 11
914.83456220609867
 21
821.27010936553802
 31
0.0
  0
LINE
  5
4C8
100
AcDbEntity
  8
0
  6
DOT
 62
               7
100
AcDbLine
 10
900.99143172654306
 20
820.27010936553802
 30
0.0
 11
903.83456220609867
 21
818.77010936553802
 31
0.0
  0
LINE
  5
4C9
100
AcDbEntity
  8
0
  6
DOT
 62
               7
100
AcDbLine
 10
903.83456220609844
 20
818.77010936553802
 30
0.0
 11
900.99143172654306
 21
817.27010936553802
 31
0.0
  0
LINE
  5
4CA
100
AcDbEntity
  8
0
  6
DASHDOT
 62
               7
100
AcDbLine
 10
895.33456220609867
 20
731.79217382100705
 30
0.0
 11
860.83456220609844
 21
731.79217382100705
 31
0.0
  0
LINE
  5
4CB
100
AcDbEntity
  8
0
  6
Continuous
 62
               7
100
AcDbLine
 10
891.83456220609867
 20
734.29217382100705
 30
0.0
 11
865.83456220609844
 21
734.29217382100705
 31
0.0
  0
LINE
  5
4CC
100
AcDbEntity
  8
0
  6
Continuous
 62
               7
100
AcDbLine
 10
891.83456220609867
 20
729.29217382100705
 30
0.0
 11
865.83456220609844
 21
729.29217382100705
 31
0.0
  0
LINE
  5
4CD
100
AcDbEntity
  8
0
  6
Continuous
 62
               7
100
AcDbLine
 10
865.83456220609844
 20
734.29217382100705
 30
0.0
 11
865.83456220609844
 21
729.29217382100705
 31
0.0
  0
LINE
  5
4CE
100
AcDbEntity
  8
0
  6
Continuous
 62
               7
100
AcDbLine
 10
891.83456220609867
 20
734.29217382100705
 30
0.0
 11
893.33456220609867
 21
731.79217382100705
 31
0.0
  0
LINE
  5
4CF
100
AcDbEntity
  8
0
  6
Continuous
 62
               7
100
AcDbLine
 10
891.83456220609867
 20
729.29217382100705
 30
0.0
 11
893.33456220609867
 21
731.79217382100705
 31
0.0
  0
LINE
  5
4D0
100
AcDbEntity
  8
0
  6
Continuous
 62
               7
100
AcDbLine
 10
880.33456220609867
 20
734.29217382100705
 30
0.0
 11
882.33456220609867
 21
729.29217382100705
 31
0.0
  0
LINE
  5
4D1
100
AcDbEntity
  8
0
  6
Continuous
 62
               7
100
AcDbLine
 10
882.33456220609867
 20
734.29217382100705
 30
0.0
 11
884.33456220609867
 21
729.29217382100705
 31
0.0
  0
LINE
  5
4D2
100
AcDbEntity
  8
0
  6
Continuous
 62
               7
100
AcDbLine
 10
884.33456220609867
 20
734.29217382100705
 30
0.0
 11
886.33456220609867
 21
729.29217382100705
 31
0.0
  0
LINE
  5
4D3
100
AcDbEntity
  8
0
  6
Continuous
 62
               7
100
AcDbLine
 10
888.33456220609867
 20
729.29217382100705
 30
0.0
 11
886.33456220609867
 21
734.29217382100705
 31
0.0
  0
LINE
  5
4D4
100
AcDbEntity
  8
0
  6
Continuous
 62
               7
100
AcDbLine
 10
890.33456220609867
 20
729.29217382100705
 30
0.0
 11
889.13456220609862
 21
732.29217382100705
 31
0.0
  0
LINE
  5
4D5
100
AcDbEntity
  8
0
  6
Continuous
 62
               7
100
AcDbLine
 10
891.33456220609867
 20
733.79217382100705
 30
0.0
 11
888.53456220609871
 21
733.79217382100705
 31
0.0
  0
LINE
  5
4D6
100
AcDbEntity
  8
0
  6
Continuous
 62
               7
100
AcDbLine
 10
892.03456220609871
 20
732.29217382100705
 30
0.0
 11
889.13456220609862
 21
732.29217382100705
 31
0.0
  0
LINE
  5
4D7
100
AcDbEntity
  8
0
  6
Continuous
 62
               7
100
AcDbLine
 10
891.83456220609867
 20
734.29217382100705
 30
0.0
 11
891.33456220609867
 21
733.79217382100705
 31
0.0
  0
LINE
  5
4D8
100
AcDbEntity
  8
0
  6
Continuous
 62
               7
100
AcDbLine
 10
889.13456220609862
 20
732.29217382100705
 30
0.0
 11
888.08456220609867
 21
733.34217382100701
 31
0.0
  0
LINE
  5
4D9
100
AcDbEntity
  8
0
  6
Continuous
 62
               7
100
AcDbLine
 10
888.53456220609871
 20
733.79217382100705
 30
0.0
 11
888.08456220609867
 21
733.34217382100701
 31
0.0
  0
LINE
  5
4DA
100
AcDbEntity
  8
0
  6
Continuous
 62
               7
100
AcDbLine
 10
888.53456220609871
 20
733.79217382100705
 30
0.0
 11
888.33456220609867
 21
734.29217382100705
 31
0.0
  0
LINE
  5
4DB
100
AcDbEntity
  8
0
  6
Continuous
 62
               7
100
AcDbLine
 10
863.83456220609844
 20
736.79217382100705
 30
0.0
 11
863.83456220609844
 21
726.79217382100705
 31
0.0
  0
LINE
  5
4DC
100
AcDbEntity
  8
0
  6
Continuous
 62
               7
100
AcDbLine
 10
863.33456220609844
 20
736.79217382100705
 30
0.0
 11
863.33456220609844
 21
726.79217382100705
 31
0.0
  0
LINE
  5
4DD
100
AcDbEntity
  8
0
  6
Continuous
 62
               7
100
AcDbLine
 10
863.33456220609844
 20
736.79217382100705
 30
0.0
 11
863.83456220609844
 21
736.79217382100705
 31
0.0
  0
LINE
  5
4DE
100
AcDbEntity
  8
0
  6
Continuous
 62
               7
100
AcDbLine
 10
863.83456220609844
 20
736.79217382100705
 30
0.0
 11
865.83456220609844
 21
734.29217382100705
 31
0.0
  0
LINE
  5
4DF
100
AcDbEntity
  8
0
  6
Continuous
 62
               7
100
AcDbLine
 10
865.83456220609844
 20
729.29217382100705
 30
0.0
 11
863.83456220609844
 21
726.79217382100705
 31
0.0
  0
LINE
  5
4E0
100
AcDbEntity
  8
0
  6
DASHDOT
 62
               7
100
AcDbLine
 10
895.33456220609867
 20
540.79328508642777
 30
0.0
 11
860.83456220609844
 21
540.79328508642777
 31
0.0
  0
LINE
  5
4E1
100
AcDbEntity
  8
0
  6
Continuous
 62
               7
100
AcDbLine
 10
891.83456220609867
 20
543.29328508642777
 30
0.0
 11
865.83456220609844
 21
543.29328508642777
 31
0.0
  0
LINE
  5
4E2
100
AcDbEntity
  8
0
  6
Continuous
 62
               7
100
AcDbLine
 10
891.83456220609867
 20
538.29328508642777
 30
0.0
 11
865.83456220609844
 21
538.29328508642777
 31
0.0
  0
LINE
  5
4E3
100
AcDbEntity
  8
0
  6
Continuous
 62
               7
100
AcDbLine
 10
865.83456220609844
 20
543.29328508642777
 30
0.0
 11
865.83456220609844
 21
538.29328508642777
 31
0.0
  0
LINE
  5
4E4
100
AcDbEntity
  8
0
  6
Continuous
 62
               7
100
AcDbLine
 10
891.83456220609867
 20
543.29328508642777
 30
0.0
 11
893.33456220609867
 21
540.79328508642777
 31
0.0
  0
LINE
  5
4E5
100
AcDbEntity
  8
0
  6
Continuous
 62
               7
100
AcDbLine
 10
891.83456220609867
 20
538.29328508642777
 30
0.0
 11
893.33456220609867
 21
540.79328508642777
 31
0.0
  0
LINE
  5
4E6
100
AcDbEntity
  8
0
  6
Continuous
 62
               7
100
AcDbLine
 10
880.33456220609844
 20
543.29328508642777
 30
0.0
 11
882.33456220609844
 21
538.29328508642777
 31
0.0
  0
LINE
  5
4E7
100
AcDbEntity
  8
0
  6
Continuous
 62
               7
100
AcDbLine
 10
882.33456220609844
 20
543.29328508642777
 30
0.0
 11
884.33456220609844
 21
538.29328508642777
 31
0.0
  0
LINE
  5
4E8
100
AcDbEntity
  8
0
  6
Continuous
 62
               7
100
AcDbLine
 10
884.33456220609844
 20
543.29328508642777
 30
0.0
 11
886.33456220609867
 21
538.29328508642777
 31
0.0
  0
LINE
  5
4E9
100
AcDbEntity
  8
0
  6
Continuous
 62
               7
100
AcDbLine
 10
888.33456220609867
 20
538.29328508642777
 30
0.0
 11
886.33456220609867
 21
543.29328508642777
 31
0.0
  0
LINE
  5
4EA
100
AcDbEntity
  8
0
  6
Continuous
 62
               7
100
AcDbLine
 10
890.33456220609867
 20
538.29328508642777
 30
0.0
 11
889.13456220609862
 21
541.29328508642777
 31
0.0
  0
LINE
  5
4EB
100
AcDbEntity
  8
0
  6
Continuous
 62
               7
100
AcDbLine
 10
891.33456220609867
 20
542.79328508642777
 30
0.0
 11
888.53456220609871
 21
542.79328508642777
 31
0.0
  0
LINE
  5
4EC
100
AcDbEntity
  8
0
  6
Continuous
 62
               7
100
AcDbLine
 10
892.03456220609871
 20
541.29328508642777
 30
0.0
 11
889.13456220609862
 21
541.29328508642777
 31
0.0
  0
LINE
  5
4ED
100
AcDbEntity
  8
0
  6
Continuous
 62
               7
100
AcDbLine
 10
891.83456220609867
 20
543.29328508642777
 30
0.0
 11
891.33456220609867
 21
542.79328508642777
 31
0.0
  0
LINE
  5
4EE
100
AcDbEntity
  8
0
  6
Continuous
 62
               7
100
AcDbLine
 10
889.13456220609862
 20
541.29328508642777
 30
0.0
 11
888.08456220609867
 21
542.34328508642784
 31
0.0
  0
LINE
  5
4EF
100
AcDbEntity
  8
0
  6
Continuous
 62
               7
100
AcDbLine
 10
888.53456220609871
 20
542.79328508642777
 30
0.0
 11
888.08456220609867
 21
542.34328508642784
 31
0.0
  0
LINE
  5
4F0
100
AcDbEntity
  8
0
  6
Continuous
 62
               7
100
AcDbLine
 10
888.53456220609871
 20
542.79328508642777
 30
0.0
 11
888.33456220609867
 21
543.29328508642777
 31
0.0
  0
LINE
  5
4F1
100
AcDbEntity
  8
0
  6
Continuous
 62
               7
100
AcDbLine
 10
863.83456220609844
 20
545.79328508642777
 30
0.0
 11
863.83456220609844
 21
535.79328508642777
 31
0.0
  0
LINE
  5
4F2
100
AcDbEntity
  8
0
  6
Continuous
 62
               7
100
AcDbLine
 10
863.33456220609844
 20
545.79328508642777
 30
0.0
 11
863.33456220609844
 21
535.79328508642777
 31
0.0
  0
LINE
  5
4F3
100
AcDbEntity
  8
0
  6
Continuous
 62
               7
100
AcDbLine
 10
863.33456220609844
 20
545.79328508642777
 30
0.0
 11
863.83456220609844
 21
545.79328508642777
 31
0.0
  0
LINE
  5
4F4
100
AcDbEntity
  8
0
  6
Continuous
 62
               7
100
AcDbLine
 10
863.83456220609844
 20
545.79328508642777
 30
0.0
 11
865.83456220609844
 21
543.29328508642777
 31
0.0
  0
LINE
  5
4F5
100
AcDbEntity
  8
0
  6
Continuous
 62
               7
100
AcDbLine
 10
865.83456220609844
 20
538.29328508642777
 30
0.0
 11
863.83456220609844
 21
535.79328508642777
 31
0.0
  0
LINE
  5
4F6
100
AcDbEntity
  8
0
  6
Continuous
 62
               7
100
AcDbLine
 10
863.33456220609844
 20
535.79328508642777
 30
0.0
 11
863.83456220609844
 21
535.79328508642777
 31
0.0
  0
LINE
  5
4F7
100
AcDbEntity
  8
0
  6
Continuous
 62
               7
100
AcDbLine
 10
876.33456220609867
 20
543.29328508642777
 30
0.0
 11
878.33456220609867
 21
538.29328508642777
 31
0.0
  0
LINE
  5
4F8
100
AcDbEntity
  8
0
  6
Continuous
 62
               7
100
AcDbLine
 10
878.33456220609867
 20
543.29328508642777
 30
0.0
 11
880.33456220609867
 21
538.29328508642777
 31
0.0
  0
LINE
  5
4F9
100
AcDbEntity
  8
0
  6
Continuous
 62
               7
100
AcDbLine
 10
872.33456220609867
 20
543.29328508642777
 30
0.0
 11
874.33456220609867
 21
538.29328508642777
 31
0.0
  0
LINE
  5
4FA
100
AcDbEntity
  8
0
  6
Continuous
 62
               7
100
AcDbLine
 10
874.33456220609867
 20
543.29328508642777
 30
0.0
 11
876.33456220609867
 21
538.29328508642777
 31
0.0
  0
LINE
  5
4FB
100
AcDbEntity
  8
0
  6
Continuous
 62
               7
100
AcDbLine
 10
863.33456220609844
 20
726.79217382100705
 30
0.0
 11
863.83456220609844
 21
726.79217382100705
 31
0.0
  0
LINE
  5
4FC
100
AcDbEntity
  8
0
  6
Continuous
 62
               7
100
AcDbLine
 10
876.33456220609867
 20
734.29217382100705
 30
0.0
 11
878.33456220609867
 21
729.29217382100705
 31
0.0
  0
LINE
  5
4FD
100
AcDbEntity
  8
0
  6
Continuous
 62
               7
100
AcDbLine
 10
878.33456220609867
 20
734.29217382100705
 30
0.0
 11
880.33456220609867
 21
729.29217382100705
 31
0.0
  0
LINE
  5
4FE
100
AcDbEntity
  8
0
  6
Continuous
 62
               7
100
AcDbLine
 10
872.33456220609867
 20
734.29217382100705
 30
0.0
 11
874.33456220609867
 21
729.29217382100705
 31
0.0
  0
LINE
  5
4FF
100
AcDbEntity
  8
0
  6
Continuous
 62
               7
100
AcDbLine
 10
874.33456220609867
 20
734.29217382100705
 30
0.0
 11
876.33456220609867
 21
729.29217382100705
 31
0.0
  0
LINE
  5
500
100
AcDbEntity
  8
0
  6
Continuous
 62
               7
100
AcDbLine
 10
880.83456220609844
 20
528.19629664497825
 30
0.0
 11
874.43155064754831
 21
521.79328508642777
 31
0.0
  0
LINE
  5
501
100
AcDbEntity
  8
0
  6
Continuous
 62
               7
100
AcDbLine
 10
880.83456220609844
 20
542.3384322687092
 30
0.0
 11
865.83456220609844
 21
527.3384322687092
 31
0.0
  0
LINE
  5
502
100
AcDbEntity
  8
0
  6
Continuous
 62
               7
100
AcDbLine
 10
880.83456220609844
 20
556.48056789244015
 30
0.0
 11
865.83456220609844
 21
541.48056789244015
 31
0.0
  0
LINE
  5
503
100
AcDbEntity
  8
0
  6
Continuous
 62
               7
100
AcDbLine
 10
880.83456220609844
 20
570.62270351617099
 30
0.0
 11
865.83456220609844
 21
555.62270351617099
 31
0.0
  0
LINE
  5
504
100
AcDbEntity
  8
0
  6
Continuous
 62
               7
100
AcDbLine
 10
880.83456220609844
 20
584.76483913990205
 30
0.0
 11
865.83456220609844
 21
569.76483913990205
 31
0.0
  0
LINE
  5
505
100
AcDbEntity
  8
0
  6
Continuous
 62
               7
100
AcDbLine
 10
880.83456220609844
 20
598.90697476363289
 30
0.0
 11
865.83456220609844
 21
583.90697476363289
 31
0.0
  0
LINE
  5
506
100
AcDbEntity
  8
0
  6
Continuous
 62
               7
100
AcDbLine
 10
880.83456220609844
 20
613.04911038736395
 30
0.0
 11
865.83456220609844
 21
598.04911038736395
 31
0.0
  0
LINE
  5
507
100
AcDbEntity
  8
0
  6
Continuous
 62
               7
100
AcDbLine
 10
878.93660128143176
 20
625.29328508642811
 30
0.0
 11
865.83456220609844
 21
612.19124601109479
 31
0.0
  0
LINE
  5
508
100
AcDbEntity
  8
0
  6
Continuous
 62
               7
100
AcDbLine
 10
880.83456220609844
 20
655.47551725855669
 30
0.0
 11
870.65233003396963
 21
645.29328508642789
 31
0.0
  0
LINE
  5
509
100
AcDbEntity
  8
0
  6
Continuous
 62
               7
100
AcDbLine
 10
880.83456220609844
 20
669.61765288228776
 30
0.0
 11
865.83456220609844
 21
654.61765288228776
 31
0.0
  0
LINE
  5
50A
100
AcDbEntity
  8
0
  6
Continuous
 62
               7
100
AcDbLine
 10
880.83456220609844
 20
683.75978850601859
 30
0.0
 11
865.83456220609844
 21
668.75978850601859
 31
0.0
  0
LINE
  5
50B
100
AcDbEntity
  8
0
  6
Continuous
 62
               7
100
AcDbLine
 10
880.83456220609844
 20
697.90192412974966
 30
0.0
 11
865.83456220609844
 21
682.90192412974966
 31
0.0
  0
LINE
  5
50C
100
AcDbEntity
  8
0
  6
Continuous
 62
               7
100
AcDbLine
 10
880.83456220609844
 20
712.0440597534805
 30
0.0
 11
865.83456220609844
 21
697.0440597534805
 31
0.0
  0
LINE
  5
50D
100
AcDbEntity
  8
0
  6
Continuous
 62
               7
100
AcDbLine
 10
880.83456220609844
 20
726.18619537721156
 30
0.0
 11
865.83456220609844
 21
711.18619537721156
 31
0.0
  0
LINE
  5
50E
100
AcDbEntity
  8
0
  6
Continuous
 62
               7
100
AcDbLine
 10
880.83456220609844
 20
740.3283310009424
 30
0.0
 11
865.83456220609844
 21
725.3283310009424
 31
0.0
  0
LINE
  5
50F
100
AcDbEntity
  8
0
  6
Continuous
 62
               7
100
AcDbLine
 10
877.15626940243226
 20
750.79217382100705
 30
0.0
 11
865.83456220609844
 21
739.47046662467346
 31
0.0
  0
LINE
  5
510
100
AcDbEntity
  8
0
  6
Continuous
 62
               2
100
AcDbLine
 10
841.83456220609889
 20
805.51772334526595
 30
0.0
 11
903.83456220609867
 21
814.37486620240884
 31
0.0
  0
LINE
  5
511
100
AcDbEntity
  8
0
  6
Continuous
 62
               2
100
AcDbLine
 10
841.83456220609889
 20
805.51772334526595
 30
0.0
 11
841.83456220609889
 21
779.39328508642802
 31
0.0
  0
LINE
  5
512
100
AcDbEntity
  8
0
  6
Continuous
 62
               4
100
AcDbLine
 10
820.33456220609889
 20
805.51772334526595
 30
0.0
 11
837.83456220609889
 21
805.51772334526595
 31
0.0
  0
LINE
  5
513
100
AcDbEntity
  8
0
  6
Continuous
 62
               4
100
AcDbLine
 10
822.33456220609889
 20
808.79328508642811
 30
0.0
 11
822.33456220609889
 21
805.51772334526595
 31
0.0
  0
LINE
  5
514
100
AcDbEntity
  8
0
  6
Continuous
 62
               4
100
AcDbLine
 10
822.33456220609889
 20
805.51772334526595
 30
0.0
 11
822.33456220609889
 21
778.79328508642811
 31
0.0
  0
LINE
  5
515
100
AcDbEntity
  8
0
  6
Continuous
 62
               2
100
AcDbLine
 10
844.66685507616796
 20
788.65047796474278
 30
0.0
 11
843.03456220609894
 21
779.39328508642802
 31
0.0
  0
LINE
  5
516
100
AcDbEntity
  8
0
  6
Continuous
 62
               4
100
AcDbLine
 10
841.83456220609889
 20
784.79328508642811
 30
0.0
 11
871.83456220609844
 21
784.79328508642811
 31
0.0
  0
LINE
  5
517
100
AcDbEntity
  8
0
  6
Continuous
 62
               6
100
AcDbLine
 10
883.47598356233595
 20
811.46649782472855
 30
0.0
 11
888.47598356233595
 21
812.1807835390141
 31
0.0
  0
LINE
  5
518
100
AcDbEntity
  8
0
  6
Continuous
 62
               2
100
AcDbLine
 10
903.83456220609867
 20
814.37486620240884
 30
0.0
 11
903.83456220609867
 21
823.79328508642811
 31
0.0
  0
LINE
  5
519
100
AcDbEntity
  8
0
  6
Continuous
 62
               4
100
AcDbLine
 10
863.83456220609844
 20
753.79217382100705
 30
0.0
 11
800.83345094067761
 21
816.79328508642789
 31
0.0
  0
LINE
  5
51A
100
AcDbEntity
  8
0
  6
Continuous
 62
               4
100
AcDbLine
 10
803.49678133551799
 20
830.79328508642789
 30
0.0
 11
728.32874404295319
 21
830.79328508642789
 31
0.0
  0
LINE
  5
51B
100
AcDbEntity
  8
0
  6
Continuous
 62
               4
100
AcDbLine
 10
863.83456220609844
 20
753.79217382100705
 30
0.0
 11
858.63840978339192
 21
756.79217382100705
 31
0.0
  0
LINE
  5
51C
100
AcDbEntity
  8
0
  6
Continuous
 62
               4
100
AcDbLine
 10
863.83456220609844
 20
753.79217382100705
 30
0.0
 11
860.83456220609844
 21
758.98832624371357
 31
0.0
  0
CIRCLE
  5
51D
100
AcDbEntity
  8
0
  6
Continuous
 62
               4
100
AcDbCircle
 10
1392.3345622060988
 20
1104.7932850864281
 30
0.0
 40
1.0
  0
CIRCLE
  5
51E
100
AcDbEntity
  8
0
  6
Continuous
 62
               4
100
AcDbCircle
 10
942.33456220609889
 20
1104.7932850864281
 30
0.0
 40
1.0
  0
CIRCLE
  5
51F
100
AcDbEntity
  8
0
  6
Continuous
 62
               4
100
AcDbCircle
 10
992.33456220609889
 20
1090.7932850864281
 30
0.0
 40
1.0
  0
CIRCLE
  5
520
100
AcDbEntity
  8
0
  6
Continuous
 62
               4
100
AcDbCircle
 10
892.33456220609889
 20
1090.7932850864281
 30
0.0
 40
1.0
  0
CIRCLE
  5
521
100
AcDbEntity
  8
0
  6
Continuous
 62
               4
100
AcDbCircle
 10
892.33456220609889
 20
1090.7932850864281
 30
0.0
 40
1.0
  0
CIRCLE
  5
522
100
AcDbEntity
  8
0
  6
Continuous
 62
               4
100
AcDbCircle
 10
862.33456220609889
 20
1090.7932850864281
 30
0.0
 40
1.0
  0
CIRCLE
  5
523
100
AcDbEntity
  8
0
  6
Continuous
 62
               4
100
AcDbCircle
 10
866.33456220609889
 20
1076.7932850864281
 30
0.0
 40
1.0
  0
CIRCLE
  5
524
100
AcDbEntity
  8
0
  6
Continuous
 62
               4
100
AcDbCircle
 10
872.33456220609889
 20
1076.7932850864281
 30
0.0
 40
1.0
  0
CIRCLE
  5
525
100
AcDbEntity
  8
0
  6
Continuous
 62
               4
100
AcDbCircle
 10
872.33456220609889
 20
1076.7932850864281
 30
0.0
 40
1.0
  0
CIRCLE
  5
526
100
AcDbEntity
  8
0
  6
Continuous
 62
               4
100
AcDbCircle
 10
892.33456220609889
 20
1076.7932850864281
 30
0.0
 40
1.0
  0
CIRCLE
  5
527
100
AcDbEntity
  8
0
  6
Continuous
 62
               4
100
AcDbCircle
 10
892.33456220609889
 20
1076.7932850864281
 30
0.0
 40
1.0
  0
CIRCLE
  5
528
100
AcDbEntity
  8
0
  6
Continuous
 62
               4
100
AcDbCircle
 10
942.33456220609889
 20
1076.7932850864281
 30
0.0
 40
1.0
  0
CIRCLE
  5
529
100
AcDbEntity
  8
0
  6
Continuous
 62
               4
100
AcDbCircle
 10
942.33456220609889
 20
1076.7932850864281
 30
0.0
 40
1.0
  0
CIRCLE
  5
52A
100
AcDbEntity
  8
0
  6
Continuous
 62
               4
100
AcDbCircle
 10
992.33456220609889
 20
1076.7932850864281
 30
0.0
 40
1.0
  0
CIRCLE
  5
52B
100
AcDbEntity
  8
0
  6
Continuous
 62
               4
100
AcDbCircle
 10
992.33456220609889
 20
1090.7932850864281
 30
0.0
 40
1.0
  0
CIRCLE
  5
52C
100
AcDbEntity
  8
0
  6
Continuous
 62
               4
100
AcDbCircle
 10
1392.3345622060988
 20
1090.7932850864281
 30
0.0
 40
1.0
  0
CIRCLE
  5
52D
100
AcDbEntity
  8
0
  6
Continuous
 62
               4
100
AcDbCircle
 10
882.33456220609889
 20
1048.7932850864281
 30
0.0
 40
1.0
  0
CIRCLE
  5
52E
100
AcDbEntity
  8
0
  6
Continuous
 62
               4
100
AcDbCircle
 10
869.33456220609889
 20
1048.7932850864281
 30
0.0
 40
1.0
  0
CIRCLE
  5
52F
100
AcDbEntity
  8
0
  6
Continuous
 62
               4
100
AcDbCircle
 10
865.33456220609889
 20
1048.7932850864281
 30
0.0
 40
1.0
  0
CIRCLE
  5
530
100
AcDbEntity
  8
0
  6
Continuous
 62
               4
100
AcDbCircle
 10
863.33456220609889
 20
1048.7932850864281
 30
0.0
 40
1.0
  0
CIRCLE
  5
531
100
AcDbEntity
  8
0
  6
Continuous
 62
               4
100
AcDbCircle
 10
862.33456220609889
 20
1090.7932850864281
 30
0.0
 40
1.0
  0
CIRCLE
  5
532
100
AcDbEntity
  8
0
  6
Continuous
 62
               4
100
AcDbCircle
 10
842.33456220609889
 20
1090.7932850864281
 30
0.0
 40
1.0
  0
CIRCLE
  5
533
100
AcDbEntity
  8
0
  6
Continuous
 62
               4
100
AcDbCircle
 10
1013.9133208700811
 20
823.79328508642811
 30
0.0
 40
1.0
  0
CIRCLE
  5
534
100
AcDbEntity
  8
0
  6
Continuous
 62
               4
100
AcDbCircle
 10
1013.9133208700811
 20
813.79328508642811
 30
0.0
 40
1.0
  0
CIRCLE
  5
535
100
AcDbEntity
  8
0
  6
Continuous
 62
               4
100
AcDbCircle
 10
1013.9133208700811
 20
813.79328508642811
 30
0.0
 40
1.0
  0
CIRCLE
  5
536
100
AcDbEntity
  8
0
  6
Continuous
 62
               4
100
AcDbCircle
 10
1013.9133208700811
 20
778.79328508642811
 30
0.0
 40
1.0
  0
CIRCLE
  5
537
100
AcDbEntity
  8
0
  6
Continuous
 62
               4
100
AcDbCircle
 10
1013.9133208700811
 20
778.79328508642811
 30
0.0
 40
1.0
  0
CIRCLE
  5
538
100
AcDbEntity
  8
0
  6
Continuous
 62
               4
100
AcDbCircle
 10
1013.9133208700811
 20
758.79328508642811
 30
0.0
 40
1.0
  0
CIRCLE
  5
539
100
AcDbEntity
  8
0
  6
Continuous
 62
               4
100
AcDbCircle
 10
1083.913320870081
 20
858.79328508642811
 30
0.0
 40
1.0
  0
CIRCLE
  5
53A
100
AcDbEntity
  8
0
  6
Continuous
 62
               4
100
AcDbCircle
 10
1083.913320870081
 20
778.79328508642811
 30
0.0
 40
1.0
  0
CIRCLE
  5
53B
100
AcDbEntity
  8
0
  6
Continuous
 62
               4
100
AcDbCircle
 10
1083.913320870081
 20
778.79328508642811
 30
0.0
 40
1.0
  0
CIRCLE
  5
53C
100
AcDbEntity
  8
0
  6
Continuous
 62
               4
100
AcDbCircle
 10
1083.913320870081
 20
858.79328508642811
 30
0.0
 40
1.0
  0
CIRCLE
  5
53D
100
AcDbEntity
  8
0
  6
Continuous
 62
               4
100
AcDbCircle
 10
1069.913320870081
 20
858.79328508642811
 30
0.0
 40
1.0
  0
CIRCLE
  5
53E
100
AcDbEntity
  8
0
  6
Continuous
 62
               4
100
AcDbCircle
 10
1069.913320870081
 20
783.79328508642811
 30
0.0
 40
1.0
  0
CIRCLE
  5
53F
100
AcDbEntity
  8
0
  6
Continuous
 62
               4
100
AcDbCircle
 10
1069.913320870081
 20
783.79328508642811
 30
0.0
 40
1.0
  0
CIRCLE
  5
540
100
AcDbEntity
  8
0
  6
Continuous
 62
               4
100
AcDbCircle
 10
1069.913320870081
 20
778.79328508642811
 30
0.0
 40
1.0
  0
CIRCLE
  5
541
100
AcDbEntity
  8
0
  6
Continuous
 62
               4
100
AcDbCircle
 10
1083.913320870081
 20
778.79328508642811
 30
0.0
 40
1.0
  0
CIRCLE
  5
542
100
AcDbEntity
  8
0
  6
Continuous
 62
               4
100
AcDbCircle
 10
1083.913320870081
 20
523.793285086428
 30
0.0
 40
1.0
  0
CIRCLE
  5
543
100
AcDbEntity
  8
0
  6
Continuous
 62
               4
100
AcDbCircle
 10
1083.913320870081
 20
523.793285086428
 30
0.0
 40
1.0
  0
CIRCLE
  5
544
100
AcDbEntity
  8
0
  6
Continuous
 62
               4
100
AcDbCircle
 10
1083.913320870081
 20
343.793285086428
 30
0.0
 40
1.0
  0
CIRCLE
  5
545
100
AcDbEntity
  8
0
  6
Continuous
 62
               4
100
AcDbCircle
 10
1069.913320870081
 20
343.793285086428
 30
0.0
 40
1.0
  0
CIRCLE
  5
546
100
AcDbEntity
  8
0
  6
Continuous
 62
               4
100
AcDbCircle
 10
1069.913320870081
 20
363.793285086428
 30
0.0
 40
1.0
  0
CIRCLE
  5
547
100
AcDbEntity
  8
0
  6
Continuous
 62
               4
100
AcDbCircle
 10
1069.913320870081
 20
363.793285086428
 30
0.0
 40
1.0
  0
CIRCLE
  5
548
100
AcDbEntity
  8
0
  6
Continuous
 62
               4
100
AcDbCircle
 10
1069.913320870081
 20
483.793285086428
 30
0.0
 40
1.0
  0
CIRCLE
  5
549
100
AcDbEntity
  8
0
  6
Continuous
 62
               4
100
AcDbCircle
 10
1069.913320870081
 20
483.793285086428
 30
0.0
 40
1.0
  0
CIRCLE
  5
54A
100
AcDbEntity
  8
0
  6
Continuous
 62
               4
100
AcDbCircle
 10
1069.913320870081
 20
498.793285086428
 30
0.0
 40
1.0
  0
CIRCLE
  5
54B
100
AcDbEntity
  8
0
  6
Continuous
 62
               4
100
AcDbCircle
 10
1069.913320870081
 20
498.793285086428
 30
0.0
 40
1.0
  0
CIRCLE
  5
54C
100
AcDbEntity
  8
0
  6
Continuous
 62
               4
100
AcDbCircle
 10
1069.913320870081
 20
523.793285086428
 30
0.0
 40
1.0
  0
CIRCLE
  5
54D
100
AcDbEntity
  8
0
  6
Continuous
 62
               4
100
AcDbCircle
 10
808.33456220609889
 20
823.79328508642811
 30
0.0
 40
1.0
  0
CIRCLE
  5
54E
100
AcDbEntity
  8
0
  6
Continuous
 62
               4
100
AcDbCircle
 10
808.33456220609889
 20
808.79328508642811
 30
0.0
 40
1.0
  0
CIRCLE
  5
54F
100
AcDbEntity
  8
0
  6
Continuous
 62
               4
100
AcDbCircle
 10
808.33456220609889
 20
808.79328508642811
 30
0.0
 40
1.0
  0
CIRCLE
  5
550
100
AcDbEntity
  8
0
  6
Continuous
 62
               4
100
AcDbCircle
 10
808.33456220609889
 20
778.79328508642811
 30
0.0
 40
1.0
  0
CIRCLE
  5
551
100
AcDbEntity
  8
0
  6
Continuous
 62
               4
100
AcDbCircle
 10
808.33456220609889
 20
778.79328508642811
 30
0.0
 40
1.0
  0
CIRCLE
  5
552
100
AcDbEntity
  8
0
  6
Continuous
 62
               4
100
AcDbCircle
 10
808.33456220609889
 20
775.79328508642811
 30
0.0
 40
1.0
  0
CIRCLE
  5
553
100
AcDbEntity
  8
0
  6
Continuous
 62
               4
100
AcDbCircle
 10
808.33456220609889
 20
775.79328508642811
 30
0.0
 40
1.0
  0
CIRCLE
  5
554
100
AcDbEntity
  8
0
  6
Continuous
 62
               4
100
AcDbCircle
 10
808.33456220609889
 20
760.79328508642811
 30
0.0
 40
1.0
  0
CIRCLE
  5
555
100
AcDbEntity
  8
0
  6
Continuous
 62
               4
100
AcDbCircle
 10
971.83456220609844
 20
674.79328508642811
 30
0.0
 40
1.0
  0
CIRCLE
  5
556
100
AcDbEntity
  8
0
  6
Continuous
 62
               4
100
AcDbCircle
 10
938.33456220609844
 20
674.79328508642811
 30
0.0
 40
1.0
  0
CIRCLE
  5
557
100
AcDbEntity
  8
0
  6
Continuous
 62
               4
100
AcDbCircle
 10
938.33456220609844
 20
674.79328508642811
 30
0.0
 40
1.0
  0
CIRCLE
  5
558
100
AcDbEntity
  8
0
  6
Continuous
 62
               4
100
AcDbCircle
 10
925.83456220609844
 20
674.79328508642811
 30
0.0
 40
1.0
  0
CIRCLE
  5
559
100
AcDbEntity
  8
0
  6
Continuous
 62
               4
100
AcDbCircle
 10
925.83456220609844
 20
674.79328508642811
 30
0.0
 40
1.0
  0
CIRCLE
  5
55A
100
AcDbEntity
  8
0
  6
Continuous
 62
               4
100
AcDbCircle
 10
920.83456220609844
 20
674.79328508642811
 30
0.0
 40
1.0
  0
CIRCLE
  5
55B
100
AcDbEntity
  8
0
  6
Continuous
 62
               4
100
AcDbCircle
 10
920.83456220609844
 20
674.79328508642811
 30
0.0
 40
1.0
  0
CIRCLE
  5
55C
100
AcDbEntity
  8
0
  6
Continuous
 62
               4
100
AcDbCircle
 10
880.83456220609844
 20
674.79328508642811
 30
0.0
 40
1.0
  0
CIRCLE
  5
55D
100
AcDbEntity
  8
0
  6
Continuous
 62
               4
100
AcDbCircle
 10
1392.3345622060988
 20
1125.7932850864281
 30
0.0
 40
14.0
  0
CIRCLE
  5
55E
100
AcDbEntity
  8
0
  6
Continuous
 62
               4
100
AcDbCircle
 10
865.33456220609889
 20
798.79328508642811
 30
0.0
 40
1.0
  0
CIRCLE
  5
55F
100
AcDbEntity
  8
0
  6
Continuous
 62
               4
100
AcDbCircle
 10
871.83456220609844
 20
798.79328508642811
 30
0.0
 40
1.0
  0
CIRCLE
  5
560
100
AcDbEntity
  8
0
  6
Continuous
 62
               4
100
AcDbCircle
 10
921.83456220609844
 20
900.79328508642811
 30
0.0
 40
1.0
  0
CIRCLE
  5
561
100
AcDbEntity
  8
0
  6
Continuous
 62
               4
100
AcDbCircle
 10
942.33456220609889
 20
900.79328508642811
 30
0.0
 40
1.0
  0
CIRCLE
  5
562
100
AcDbEntity
  8
0
  6
Continuous
 62
               4
100
AcDbCircle
 10
766.33456220609901
 20
778.79328508642811
 30
0.0
 40
1.0
  0
CIRCLE
  5
563
100
AcDbEntity
  8
0
  6
Continuous
 62
               4
100
AcDbCircle
 10
766.33456220609901
 20
770.79217382100705
 30
0.0
 40
1.0
  0
CIRCLE
  5
564
100
AcDbEntity
  8
0
  6
Continuous
 62
               4
100
AcDbCircle
 10
780.33456220609901
 20
770.79217382100705
 30
0.0
 40
1.0
  0
CIRCLE
  5
565
100
AcDbEntity
  8
0
  6
Continuous
 62
               4
100
AcDbCircle
 10
780.33456220609901
 20
750.79217382100705
 30
0.0
 40
1.0
  0
CIRCLE
  5
566
100
AcDbEntity
  8
0
  6
Continuous
 62
               4
100
AcDbCircle
 10
766.33456220609889
 20
770.79217382100705
 30
0.0
 40
1.0
  0
CIRCLE
  5
567
100
AcDbEntity
  8
0
  6
Continuous
 62
               4
100
AcDbCircle
 10
766.33456220609889
 20
501.79328508642777
 30
0.0
 40
1.0
  0
CIRCLE
  5
568
100
AcDbEntity
  8
0
  6
Continuous
 62
               4
100
AcDbCircle
 10
780.33456220609889
 20
501.79328508642777
 30
0.0
 40
1.0
  0
CIRCLE
  5
569
100
AcDbEntity
  8
0
  6
Continuous
 62
               4
100
AcDbCircle
 10
780.33456220609889
 20
521.79328508642777
 30
0.0
 40
1.0
  0
CIRCLE
  5
56A
100
AcDbEntity
  8
0
  6
Continuous
 62
               4
100
AcDbCircle
 10
780.33456220609889
 20
521.79328508642777
 30
0.0
 40
1.0
  0
CIRCLE
  5
56B
100
AcDbEntity
  8
0
  6
Continuous
 62
               4
100
AcDbCircle
 10
780.33456220609889
 20
750.79217382100705
 30
0.0
 40
1.0
  0
CIRCLE
  5
56C
100
AcDbEntity
  8
0
  6
Continuous
 62
               4
100
AcDbCircle
 10
808.33456220609889
 20
511.793285086428
 30
0.0
 40
1.0
  0
CIRCLE
  5
56D
100
AcDbEntity
  8
0
  6
Continuous
 62
               4
100
AcDbCircle
 10
808.33456220609889
 20
496.79328508642777
 30
0.0
 40
1.0
  0
CIRCLE
  5
56E
100
AcDbEntity
  8
0
  6
Continuous
 62
               4
100
AcDbCircle
 10
808.33456220609889
 20
496.79328508642777
 30
0.0
 40
1.0
  0
CIRCLE
  5
56F
100
AcDbEntity
  8
0
  6
Continuous
 62
               4
100
AcDbCircle
 10
808.33456220609889
 20
478.79328508642777
 30
0.0
 40
1.0
  0
CIRCLE
  5
570
100
AcDbEntity
  8
0
  6
Continuous
 62
               4
100
AcDbCircle
 10
808.33456220609889
 20
478.79328508642777
 30
0.0
 40
1.0
  0
CIRCLE
  5
571
100
AcDbEntity
  8
0
  6
Continuous
 62
               4
100
AcDbCircle
 10
808.33456220609889
 20
463.793285086428
 30
0.0
 40
1.0
  0
CIRCLE
  5
572
100
AcDbEntity
  8
0
  6
Continuous
 62
               4
100
AcDbCircle
 10
808.33456220609889
 20
463.793285086428
 30
0.0
 40
1.0
  0
CIRCLE
  5
573
100
AcDbEntity
  8
0
  6
Continuous
 62
               4
100
AcDbCircle
 10
808.33456220609889
 20
453.79328508642777
 30
0.0
 40
1.0
  0
CIRCLE
  5
574
100
AcDbEntity
  8
0
  6
Continuous
 62
               4
100
AcDbCircle
 10
871.83456220609844
 20
798.79328508642811
 30
0.0
 40
1.0
  0
CIRCLE
  5
575
100
AcDbEntity
  8
0
  6
Continuous
 62
               4
100
AcDbCircle
 10
906.83456220609844
 20
798.79328508642811
 30
0.0
 40
1.0
  0
CIRCLE
  5
576
100
AcDbEntity
  8
0
  6
Continuous
 62
               4
100
AcDbCircle
 10
822.33456220609889
 20
287.793285086428
 30
0.0
 40
1.0
  0
CIRCLE
  5
577
100
AcDbEntity
  8
0
  6
Continuous
 62
               4
100
AcDbCircle
 10
837.33456220609889
 20
287.793285086428
 30
0.0
 40
1.0
  0
CIRCLE
  5
578
100
AcDbEntity
  8
0
  6
Continuous
 62
               4
100
AcDbCircle
 10
837.33456220609889
 20
287.793285086428
 30
0.0
 40
1.0
  0
CIRCLE
  5
579
100
AcDbEntity
  8
0
  6
Continuous
 62
               4
100
AcDbCircle
 10
1012.3345622060989
 20
287.793285086428
 30
0.0
 40
1.0
  0
CIRCLE
  5
57A
100
AcDbEntity
  8
0
  6
Continuous
 62
               4
100
AcDbCircle
 10
837.33456220609889
 20
301.793285086428
 30
0.0
 40
1.0
  0
CIRCLE
  5
57B
100
AcDbEntity
  8
0
  6
Continuous
 62
               4
100
AcDbCircle
 10
892.33456220609889
 20
301.793285086428
 30
0.0
 40
1.0
  0
CIRCLE
  5
57C
100
AcDbEntity
  8
0
  6
Continuous
 62
               4
100
AcDbCircle
 10
892.33456220609889
 20
301.793285086428
 30
0.0
 40
1.0
  0
CIRCLE
  5
57D
100
AcDbEntity
  8
0
  6
Continuous
 62
               4
100
AcDbCircle
 10
1012.3345622060989
 20
301.793285086428
 30
0.0
 40
1.0
  0
CIRCLE
  5
57E
100
AcDbEntity
  8
0
  6
Continuous
 62
               4
100
AcDbCircle
 10
1012.3345622060989
 20
315.793285086428
 30
0.0
 40
1.0
  0
CIRCLE
  5
57F
100
AcDbEntity
  8
0
  6
Continuous
 62
               4
100
AcDbCircle
 10
937.33456220609889
 20
315.793285086428
 30
0.0
 40
1.0
  0
CIRCLE
  5
580
100
AcDbEntity
  8
0
  6
Continuous
 62
               4
100
AcDbCircle
 10
937.33456220609889
 20
315.793285086428
 30
0.0
 40
1.0
  0
CIRCLE
  5
581
100
AcDbEntity
  8
0
  6
Continuous
 62
               4
100
AcDbCircle
 10
892.33456220609889
 20
315.793285086428
 30
0.0
 40
1.0
  0
CIRCLE
  5
582
100
AcDbEntity
  8
0
  6
Continuous
 62
               4
100
AcDbCircle
 10
780.33456220609889
 20
453.79328508642777
 30
0.0
 40
1.0
  0
CIRCLE
  5
583
100
AcDbEntity
  8
0
  6
Continuous
 62
               4
100
AcDbCircle
 10
780.33456220609889
 20
438.80274153448352
 30
0.0
 40
1.0
  0
CIRCLE
  5
584
100
AcDbEntity
  8
0
  6
Continuous
 62
               4
100
AcDbCircle
 10
780.33456220609889
 20
438.80274153448352
 30
0.0
 40
1.0
  0
CIRCLE
  5
585
100
AcDbEntity
  8
0
  6
Continuous
 62
               4
100
AcDbCircle
 10
780.33456220609889
 20
373.79328508642789
 30
0.0
 40
1.0
  0
CIRCLE
  5
586
100
AcDbEntity
  8
0
  6
Continuous
 62
               4
100
AcDbCircle
 10
780.33456220609889
 20
498.793285086428
 30
0.0
 40
1.0
  0
CIRCLE
  5
587
100
AcDbEntity
  8
0
  6
Continuous
 62
               4
100
AcDbCircle
 10
780.33456220609889
 20
453.79328508642777
 30
0.0
 40
1.0
  0
CIRCLE
  5
588
100
AcDbEntity
  8
0
  6
Continuous
 62
               4
100
AcDbCircle
 10
766.33456220609889
 20
498.793285086428
 30
0.0
 40
1.0
  0
CIRCLE
  5
589
100
AcDbEntity
  8
0
  6
Continuous
 62
               4
100
AcDbCircle
 10
766.33456220609889
 20
373.79328508642789
 30
0.0
 40
1.0
  0
CIRCLE
  5
58A
100
AcDbEntity
  8
0
  6
Continuous
 62
               4
100
AcDbCircle
 10
766.33456220609889
 20
373.79328508642789
 30
0.0
 40
1.0
  0
CIRCLE
  5
58B
100
AcDbEntity
  8
0
  6
Continuous
 62
               4
100
AcDbCircle
 10
766.33456220609889
 20
358.79328508642789
 30
0.0
 40
1.0
  0
CIRCLE
  5
58C
100
AcDbEntity
  8
0
  6
Continuous
 62
               4
100
AcDbCircle
 10
766.33456220609889
 20
498.793285086428
 30
0.0
 40
1.0
  0
CIRCLE
  5
58D
100
AcDbEntity
  8
0
  6
Continuous
 62
               4
100
AcDbCircle
 10
766.33456220609889
 20
501.79328508642777
 30
0.0
 40
1.0
  0
CIRCLE
  5
58E
100
AcDbEntity
  8
0
  6
Continuous
 62
               4
100
AcDbCircle
 10
836.33456220609889
 20
501.79328508642777
 30
0.0
 40
1.0
  0
CIRCLE
  5
58F
100
AcDbEntity
  8
0
  6
Continuous
 62
               4
100
AcDbCircle
 10
836.33456220609889
 20
498.793285086428
 30
0.0
 40
1.0
  0
CIRCLE
  5
590
100
AcDbEntity
  8
0
  6
Continuous
 62
               4
100
AcDbCircle
 10
822.33456220609889
 20
387.79328508642789
 30
0.0
 40
1.0
  0
CIRCLE
  5
591
100
AcDbEntity
  8
0
  6
Continuous
 62
               4
100
AcDbCircle
 10
939.33456220609889
 20
387.79328508642789
 30
0.0
 40
1.0
  0
CIRCLE
  5
592
100
AcDbEntity
  8
0
  6
Continuous
 62
               4
100
AcDbCircle
 10
862.83456220609844
 20
674.79328508642811
 30
0.0
 40
1.0
  0
CIRCLE
  5
593
100
AcDbEntity
  8
0
  6
Continuous
 62
               4
100
AcDbCircle
 10
842.83456220609844
 20
674.79328508642811
 30
0.0
 40
1.0
  0
CIRCLE
  5
594
100
AcDbEntity
  8
0
  6
Continuous
 62
               4
100
AcDbCircle
 10
942.33456220609889
 20
591.79328508642789
 30
0.0
 40
1.0
  0
CIRCLE
  5
595
100
AcDbEntity
  8
0
  6
Continuous
 62
               4
100
AcDbCircle
 10
842.83456220609844
 20
591.79328508642789
 30
0.0
 40
1.0
  0
CIRCLE
  5
596
100
AcDbEntity
  8
0
  6
Continuous
 62
               4
100
AcDbCircle
 10
864.83456220609844
 20
710.79217382100705
 30
0.0
 40
1.0
  0
CIRCLE
  5
597
100
AcDbEntity
  8
0
  6
Continuous
 62
               4
100
AcDbCircle
 10
862.83456220609844
 20
710.79217382100705
 30
0.0
 40
1.0
  0
CIRCLE
  5
598
100
AcDbEntity
  8
0
  6
Continuous
 62
               4
100
AcDbCircle
 10
921.83456220609844
 20
401.79328508642789
 30
0.0
 40
1.0
  0
CIRCLE
  5
599
100
AcDbEntity
  8
0
  6
Continuous
 62
               4
100
AcDbCircle
 10
942.33456220609889
 20
401.79328508642789
 30
0.0
 40
1.0
  0
CIRCLE
  5
59A
100
AcDbEntity
  8
0
  6
Continuous
 62
               4
100
AcDbCircle
 10
991.83456220609844
 20
551.793285086428
 30
0.0
 40
1.0
  0
CIRCLE
  5
59B
100
AcDbEntity
  8
0
  6
Continuous
 62
               4
100
AcDbCircle
 10
971.83456220609844
 20
551.793285086428
 30
0.0
 40
1.0
  0
CIRCLE
  5
59C
100
AcDbEntity
  8
0
  6
Continuous
 62
               4
100
AcDbCircle
 10
971.83456220609844
 20
551.793285086428
 30
0.0
 40
1.0
  0
CIRCLE
  5
59D
100
AcDbEntity
  8
0
  6
Continuous
 62
               4
100
AcDbCircle
 10
871.83456220609844
 20
551.793285086428
 30
0.0
 40
1.0
  0
CIRCLE
  5
59E
100
AcDbEntity
  8
0
  6
Continuous
 62
               4
100
AcDbCircle
 10
871.83456220609844
 20
551.793285086428
 30
0.0
 40
1.0
  0
CIRCLE
  5
59F
100
AcDbEntity
  8
0
  6
Continuous
 62
               4
100
AcDbCircle
 10
822.33456220609889
 20
551.793285086428
 30
0.0
 40
1.0
  0
CIRCLE
  5
5A0
100
AcDbEntity
  8
0
  6
Continuous
 62
               4
100
AcDbCircle
 10
865.83456220609844
 20
674.79328508642811
 30
0.0
 40
1.0
  0
CIRCLE
  5
5A1
100
AcDbEntity
  8
0
  6
Continuous
 62
               4
100
AcDbCircle
 10
880.83456220609844
 20
674.79328508642811
 30
0.0
 40
1.0
  0
CIRCLE
  5
5A2
100
AcDbEntity
  8
0
  6
Continuous
 62
               4
100
AcDbCircle
 10
822.33456220609889
 20
808.79328508642811
 30
0.0
 40
1.0
  0
CIRCLE
  5
5A3
100
AcDbEntity
  8
0
  6
Continuous
 62
               4
100
AcDbCircle
 10
822.33456220609889
 20
805.51772334526595
 30
0.0
 40
1.0
  0
CIRCLE
  5
5A4
100
AcDbEntity
  8
0
  6
Continuous
 62
               4
100
AcDbCircle
 10
822.33456220609889
 20
805.51772334526595
 30
0.0
 40
1.0
  0
CIRCLE
  5
5A5
100
AcDbEntity
  8
0
  6
Continuous
 62
               4
100
AcDbCircle
 10
822.33456220609889
 20
778.79328508642811
 30
0.0
 40
1.0
  0
CIRCLE
  5
5A6
100
AcDbEntity
  8
0
  6
Continuous
 62
               4
100
AcDbCircle
 10
841.83456220609889
 20
784.79328508642811
 30
0.0
 40
1.0
  0
CIRCLE
  5
5A7
100
AcDbEntity
  8
0
  6
Continuous
 62
               4
100
AcDbCircle
 10
871.83456220609844
 20
784.79328508642811
 30
0.0
 40
1.0
  0
ARC
  5
5A8
100
AcDbEntity
  8
0
  6
Continuous
 62
               6
100
AcDbCircle
 10
937.33456220609889
 20
854.79328508642811
 30
0.0
 40
4.0
100
AcDbArc
 50
90.000000000000028
 51
180.0
  0
ARC
  5
5A9
100
AcDbEntity
  8
0
  6
Continuous
 62
               6
100
AcDbCircle
 10
996.33456220609889
 20
913.79328508642811
 30
0.0
 40
4.0
100
AcDbArc
 50
90.000000000000028
 51
180.0
  0
ARC
  5
5AA
100
AcDbEntity
  8
0
  6
Continuous
 62
               6
100
AcDbCircle
 10
983.83456220609889
 20
867.29328508642811
 30
0.0
 40
8.5
100
AcDbArc
 50
270.0
 51
0.0
  0
ARC
  5
5AB
100
AcDbEntity
  8
0
  6
Continuous
 62
               2
100
AcDbCircle
 10
862.83456220609889
 20
823.79328508642811
 30
0.0
 40
0.5
100
AcDbArc
 50
180.0
 51
0.0
  0
ARC
  5
5AC
100
AcDbEntity
  8
0
  6
Continuous
 62
               2
100
AcDbCircle
 10
863.83456220609889
 20
922.79328508642811
 30
0.0
 40
0.5
100
AcDbArc
 50
0.0
 51
180.0
  0
ARC
  5
5AD
100
AcDbEntity
  8
0
  6
DASHED
 62
               6
100
AcDbCircle
 10
962.52082546113468
 20
846.04328508642811
 30
0.0
 40
2.8125
100
AcDbArc
 50
306.86989764584399
 51
53.130102354155987
  0
ARC
  5
5AE
100
AcDbEntity
  8
0
  6
DASHED
 62
               6
100
AcDbCircle
 10
962.52082546113468
 20
850.54328508642811
 30
0.0
 40
2.8125
100
AcDbArc
 50
306.86989764584399
 51
53.130102354155987
  0
ARC
  5
5AF
100
AcDbEntity
  8
0
  6
DASHED
 62
               6
100
AcDbCircle
 10
965.89582546113468
 20
850.54328508642811
 30
0.0
 40
2.8125
100
AcDbArc
 50
126.86989764584391
 51
233.13010235415604
  0
ARC
  5
5B0
100
AcDbEntity
  8
0
  6
Continuous
 62
               6
100
AcDbCircle
 10
888.33456220609844
 20
822.79328508642811
 30
0.0
 40
1.0
100
AcDbArc
 50
0.0
 51
90.000000000000028
  0
ARC
  5
5B1
100
AcDbEntity
  8
0
  6
Continuous
 62
               6
100
AcDbCircle
 10
883.33456220609867
 20
822.79328508642811
 30
0.0
 40
1.000000000000085
100
AcDbArc
 50
90.000000000000028
 51
180.0
  0
ARC
  5
5B2
100
AcDbEntity
  8
0
  6
Continuous
 62
               6
100
AcDbCircle
 10
903.83456220609844
 20
822.79328508642789
 30
0.0
 40
1.0000000000001139
100
AcDbArc
 50
0.0
 51
90.000000000000028
  0
ARC
  5
5B3
100
AcDbEntity
  8
0
  6
Continuous
 62
               6
100
AcDbCircle
 10
900.59456220609866
 20
822.79328508642811
 30
0.0
 40
0.999999999999915
100
AcDbArc
 50
90.000000000000028
 51
180.0
  0
ARC
  5
5B4
100
AcDbEntity
  8
0
  6
Continuous
 62
               6
100
AcDbCircle
 10
923.54962740399435
 20
346.204100734284
 30
0.0
 40
11.45412336212576
100
AcDbArc
 50
17.442103379545035
 51
96.089452858006396
  0
ARC
  5
5B5
100
AcDbEntity
  8
0
  6
Continuous
 62
               6
100
AcDbCircle
 10
913.33456220609889
 20
372.793285086428
 30
0.0
 40
0.999999999999886
100
AcDbArc
 50
90.000000000000028
 51
180.0
  0
ARC
  5
5B6
100
AcDbEntity
  8
0
  6
Continuous
 62
               6
100
AcDbCircle
 10
913.15567676789954
 20
356.94110034880009
 30
0.0
 40
1.0000000000003979
100
AcDbArc
 50
180.0
 51
280.30484646873958
  0
ARC
  5
5B7
100
AcDbEntity
  8
0
  6
Continuous
 62
               6
100
AcDbCircle
 10
936.33456220609889
 20
372.79328508642789
 30
0.0
 40
1.0
100
AcDbArc
 50
0.0
 51
90.000000000000028
  0
ARC
  5
5B8
100
AcDbEntity
  8
0
  6
Continuous
 62
               6
100
AcDbCircle
 10
936.33456220609844
 20
361.15544315574562
 30
0.0
 40
1.0000000000006479
100
AcDbArc
 50
280.30484646879569
 51
0.0
  0
ARC
  5
5B9
100
AcDbEntity
  8
0
  6
Continuous
 62
               6
100
AcDbCircle
 10
902.33456220609889
 20
372.793285086428
 30
0.0
 40
1.0
100
AcDbArc
 50
0.0
 51
90.000000000000028
  0
ARC
  5
5BA
100
AcDbEntity
  8
0
  6
Continuous
 62
               6
100
AcDbCircle
 10
902.33456220609889
 20
354.95723043869975
 30
0.0
 40
1.0
100
AcDbArc
 50
270.0
 51
0.0
  0
ARC
  5
5BB
100
AcDbEntity
  8
0
  6
Continuous
 62
               7
100
AcDbCircle
 10
904.83456220609889
 20
457.27225278852188
 30
0.0
 40
2.6000000000000232
100
AcDbArc
 50
180.0
 51
270.0
  0
ARC
  5
5BC
100
AcDbEntity
  8
0
  6
Continuous
 62
               7
100
AcDbCircle
 10
904.83456220609889
 20
460.07225278852184
 30
0.0
 40
2.60000000000008
100
AcDbArc
 50
90.000000000000028
 51
180.0
  0
ARC
  5
5BD
100
AcDbEntity
  8
0
  6
Continuous
 62
               7
100
AcDbCircle
 10
937.33456220609889
 20
364.81315097377183
 30
0.0
 40
2.5999999999999659
100
AcDbArc
 50
180.0
 51
270.0
  0
ARC
  5
5BE
100
AcDbEntity
  8
0
  6
Continuous
 62
               7
100
AcDbCircle
 10
937.33456220609889
 20
367.61315097377189
 30
0.0
 40
2.6000000000000232
100
AcDbArc
 50
90.000000000000028
 51
180.0
  0
ARC
  5
5BF
100
AcDbEntity
  8
0
  6
Continuous
 62
               6
100
AcDbCircle
 10
903.83456220609935
 20
454.67225278852152
 30
0.0
 40
0.999999999999636
100
AcDbArc
 50
280.29848904965769
 51
0.0
  0
ARC
  5
5C0
100
AcDbEntity
  8
0
  6
Continuous
 62
               6
100
AcDbCircle
 10
903.83456220609844
 20
462.79328508642777
 30
0.0
 40
1.000000000000085
100
AcDbArc
 50
0.0
 51
90.000000000000028
  0
ARC
  5
5C1
100
AcDbEntity
  8
0
  6
Continuous
 62
               6
100
AcDbCircle
 10
884.61993635575902
 20
451.13658967861898
 30
0.0
 40
1.0
100
AcDbArc
 50
180.0
 51
280.29848904967201
  0
ARC
  5
5C2
100
AcDbEntity
  8
0
  6
Continuous
 62
               6
100
AcDbCircle
 10
884.61993635575902
 20
462.793285086428
 30
0.0
 40
1.0
100
AcDbArc
 50
90.000000000000028
 51
180.0
  0
ARC
  5
5C3
100
AcDbEntity
  8
0
  6
DASHED
 62
               6
100
AcDbCircle
 10
1014.9703950322877
 20
347.81932537765056
 30
0.0
 40
2.8125000000000111
100
AcDbArc
 50
246.2208032279469
 51
352.48100793625639
  0
ARC
  5
5C4
100
AcDbEntity
  8
0
  6
DASHED
 62
               6
100
AcDbCircle
 10
1018.8927486022504
 20
350.02503217416756
 30
0.0
 40
2.812499999999988
100
AcDbArc
 50
246.22080322794812
 51
352.48100793625872
  0
ARC
  5
5C5
100
AcDbEntity
  8
0
  6
DASHED
 62
               6
100
AcDbCircle
 10
1020.5470286996384
 20
347.08326699669556
 30
0.0
 40
2.8125000000000111
100
AcDbArc
 50
66.220803227946874
 51
172.48100793625858
  0
ARC
  5
5C6
100
AcDbEntity
  8
0
  6
Continuous
 62
               6
100
AcDbCircle
 10
850.33456220609889
 20
372.79328508642766
 30
0.0
 40
1.0000000000002269
100
AcDbArc
 50
90.000000000000028
 51
180.0
  0
ARC
  5
5C7
100
AcDbEntity
  8
0
  6
Continuous
 62
               6
100
AcDbCircle
 10
850.33456220609844
 20
359.793285086428
 30
0.0
 40
1.0
100
AcDbArc
 50
180.0
 51
270.0
  0
ARC
  5
5C8
100
AcDbEntity
  8
0
  6
Continuous
 62
               6
100
AcDbCircle
 10
856.33456220609844
 20
372.79328508642811
 30
0.0
 40
0.999999999999716
100
AcDbArc
 50
0.0
 51
90.000000000000028
  0
ARC
  5
5C9
100
AcDbEntity
  8
0
  6
Continuous
 62
               6
100
AcDbCircle
 10
856.33456220609844
 20
359.79328508642766
 30
0.0
 40
0.9999999999996591
100
AcDbArc
 50
270.0
 51
0.0
  0
ARC
  5
5CA
100
AcDbEntity
  8
0
  6
Continuous
 62
               6
100
AcDbCircle
 10
837.33456220609889
 20
372.79328508642789
 30
0.0
 40
1.0
100
AcDbArc
 50
0.0
 51
90.000000000000028
  0
ARC
  5
5CB
100
AcDbEntity
  8
0
  6
Continuous
 62
               6
100
AcDbCircle
 10
837.33456220609912
 20
359.793285086428
 30
0.0
 40
1.0000000000001139
100
AcDbArc
 50
270.0
 51
0.0
  0
ARC
  5
5CC
100
AcDbEntity
  8
0
  6
Continuous
 62
               7
100
AcDbCircle
 10
973.63456220609817
 20
493.28942157712788
 30
0.0
 40
2.5999999999999659
100
AcDbArc
 50
0.0
 51
90.000000000000028
  0
ARC
  5
5CD
100
AcDbEntity
  8
0
  6
Continuous
 62
               7
100
AcDbCircle
 10
973.63456220609817
 20
491.48942157712781
 30
0.0
 40
2.5999999999999659
100
AcDbArc
 50
270.0
 51
0.0
  0
ARC
  5
5CE
100
AcDbEntity
  8
0
  6
Continuous
 62
               7
100
AcDbCircle
 10
973.63456220609817
 20
494.79328508642766
 30
0.0
 40
0.299999999999898
100
AcDbArc
 50
90.000000000000028
 51
270.0
  0
ARC
  5
5CF
100
AcDbEntity
  8
0
  6
Continuous
 62
               7
100
AcDbCircle
 10
973.63456220609817
 20
484.79328508642766
 30
0.0
 40
0.299999999999898
100
AcDbArc
 50
90.000000000000028
 51
270.0
  0
ARC
  5
5D0
100
AcDbEntity
  8
0
  6
Continuous
 62
               7
100
AcDbCircle
 10
973.63456220609817
 20
479.79328508642766
 30
0.0
 40
0.299999999999898
100
AcDbArc
 50
90.000000000000028
 51
270.0
  0
ARC
  5
5D1
100
AcDbEntity
  8
0
  6
Continuous
 62
               7
100
AcDbCircle
 10
978.83456220609844
 20
505.29328508642766
 30
0.0
 40
3.3999999999996882
100
AcDbArc
 50
206.17896870401512
 51
216.03187907247519
  0
ARC
  5
5D2
100
AcDbEntity
  8
0
  6
Continuous
 62
               7
100
AcDbCircle
 10
977.48344786958535
 20
503.63348376410272
 30
0.0
 40
0.340198677675005
100
AcDbArc
 50
270.0
 51
50.853661991068918
  0
ARC
  5
5D3
100
AcDbEntity
  8
0
  6
Continuous
 62
               7
100
AcDbCircle
 10
978.83456220609844
 20
505.29328508642766
 30
0.0
 40
1.800000000000209
100
AcDbArc
 50
309.14633800886998
 51
230.85366199115086
  0
ARC
  5
5D4
100
AcDbEntity
  8
0
  6
Continuous
 62
               7
100
AcDbCircle
 10
980.1856765426113
 20
503.63348376410272
 30
0.0
 40
0.340198677674927
100
AcDbArc
 50
129.14633800878994
 51
270.0
  0
ARC
  5
5D5
100
AcDbEntity
  8
0
  6
Continuous
 62
               7
100
AcDbCircle
 10
978.83456220609844
 20
505.29328508642766
 30
0.0
 40
3.4000000000003099
100
AcDbArc
 50
323.96812092753328
 51
22.619864948036064
  0
ARC
  5
5D6
100
AcDbEntity
  8
0
  6
Continuous
 62
               7
100
AcDbCircle
 10
966.33456220609844
 20
813.79328508642811
 30
0.0
 40
0.299999999999898
100
AcDbArc
 50
180.0
 51
0.0
  0
ARC
  5
5D7
100
AcDbEntity
  8
0
  6
Continuous
 62
               7
100
AcDbCircle
 10
906.83456220609844
 20
818.79328508642811
 30
0.0
 40
0.300000000000097
100
AcDbArc
 50
270.0
 51
90.0
  0
ARC
  5
5D8
100
AcDbEntity
  8
0
  6
Continuous
 62
               7
100
AcDbCircle
 10
874.93456220609858
 20
780.79328508642811
 30
0.0
 40
3.0
100
AcDbArc
 50
0.0
 51
90.000000000000028
  0
ARC
  5
5D9
100
AcDbEntity
  8
0
  6
Continuous
 62
               7
100
AcDbCircle
 10
875.03456220609871
 20
780.79328508642811
 30
0.0
 40
1.0000000000000451
100
AcDbArc
 50
281.5369590328142
 51
90.0
  0
ARC
  5
5DA
100
AcDbEntity
  8
0
  6
Continuous
 62
               7
100
AcDbCircle
 10
885.83456220609844
 20
782.79328508642811
 30
0.0
 40
1.749999999999978
100
AcDbArc
 50
15.358885580820077
 51
49.815900051174914
  0
ARC
  5
5DB
100
AcDbEntity
  8
0
  6
Continuous
 62
               7
100
AcDbCircle
 10
887.20627735150208
 20
784.41740476107748
 30
0.0
 40
0.375880325350636
100
AcDbArc
 50
90.000000000000028
 51
229.8159000511742
  0
ARC
  5
5DC
100
AcDbEntity
  8
0
  6
Continuous
 62
               7
100
AcDbCircle
 10
885.83456220609844
 20
782.79328508642811
 30
0.0
 40
1.7500000000000171
100
AcDbArc
 50
130.18409994882714
 51
164.64111441917993
  0
ARC
  5
5DD
100
AcDbEntity
  8
0
  6
Continuous
 62
               7
100
AcDbCircle
 10
884.46284706069503
 20
784.41740476107748
 30
0.0
 40
0.375880325350519
100
AcDbArc
 50
310.18409994881591
 51
90.0
  0
ARC
  5
5DE
100
AcDbEntity
  8
0
  6
Continuous
 62
               7
100
AcDbCircle
 10
884.33456220609844
 20
782.79328508642811
 30
0.0
 40
0.499999999999923
100
AcDbArc
 50
112.02431283704563
 51
247.97568716295922
  0
ARC
  5
5DF
100
AcDbEntity
  8
0
  6
Continuous
 62
               7
100
AcDbCircle
 10
885.83456220609844
 20
782.79328508642811
 30
0.0
 40
1.750000000000008
100
AcDbArc
 50
195.35888558082374
 51
224.64111441917834
  0
ARC
  5
5E0
100
AcDbEntity
  8
0
  6
Continuous
 62
               7
100
AcDbCircle
 10
885.08456220609844
 20
781.49424698075131
 30
0.0
 40
0.499999999999912
100
AcDbArc
 50
172.02431283703453
 51
307.97568716295689
  0
ARC
  5
5E1
100
AcDbEntity
  8
0
  6
Continuous
 62
               7
100
AcDbCircle
 10
885.83456220609844
 20
782.79328508642811
 30
0.0
 40
1.7500000000001319
100
AcDbArc
 50
255.35888558082164
 51
284.64111441917657
  0
ARC
  5
5E2
100
AcDbEntity
  8
0
  6
Continuous
 62
               7
100
AcDbCircle
 10
886.58456220609844
 20
781.49424698075131
 30
0.0
 40
0.499999999999967
100
AcDbArc
 50
232.0243128370532
 51
7.9756871629637152
  0
ARC
  5
5E3
100
AcDbEntity
  8
0
  6
Continuous
 62
               7
100
AcDbCircle
 10
885.83456220609844
 20
782.79328508642811
 30
0.0
 40
1.7499999999999729
100
AcDbArc
 50
315.35888558082041
 51
344.64111441917549
  0
ARC
  5
5E4
100
AcDbEntity
  8
0
  6
Continuous
 62
               7
100
AcDbCircle
 10
887.33456220609844
 20
782.79328508642811
 30
0.0
 40
0.500000000000028
100
AcDbArc
 50
292.02431283704078
 51
67.975687162945178
  0
ARC
  5
5E5
100
AcDbEntity
  8
0
  6
Continuous
 62
               7
100
AcDbCircle
 10
885.83456220609844
 20
782.79328508642811
 30
0.0
 40
3.3999999999999861
100
AcDbArc
 50
334.1575871262956
 51
36.031879072471433
  0
ARC
  5
5E6
100
AcDbEntity
  8
0
  6
Continuous
 62
               7
100
AcDbCircle
 10
885.83456220609844
 20
782.79328508642811
 30
0.0
 40
3.3999999999999222
100
AcDbArc
 50
143.96812092753069
 51
205.84241287370443
  0
ARC
  5
5E7
100
AcDbEntity
  8
0
  6
Continuous
 62
               7
100
AcDbCircle
 10
953.83456220609844
 20
782.79328508642811
 30
0.0
 40
1.750000000000008
100
AcDbArc
 50
15.35888558082363
 51
49.815900051173941
  0
ARC
  5
5E8
100
AcDbEntity
  8
0
  6
Continuous
 62
               7
100
AcDbCircle
 10
955.20627735150208
 20
784.41740476107748
 30
0.0
 40
0.375880325350522
100
AcDbArc
 50
90.000000000000028
 51
229.81590005117312
  0
ARC
  5
5E9
100
AcDbEntity
  8
0
  6
Continuous
 62
               7
100
AcDbCircle
 10
953.83456220609844
 20
782.79328508642811
 30
0.0
 40
1.749999999999913
100
AcDbArc
 50
130.18409994882037
 51
164.64111441917632
  0
ARC
  5
5EA
100
AcDbEntity
  8
0
  6
Continuous
 62
               7
100
AcDbCircle
 10
952.46284706069503
 20
784.41740476107748
 30
0.0
 40
0.375880325350617
100
AcDbArc
 50
310.18409994882029
 51
90.0
  0
ARC
  5
5EB
100
AcDbEntity
  8
0
  6
Continuous
 62
               7
100
AcDbCircle
 10
952.33456220609844
 20
782.79328508642811
 30
0.0
 40
0.500000000000028
100
AcDbArc
 50
112.02431283704081
 51
247.97568716295427
  0
ARC
  5
5EC
100
AcDbEntity
  8
0
  6
Continuous
 62
               7
100
AcDbCircle
 10
953.83456220609844
 20
782.79328508642811
 30
0.0
 40
1.749999999999978
100
AcDbArc
 50
195.35888558082013
 51
224.64111441918021
  0
ARC
  5
5ED
100
AcDbEntity
  8
0
  6
Continuous
 62
               7
100
AcDbCircle
 10
953.08456220609844
 20
781.49424698075131
 30
0.0
 40
0.499999999999904
100
AcDbArc
 50
172.02431283704098
 51
307.97568716297138
  0
ARC
  5
5EE
100
AcDbEntity
  8
0
  6
Continuous
 62
               7
100
AcDbCircle
 10
953.83456220609844
 20
782.79328508642811
 30
0.0
 40
1.7499999999999709
100
AcDbArc
 50
255.35888558082692
 51
284.64111441918033
  0
ARC
  5
5EF
100
AcDbEntity
  8
0
  6
Continuous
 62
               7
100
AcDbCircle
 10
954.58456220609844
 20
781.49424698075131
 30
0.0
 40
0.499999999999922
100
AcDbArc
 50
232.02431283704919
 51
7.9756871629554205
  0
ARC
  5
5F0
100
AcDbEntity
  8
0
  6
Continuous
 62
               7
100
AcDbCircle
 10
953.83456220609844
 20
782.79328508642811
 30
0.0
 40
1.750000000000115
100
AcDbArc
 50
315.3588855808249
 51
344.64111441917993
  0
ARC
  5
5F1
100
AcDbEntity
  8
0
  6
Continuous
 62
               7
100
AcDbCircle
 10
955.33456220609844
 20
782.79328508642811
 30
0.0
 40
0.499999999999923
100
AcDbArc
 50
292.02431283704573
 51
67.975687162959062
  0
ARC
  5
5F2
100
AcDbEntity
  8
0
  6
Continuous
 62
               7
100
AcDbCircle
 10
953.83456220609844
 20
782.79328508642811
 30
0.0
 40
3.400000000000043
100
AcDbArc
 50
319.67978493003022
 51
36.0318790724696
  0
ARC
  5
5F3
100
AcDbEntity
  8
0
  6
Continuous
 62
               6
100
AcDbCircle
 10
928.92991272875781
 20
769.79328635492811
 30
0.0
 40
1.0000000000000779
100
AcDbArc
 50
36.444427205078242
 51
90.000052087070927
  0
ARC
  5
5F4
100
AcDbEntity
  8
0
  6
Continuous
 62
               6
100
AcDbCircle
 10
923.83459220609859
 20
762.29328508642811
 30
0.0
 40
3.0
100
AcDbArc
 50
180.0
 51
270.0
  0
ARC
  5
5F5
100
AcDbEntity
  8
0
  6
Continuous
 62
               6
100
AcDbCircle
 10
921.83460714805994
 20
770.29327014446676
 30
0.0
 40
1.0000149419612869
100
AcDbArc
 50
359.55705044621942
 51
180.0
  0
ARC
  5
5F6
100
AcDbEntity
  8
0
  6
Continuous
 62
               6
100
AcDbCircle
 10
923.83456220609844
 20
770.29328508642811
 30
0.0
 40
1.0
100
AcDbArc
 50
90.000000000000028
 51
270.0
  0
ARC
  5
5F7
100
AcDbEntity
  8
0
  6
Continuous
 62
               6
100
AcDbCircle
 10
923.83459220609859
 20
762.79328508642811
 30
0.0
 40
1.0
100
AcDbArc
 50
180.0
 51
270.0
  0
ARC
  5
5F8
100
AcDbEntity
  8
0
  6
Continuous
 62
               6
100
AcDbCircle
 10
875.03456220609871
 20
780.79328508642811
 30
0.0
 40
1.0000000000000451
100
AcDbArc
 50
281.5369590328142
 51
90.0
  0
ARC
  5
5F9
100
AcDbEntity
  8
0
  6
Continuous
 62
               7
100
AcDbCircle
 10
900.83456220609844
 20
766.79328508642811
 30
0.0
 40
0.300000000000011
100
AcDbArc
 50
90.000000000000028
 51
180.0
  0
ARC
  5
5FA
100
AcDbEntity
  8
0
  6
Continuous
 62
               7
100
AcDbCircle
 10
881.83456220609844
 20
774.79328508642811
 30
0.0
 40
1.0
100
AcDbArc
 50
0.0
 51
180.0
  0
ARC
  5
5FB
100
AcDbEntity
  8
0
  6
Continuous
 62
               7
100
AcDbCircle
 10
900.83456220609844
 20
766.79328508642811
 30
0.0
 40
0.300000000000011
100
AcDbArc
 50
0.0
 51
90.000000000000028
  0
ARC
  5
5FC
100
AcDbEntity
  8
0
  6
Continuous
 62
               7
100
AcDbCircle
 10
919.83456220609844
 20
774.79328508642811
 30
0.0
 40
0.999999999999886
100
AcDbArc
 50
0.0
 51
180.0
  0
ARC
  5
5FD
100
AcDbEntity
  8
0
  6
Continuous
 62
               6
100
AcDbCircle
 10
923.83456220609844
 20
510.77799841850401
 30
0.0
 40
1.0
100
AcDbArc
 50
90.000000000000028
 51
179.55618769060112
  0
ARC
  5
5FE
100
AcDbEntity
  8
0
  6
Continuous
 62
               6
100
AcDbCircle
 10
923.83459220609859
 20
518.27799841850401
 30
0.0
 40
0.999999999999971
100
AcDbArc
 50
90.001718873394239
 51
180.0
  0
ARC
  5
5FF
100
AcDbEntity
  8
0
  6
Continuous
 62
               6
100
AcDbCircle
 10
923.83456220609844
 20
510.77799841850401
 30
0.0
 40
0.999999999999867
100
AcDbArc
 50
179.55618769060112
 51
270.0
  0
ARC
  5
600
100
AcDbEntity
  8
0
  6
Continuous
 62
               6
100
AcDbCircle
 10
921.83460714805972
 20
510.77801336046537
 30
0.0
 40
1.000014941961183
100
AcDbArc
 50
180.0
 51
0.4429495537771689
  0
ARC
  5
601
100
AcDbEntity
  8
0
  6
Continuous
 62
               6
100
AcDbCircle
 10
923.83459220609859
 20
518.77799841850401
 30
0.0
 40
3.0
100
AcDbArc
 50
90.000000000000028
 51
180.0
  0
ARC
  5
602
100
AcDbEntity
  8
0
  6
Continuous
 62
               6
100
AcDbCircle
 10
928.92991272875781
 20
511.2779971500039
 30
0.0
 40
1.0000000000000151
100
AcDbArc
 50
270.0
 51
323.55557279491768
  0
ARC
  5
603
100
AcDbEntity
  8
0
  6
Continuous
 62
               7
100
AcDbCircle
 10
919.83456220609844
 20
470.793285086428
 30
0.0
 40
0.300000000000011
100
AcDbArc
 50
90.000000000000028
 51
270.0
  0
ARC
  5
604
100
AcDbEntity
  8
0
  6
Continuous
 62
               7
100
AcDbCircle
 10
970.93456220609858
 20
509.69328508642786
 30
0.0
 40
0.900000000000034
100
AcDbArc
 50
180.0
 51
0.0
  0
ARC
  5
605
100
AcDbEntity
  8
0
  6
Continuous
 62
               7
100
AcDbCircle
 10
953.83456220609844
 20
516.793285086428
 30
0.0
 40
3.4000000000000798
100
AcDbArc
 50
323.96812092753032
 51
68.962778743962403
  0
ARC
  5
606
100
AcDbEntity
  8
0
  6
Continuous
 62
               7
100
AcDbCircle
 10
953.83456220609844
 20
516.793285086428
 30
0.0
 40
3.3999999999999648
100
AcDbArc
 50
111.03722125603653
 51
216.03187907247184
  0
ARC
  5
607
100
AcDbEntity
  8
0
  6
Continuous
 62
               7
100
AcDbCircle
 10
952.33456220609844
 20
516.793285086428
 30
0.0
 40
0.499999999999923
100
AcDbArc
 50
112.02431283704563
 51
247.97568716295427
  0
ARC
  5
608
100
AcDbEntity
  8
0
  6
Continuous
 62
               7
100
AcDbCircle
 10
953.83456220609844
 20
516.793285086428
 30
0.0
 40
1.749999999999873
100
AcDbArc
 50
135.3588855808224
 51
164.64111441917993
  0
ARC
  5
609
100
AcDbEntity
  8
0
  6
Continuous
 62
               7
100
AcDbCircle
 10
953.08456220609844
 20
518.09232319210446
 30
0.0
 40
0.500000000000241
100
AcDbArc
 50
52.024312837044747
 51
187.97568716295916
  0
ARC
  5
60A
100
AcDbEntity
  8
0
  6
Continuous
 62
               7
100
AcDbCircle
 10
953.83456220609844
 20
516.793285086428
 30
0.0
 40
1.750000000000139
100
AcDbArc
 50
75.358885580820555
 51
104.64111441917221
  0
ARC
  5
60B
100
AcDbEntity
  8
0
  6
Continuous
 62
               7
100
AcDbCircle
 10
954.58456220609844
 20
518.09232319210446
 30
0.0
 40
0.500000000000129
100
AcDbArc
 50
352.02431283704442
 51
127.97568716293472
  0
ARC
  5
60C
100
AcDbEntity
  8
0
  6
Continuous
 62
               7
100
AcDbCircle
 10
953.83456220609844
 20
516.793285086428
 30
0.0
 40
1.749999999999978
100
AcDbArc
 50
15.358885580820077
 51
44.641114419172318
  0
ARC
  5
60D
100
AcDbEntity
  8
0
  6
Continuous
 62
               7
100
AcDbCircle
 10
955.33456220609844
 20
516.793285086428
 30
0.0
 40
0.499999999999923
100
AcDbArc
 50
292.02431283704573
 51
67.97568716295423
  0
ARC
  5
60E
100
AcDbEntity
  8
0
  6
Continuous
 62
               7
100
AcDbCircle
 10
955.20627735150208
 20
515.16916541177852
 30
0.0
 40
0.375880325350611
100
AcDbArc
 50
130.18409994883254
 51
270.0
  0
ARC
  5
60F
100
AcDbEntity
  8
0
  6
Continuous
 62
               7
100
AcDbCircle
 10
953.83456220609844
 20
516.793285086428
 30
0.0
 40
1.7500000000001039
100
AcDbArc
 50
310.18409994882478
 51
344.64111441917993
  0
ARC
  5
610
100
AcDbEntity
  8
0
  6
Continuous
 62
               7
100
AcDbCircle
 10
952.46284706069503
 20
515.16916541177852
 30
0.0
 40
0.375880325350522
100
AcDbArc
 50
270.0
 51
49.815900051160803
  0
ARC
  5
611
100
AcDbEntity
  8
0
  6
Continuous
 62
               7
100
AcDbCircle
 10
953.83456220609844
 20
516.793285086428
 30
0.0
 40
1.749999999999978
100
AcDbArc
 50
195.35888558082013
 51
229.8159000511809
  0
ARC
  5
612
100
AcDbEntity
  8
0
  6
Continuous
 62
               7
100
AcDbCircle
 10
934.33456220609844
 20
476.79328508642857
 30
0.0
 40
3.4000000000000798
100
AcDbArc
 50
323.96812092753032
 51
68.96277874396317
  0
ARC
  5
613
100
AcDbEntity
  8
0
  6
Continuous
 62
               7
100
AcDbCircle
 10
934.33456220609844
 20
476.79328508642857
 30
0.0
 40
3.400000000000087
100
AcDbArc
 50
105.34947701700533
 51
216.03187907247184
  0
ARC
  5
614
100
AcDbEntity
  8
0
  6
Continuous
 62
               7
100
AcDbCircle
 10
932.83456220609844
 20
476.79328508642857
 30
0.0
 40
0.500000000000028
100
AcDbArc
 50
112.02431283704081
 51
247.97568716295427
  0
ARC
  5
615
100
AcDbEntity
  8
0
  6
Continuous
 62
               7
100
AcDbCircle
 10
934.33456220609844
 20
476.79328508642857
 30
0.0
 40
1.7499999999999529
100
AcDbArc
 50
135.3588855808197
 51
164.64111441917632
  0
ARC
  5
616
100
AcDbEntity
  8
0
  6
Continuous
 62
               7
100
AcDbCircle
 10
933.58456220609844
 20
478.09232319210537
 30
0.0
 40
0.500000000000062
100
AcDbArc
 50
52.024312837028646
 51
187.97568716297198
  0
ARC
  5
617
100
AcDbEntity
  8
0
  6
Continuous
 62
               7
100
AcDbCircle
 10
934.33456220609844
 20
476.79328508642857
 30
0.0
 40
1.750000000000139
100
AcDbArc
 50
75.358885580820555
 51
104.64111441917221
  0
ARC
  5
618
100
AcDbEntity
  8
0
  6
Continuous
 62
               7
100
AcDbCircle
 10
935.08456220609844
 20
478.09232319210537
 30
0.0
 40
0.500000000000145
100
AcDbArc
 50
352.02431283703157
 51
127.97568716295081
  0
ARC
  5
619
100
AcDbEntity
  8
0
  6
Continuous
 62
               7
100
AcDbCircle
 10
934.33456220609844
 20
476.79328508642857
 30
0.0
 40
1.750000000000008
100
AcDbArc
 50
15.35888558082363
 51
44.641114419174954
  0
ARC
  5
61A
100
AcDbEntity
  8
0
  6
Continuous
 62
               7
100
AcDbCircle
 10
935.83456220609844
 20
476.79328508642857
 30
0.0
 40
0.499999999999923
100
AcDbArc
 50
292.02431283704573
 51
67.975687162959062
  0
ARC
  5
61B
100
AcDbEntity
  8
0
  6
Continuous
 62
               7
100
AcDbCircle
 10
935.70627735150208
 20
475.16916541177932
 30
0.0
 40
0.375880325350611
100
AcDbArc
 50
130.18409994883254
 51
270.0
  0
ARC
  5
61C
100
AcDbEntity
  8
0
  6
Continuous
 62
               7
100
AcDbCircle
 10
934.33456220609844
 20
476.79328508642857
 30
0.0
 40
1.7500000000000171
100
AcDbArc
 50
310.18409994882722
 51
344.64111441917993
  0
ARC
  5
61D
100
AcDbEntity
  8
0
  6
Continuous
 62
               7
100
AcDbCircle
 10
932.96284706069503
 20
475.16916541177932
 30
0.0
 40
0.375880325350636
100
AcDbArc
 50
270.0
 51
49.815900051160803
  0
ARC
  5
61E
100
AcDbEntity
  8
0
  6
Continuous
 62
               7
100
AcDbCircle
 10
934.33456220609844
 20
476.79328508642857
 30
0.0
 40
1.749999999999978
100
AcDbArc
 50
195.35888558082013
 51
229.81590005117852
  0
ARC
  5
61F
100
AcDbEntity
  8
0
  6
Continuous
 62
               7
100
AcDbCircle
 10
894.83106276707952
 20
473.78834991342842
 30
0.0
 40
3.3999999999999888
100
AcDbArc
 50
323.9681209275293
 51
68.962778743963625
  0
ARC
  5
620
100
AcDbEntity
  8
0
  6
Continuous
 62
               7
100
AcDbCircle
 10
894.83106276707952
 20
473.78834991342842
 30
0.0
 40
3.400000000000059
100
AcDbArc
 50
111.03722125603801
 51
216.03187907247033
  0
ARC
  5
621
100
AcDbEntity
  8
0
  6
Continuous
 62
               7
100
AcDbCircle
 10
893.33106276707952
 20
473.78834991342842
 30
0.0
 40
0.499999999999923
100
AcDbArc
 50
112.02431283704563
 51
247.975687162947
  0
ARC
  5
622
100
AcDbEntity
  8
0
  6
Continuous
 62
               7
100
AcDbCircle
 10
894.83106276707952
 20
473.78834991342842
 30
0.0
 40
1.749999999999994
100
AcDbArc
 50
135.35888558082374
 51
164.64111441917993
  0
ARC
  5
623
100
AcDbEntity
  8
0
  6
Continuous
 62
               7
100
AcDbCircle
 10
894.08106276707952
 20
475.08738801910488
 30
0.0
 40
0.500000000000011
100
AcDbArc
 50
52.024312837057231
 51
187.97568716295069
  0
ARC
  5
624
100
AcDbEntity
  8
0
  6
Continuous
 62
               7
100
AcDbCircle
 10
894.83106276707952
 20
473.78834991342842
 30
0.0
 40
1.75
100
AcDbArc
 50
75.358885580823241
 51
104.6411144191803
  0
ARC
  5
625
100
AcDbEntity
  8
0
  6
Continuous
 62
               7
100
AcDbCircle
 10
895.58106276707952
 20
475.08738801910488
 30
0.0
 40
0.499999999999896
100
AcDbArc
 50
352.02431283704732
 51
127.97568716295284
  0
ARC
  5
626
100
AcDbEntity
  8
0
  6
Continuous
 62
               7
100
AcDbCircle
 10
894.83106276707952
 20
473.78834991342842
 30
0.0
 40
1.749999999999978
100
AcDbArc
 50
15.358885580820077
 51
44.641114419178848
  0
ARC
  5
627
100
AcDbEntity
  8
0
  6
Continuous
 62
               7
100
AcDbCircle
 10
896.33106276707952
 20
473.78834991342842
 30
0.0
 40
0.500000000000028
100
AcDbArc
 50
292.02431283704078
 51
67.97568716295423
  0
ARC
  5
628
100
AcDbEntity
  8
0
  6
Continuous
 62
               7
100
AcDbCircle
 10
896.20277791248293
 20
472.16423023877883
 30
0.0
 40
0.375880325350519
100
AcDbArc
 50
130.18409994881603
 51
270.0
  0
ARC
  5
629
100
AcDbEntity
  8
0
  6
Continuous
 62
               7
100
AcDbCircle
 10
894.83106276707952
 20
473.78834991342842
 30
0.0
 40
1.7500000000000739
100
AcDbArc
 50
310.18409994882069
 51
344.64111441917623
  0
ARC
  5
62A
100
AcDbEntity
  8
0
  6
Continuous
 62
               7
100
AcDbCircle
 10
893.45934762167587
 20
472.16423023877883
 30
0.0
 40
0.375880325350465
100
AcDbArc
 50
270.0
 51
49.815900051184009
  0
ARC
  5
62B
100
AcDbEntity
  8
0
  6
Continuous
 62
               7
100
AcDbCircle
 10
894.83106276707952
 20
473.78834991342842
 30
0.0
 40
1.7500000000001179
100
AcDbArc
 50
195.3588855808226
 51
229.81590005117641
  0
ARC
  5
62C
100
AcDbEntity
  8
0
  6
Continuous
 62
               7
100
AcDbCircle
 10
906.83456220609844
 20
458.793285086428
 30
0.0
 40
0.300000000000011
100
AcDbArc
 50
270.0
 51
90.0
  0
ARC
  5
62D
100
AcDbEntity
  8
0
  6
Continuous
 62
               7
100
AcDbCircle
 10
919.83456220609844
 20
497.79328508642777
 30
0.0
 40
1.0
100
AcDbArc
 50
180.0
 51
0.0
  0
ARC
  5
62E
100
AcDbEntity
  8
0
  6
Continuous
 62
               7
100
AcDbCircle
 10
881.83456220609844
 20
497.79328508642777
 30
0.0
 40
1.0
100
AcDbArc
 50
180.0
 51
0.0
  0
ARC
  5
62F
100
AcDbEntity
  8
0
  6
DIVIDE
 62
               6
100
AcDbCircle
 10
1025.5345622060986
 20
801.99328508642793
 30
0.0
 40
3.1999999999998181
100
AcDbArc
 50
180.0
 51
270.0
  0
ARC
  5
630
100
AcDbEntity
  8
0
  6
DIVIDE
 62
               6
100
AcDbCircle
 10
1049.134562206099
 20
801.99328508642793
 30
0.0
 40
3.1999999999998749
100
AcDbArc
 50
270.0
 51
0.0
  0
ARC
  5
631
100
AcDbEntity
  8
0
  6
DIVIDE
 62
               6
100
AcDbCircle
 10
1049.134562206099
 20
860.59328508642807
 30
0.0
 40
3.2000000000001019
100
AcDbArc
 50
0.0
 51
90.000000000000028
  0
ARC
  5
632
100
AcDbEntity
  8
0
  6
DIVIDE
 62
               6
100
AcDbCircle
 10
1025.5345622060986
 20
860.59328508642807
 30
0.0
 40
3.1999999999999891
100
AcDbArc
 50
90.000000000000028
 51
180.0
  0
ARC
  5
633
100
AcDbEntity
  8
0
  6
DIVIDE
 62
               6
100
AcDbCircle
 10
1049.134562206099
 20
801.99328508642793
 30
0.0
 40
1.5999999999998811
100
AcDbArc
 50
270.0
 51
0.0
  0
ARC
  5
634
100
AcDbEntity
  8
0
  6
DIVIDE
 62
               6
100
AcDbCircle
 10
1025.5345622060986
 20
801.99328508642793
 30
0.0
 40
1.5999999999997949
100
AcDbArc
 50
180.0
 51
270.0
  0
ARC
  5
635
100
AcDbEntity
  8
0
  6
DIVIDE
 62
               6
100
AcDbCircle
 10
1025.5345622060986
 20
860.59328508642807
 30
0.0
 40
1.5999999999999941
100
AcDbArc
 50
90.000000000000028
 51
180.0
  0
ARC
  5
636
100
AcDbEntity
  8
0
  6
DIVIDE
 62
               6
100
AcDbCircle
 10
1049.134562206099
 20
860.59328508642807
 30
0.0
 40
1.600000000000136
100
AcDbArc
 50
0.0
 51
90.000000000000028
  0
ARC
  5
637
100
AcDbEntity
  8
0
  6
DASHED
 62
               6
100
AcDbCircle
 10
942.52766762082149
 20
843.79328508642811
 30
0.0
 40
9.0
100
AcDbArc
 50
90.000000000000028
 51
180.22155754084659
  0
ARC
  5
638
100
AcDbEntity
  8
0
  6
Continuous
 62
               7
100
AcDbCircle
 10
941.63456220609908
 20
353.27644706290528
 30
0.0
 40
2.3000000000000109
100
AcDbArc
 50
180.0
 51
280.30484646876391
  0
ARC
  5
639
100
AcDbEntity
  8
0
  6
Continuous
 62
               7
100
AcDbCircle
 10
904.83456220609844
 20
453.79328508642777
 30
0.0
 40
1.9999999999999369
100
AcDbArc
 50
280.61965527615638
 51
0.0
  0
ARC
  5
63A
100
AcDbEntity
  8
0
  6
Continuous
 62
               7
100
AcDbCircle
 10
824.33456220609889
 20
437.13343251191532
 30
0.0
 40
2.0000000000000488
100
AcDbArc
 50
100.6196552761557
 51
180.0
  0
ARC
  5
63B
100
AcDbEntity
  8
0
  6
Continuous
 62
               7
100
AcDbCircle
 10
824.33456220609889
 20
375.793285086428
 30
0.0
 40
2.0
100
AcDbArc
 50
180.0
 51
270.0
  0
ARC
  5
63C
100
AcDbEntity
  8
0
  6
Continuous
 62
               7
100
AcDbCircle
 10
937.33456220609889
 20
373.79328508642789
 30
0.0
 40
2.0
100
AcDbArc
 50
0.0
 51
90.000000000000028
  0
ARC
  5
63D
100
AcDbEntity
  8
0
  6
Continuous
 62
               7
100
AcDbCircle
 10
982.43456220609835
 20
506.79328508642766
 30
0.0
 40
0.5
100
AcDbArc
 50
90.000000000000028
 51
202.61986494807391
  0
ARC
  5
63E
100
AcDbEntity
  8
0
  6
DASHED
 62
               6
100
AcDbCircle
 10
930.83456220609844
 20
826.79328508642811
 30
0.0
 40
2.0
100
AcDbArc
 50
90.000000000000028
 51
180.0
  0
ARC
  5
63F
100
AcDbEntity
  8
0
  6
DASHED
 62
               6
100
AcDbCircle
 10
942.83456220609844
 20
826.79328508642811
 30
0.0
 40
2.0
100
AcDbArc
 50
0.0
 51
90.000000000000028
  0
ARC
  5
640
100
AcDbEntity
  8
0
  6
Continuous
 62
               7
100
AcDbCircle
 10
874.83456220609844
 20
780.79328508642811
 30
0.0
 40
1.0
100
AcDbArc
 50
90.000000000000028
 51
180.0
  0
ARC
  5
641
100
AcDbEntity
  8
0
  6
Continuous
 62
               7
100
AcDbCircle
 10
935.83456220609844
 20
785.79328508642811
 30
0.0
 40
1.5
100
AcDbArc
 50
90.000000000000028
 51
180.0
  0
ARC
  5
642
100
AcDbEntity
  8
0
  6
Continuous
 62
               7
100
AcDbCircle
 10
950.83456220609844
 20
785.79328508642811
 30
0.0
 40
1.5
100
AcDbArc
 50
0.0
 51
90.000000000000028
  0
ARC
  5
643
100
AcDbEntity
  8
0
  6
Continuous
 62
               7
100
AcDbCircle
 10
969.03456220609871
 20
781.59328508642807
 30
0.0
 40
1.0
100
AcDbArc
 50
270.0
 51
0.0
  0
ARC
  5
644
100
AcDbEntity
  8
0
  6
Continuous
 62
               7
100
AcDbCircle
 10
961.73456220609853
 20
812.89328508642802
 30
0.0
 40
0.900000000000091
100
AcDbArc
 50
90.000000000000028
 51
270.0
  0
ARC
  5
645
100
AcDbEntity
  8
0
  6
Continuous
 62
               7
100
AcDbCircle
 10
911.93456220609858
 20
812.89328508642802
 30
0.0
 40
0.900000000000006
100
AcDbArc
 50
270.0
 51
90.0
  0
ARC
  5
646
100
AcDbEntity
  8
0
  6
Continuous
 62
               7
100
AcDbCircle
 10
907.73456220609853
 20
822.89328508642802
 30
0.0
 40
0.900000000000006
100
AcDbArc
 50
0.0
 51
180.0
  0
ARC
  5
647
100
AcDbEntity
  8
0
  6
Continuous
 62
               7
100
AcDbCircle
 10
909.63456220609862
 20
781.59328508642807
 30
0.0
 40
1.0
100
AcDbArc
 50
180.0
 51
270.0
  0
ARC
  5
648
100
AcDbEntity
  8
0
  6
Continuous
 62
               7
100
AcDbCircle
 10
889.34454796105535
 20
781.09328508642807
 30
0.0
 40
0.500000000000017
100
AcDbArc
 50
154.1575871262886
 51
270.0
  0
ARC
  5
649
100
AcDbEntity
  8
0
  6
Continuous
 62
               7
100
AcDbCircle
 10
882.32457645114175
 20
781.09328508642807
 30
0.0
 40
0.5
100
AcDbArc
 50
270.0
 51
25.842412873712917
  0
ARC
  5
64A
100
AcDbEntity
  8
0
  6
Continuous
 62
               6
100
AcDbCircle
 10
930.83456220609844
 20
767.21407215025874
 30
0.0
 40
1.0
100
AcDbArc
 50
0.0
 51
36.44442720507692
  0
ARC
  5
64B
100
AcDbEntity
  8
0
  6
Continuous
 62
               6
100
AcDbCircle
 10
930.83456220609844
 20
763.87249816334611
 30
0.0
 40
1.0000000000000979
100
AcDbArc
 50
323.55555824342304
 51
0.0
  0
ARC
  5
64C
100
AcDbEntity
  8
0
  6
Continuous
 62
               6
100
AcDbCircle
 10
928.92991254929723
 20
761.29328508642811
 30
0.0
 40
1.0
100
AcDbArc
 50
270.0
 51
323.55555824342679
  0
ARC
  5
64D
100
AcDbEntity
  8
0
  6
Continuous
 62
               6
100
AcDbCircle
 10
874.83456220609844
 20
780.79328508642811
 30
0.0
 40
1.0
100
AcDbArc
 50
90.000000000000028
 51
180.0
  0
ARC
  5
64E
100
AcDbEntity
  8
0
  6
Continuous
 62
               4
100
AcDbCircle
 10
886.43456220609858
 20
506.59328508642807
 30
0.0
 40
0.800000000000011
100
AcDbArc
 50
180.0
 51
270.0
  0
ARC
  5
64F
100
AcDbEntity
  8
0
  6
Continuous
 62
               4
100
AcDbCircle
 10
915.23456220609853
 20
506.59328508642807
 30
0.0
 40
0.800000000000011
100
AcDbArc
 50
270.0
 51
0.0
  0
ARC
  5
650
100
AcDbEntity
  8
0
  6
Continuous
 62
               7
100
AcDbCircle
 10
887.23456220609853
 20
765.19328508642798
 30
0.0
 40
1.600000000000023
100
AcDbArc
 50
90.000000000000028
 51
180.0
  0
ARC
  5
651
100
AcDbEntity
  8
0
  6
Continuous
 62
               7
100
AcDbCircle
 10
914.4345622060988
 20
765.19328508642798
 30
0.0
 40
1.5999999999999941
100
AcDbArc
 50
0.0
 51
90.000000000000028
  0
ARC
  5
652
100
AcDbEntity
  8
0
  6
Continuous
 62
               6
100
AcDbCircle
 10
928.92991254929723
 20
519.77799841850401
 30
0.0
 40
1.0000000000000979
100
AcDbArc
 50
36.444441756576978
 51
90.000000000000028
  0
ARC
  5
653
100
AcDbEntity
  8
0
  6
Continuous
 62
               6
100
AcDbCircle
 10
930.83456220609844
 20
517.19878534158602
 30
0.0
 40
1.0
100
AcDbArc
 50
0.0
 51
36.444441756576978
  0
ARC
  5
654
100
AcDbEntity
  8
0
  6
Continuous
 62
               6
100
AcDbCircle
 10
930.83456220609844
 20
513.85721135467315
 30
0.0
 40
0.999999999999907
100
AcDbArc
 50
323.55557279491848
 51
0.0
  0
ARC
  5
655
100
AcDbEntity
  8
0
  6
Continuous
 62
               7
100
AcDbCircle
 10
918.83456220609844
 20
464.793285086428
 30
0.0
 40
1.0
100
AcDbArc
 50
270.0
 51
0.0
  0
ARC
  5
656
100
AcDbEntity
  8
0
  6
Continuous
 62
               7
100
AcDbCircle
 10
896.23106276707938
 20
477.42840485806857
 30
0.0
 40
0.5
100
AcDbArc
 50
180.0
 51
248.96277874395909
  0
ARC
  5
657
100
AcDbEntity
  8
0
  6
Continuous
 62
               7
100
AcDbCircle
 10
896.23106276707938
 20
478.00182779468821
 30
0.0
 40
0.499999999999882
100
AcDbArc
 50
93.548681973911812
 51
180.0
  0
ARC
  5
658
100
AcDbEntity
  8
0
  6
Continuous
 62
               7
100
AcDbCircle
 10
893.43106276707942
 20
477.42840485806857
 30
0.0
 40
0.499999999999993
100
AcDbArc
 50
291.03722125604094
 51
0.0
  0
ARC
  5
659
100
AcDbEntity
  8
0
  6
Continuous
 62
               7
100
AcDbCircle
 10
893.43106276707942
 20
477.82818438383538
 30
0.0
 40
0.5
100
AcDbArc
 50
0.0
 51
93.548681973897942
  0
ARC
  5
65A
100
AcDbEntity
  8
0
  6
Continuous
 62
               7
100
AcDbCircle
 10
872.83456220609844
 20
464.793285086428
 30
0.0
 40
1.0
100
AcDbArc
 50
180.0
 51
270.0
  0
ARC
  5
65B
100
AcDbEntity
  8
0
  6
Continuous
 62
               7
100
AcDbCircle
 10
907.73456220609853
 20
454.69328508642786
 30
0.0
 40
0.89999999999992
100
AcDbArc
 50
180.0
 51
0.0
  0
ARC
  5
65C
100
AcDbEntity
  8
0
  6
Continuous
 62
               7
100
AcDbCircle
 10
932.93456220609858
 20
480.27801380641017
 30
0.0
 40
0.5
100
AcDbArc
 50
0.0
 51
93.548681973913403
  0
ARC
  5
65D
100
AcDbEntity
  8
0
  6
Continuous
 62
               7
100
AcDbCircle
 10
935.73456220609853
 20
480.45165721726312
 30
0.0
 40
0.49999999999987
100
AcDbArc
 50
93.548681973889103
 51
180.0
  0
ARC
  5
65E
100
AcDbEntity
  8
0
  6
Continuous
 62
               7
100
AcDbCircle
 10
935.73456220609853
 20
480.43334003106906
 30
0.0
 40
0.5
100
AcDbArc
 50
180.0
 51
248.9627787439621
  0
ARC
  5
65F
100
AcDbEntity
  8
0
  6
Continuous
 62
               7
100
AcDbCircle
 10
952.43456220609858
 20
520.49328508642816
 30
0.0
 40
0.5
100
AcDbArc
 50
0.0
 51
90.000000000000028
  0
ARC
  5
660
100
AcDbEntity
  8
0
  6
Continuous
 62
               7
100
AcDbCircle
 10
952.43456220609858
 20
520.43334003106816
 30
0.0
 40
0.499999999999942
100
AcDbArc
 50
291.0372212560257
 51
0.0
  0
ARC
  5
661
100
AcDbEntity
  8
0
  6
Continuous
 62
               7
100
AcDbCircle
 10
955.23456220609853
 20
520.49328508642816
 30
0.0
 40
0.5
100
AcDbArc
 50
90.000000000000028
 51
180.0
  0
ARC
  5
662
100
AcDbEntity
  8
0
  6
Continuous
 62
               7
100
AcDbCircle
 10
955.23456220609853
 20
520.43334003106816
 30
0.0
 40
0.5
100
AcDbArc
 50
180.0
 51
248.9627787439621
  0
ARC
  5
663
100
AcDbEntity
  8
0
  6
Continuous
 62
               7
100
AcDbCircle
 10
936.53456220609871
 20
482.80568818720326
 30
0.0
 40
1.8000000000000149
100
AcDbArc
 50
273.54868197390329
 51
0.0
  0
ARC
  5
664
100
AcDbEntity
  8
0
  6
DASHED
 62
               6
100
AcDbCircle
 10
937.33456220609844
 20
474.793285086428
 30
0.0
 40
1.0
100
AcDbArc
 50
270.0
 51
0.0
  0
ARC
  5
665
100
AcDbEntity
  8
0
  6
DASHED
 62
               6
100
AcDbCircle
 10
924.83456220609844
 20
453.793285086428
 30
0.0
 40
4.9999999999998863
100
AcDbArc
 50
180.0
 51
270.0
  0
ARC
  5
666
100
AcDbEntity
  8
0
  6
DASHED
 62
               6
100
AcDbCircle
 10
958.33456220609844
 20
453.793285086428
 30
0.0
 40
5.0
100
AcDbArc
 50
270.0
 51
0.0
  0
ARC
  5
667
100
AcDbEntity
  8
0
  6
DASHED
 62
               6
100
AcDbCircle
 10
961.33456220609844
 20
511.793285086428
 30
0.0
 40
2.0
100
AcDbArc
 50
0.0
 51
90.000000000000028
  0
ARC
  5
668
100
AcDbEntity
  8
0
  6
Continuous
 62
               2
100
AcDbCircle
 10
864.33456220609844
 20
769.29217382100705
 30
0.0
 40
1.500000000000014
100
AcDbArc
 50
0.0
 51
180.0
  0
ARC
  5
669
100
AcDbEntity
  8
0
  6
Continuous
 62
               2
100
AcDbCircle
 10
864.33456220609844
 20
769.29217382100705
 30
0.0
 40
0.499999999999986
100
AcDbArc
 50
0.0
 51
180.0
  0
ARC
  5
66A
100
AcDbEntity
  8
0
  6
Continuous
 62
               2
100
AcDbCircle
 10
864.33456220609844
 20
503.29328508642777
 30
0.0
 40
1.5
100
AcDbArc
 50
180.0
 51
0.0
  0
ARC
  5
66B
100
AcDbEntity
  8
0
  6
Continuous
 62
               2
100
AcDbCircle
 10
864.33456220609844
 20
503.29328508642777
 30
0.0
 40
0.5
100
AcDbArc
 50
180.0
 51
0.0
  0
ARC
  5
66C
100
AcDbEntity
  8
0
  6
DASHED
 62
               6
100
AcDbCircle
 10
866.33456220609889
 20
826.2688985135369
 30
0.0
 40
1.0
100
AcDbArc
 50
180.0
 51
268.5855767885979
  0
ARC
  5
66D
100
AcDbEntity
  8
0
  6
DASHED
 62
               6
100
AcDbCircle
 10
904.83456220609844
 20
823.31767165931933
 30
0.0
 40
1.0
100
AcDbArc
 50
0.0
 51
88.585576788597947
  0
ARC
  5
66E
100
AcDbEntity
  8
0
  6
Continuous
 62
               7
100
AcDbCircle
 10
908.08456220609867
 20
818.77010936553802
 30
0.0
 40
7.25
100
AcDbArc
 50
136.39718102729628
 51
223.60281897270363
  0
ARC
  5
66F
100
AcDbEntity
  8
0
  6
Continuous
 62
               7
100
AcDbCircle
 10
918.53456220609871
 20
818.27010936553802
 30
0.0
 40
1.0
100
AcDbArc
 50
0.0
 51
89.999999999999957
  0
ARC
  5
670
100
AcDbEntity
  8
0
  6
Continuous
 62
               7
100
AcDbCircle
 10
892.03456220609871
 20
731.29217382100705
 30
0.0
 40
1.0
100
AcDbArc
 50
0.0
 51
89.999999999999957
  0
ARC
  5
671
100
AcDbEntity
  8
0
  6
Continuous
 62
               7
100
AcDbCircle
 10
892.03456220609871
 20
540.29328508642777
 30
0.0
 40
1.0
100
AcDbArc
 50
0.0
 51
89.999999999999957
  0
ARC
  5
672
100
AcDbEntity
  8
0
  6
Continuous
 62
               2
100
AcDbCircle
 10
842.43456220609903
 20
779.39328508642802
 30
0.0
 40
0.600000000000009
100
AcDbArc
 50
180.0
 51
0.0
  0
ARC
  5
673
100
AcDbEntity
  8
0
  6
Continuous
 62
               6
100
AcDbCircle
 10
883.33456220609844
 20
812.45644731838956
 30
0.0
 40
1.0
100
AcDbArc
 50
180.0
 51
278.13010235415601
  0
ARC
  5
674
100
AcDbEntity
  8
0
  6
Continuous
 62
               6
100
AcDbCircle
 10
888.33456220609844
 20
813.17073303267534
 30
0.0
 40
1.0
100
AcDbArc
 50
278.13010235415601
 51
0.0
  0
ARC
  5
675
100
AcDbEntity
  8
0
  6
Continuous
 62
               6
100
AcDbCircle
 10
900.59456220609866
 20
814.92216160410408
 30
0.0
 40
1.0
100
AcDbArc
 50
180.0
 51
278.13010235415601
  0
TEXT
  5
676
100
AcDbEntity
  8
0
 62
               7
100
AcDbText
 10
1149.3346153490247
 20
1105.7930235581209
 30
0.0
 40
8.0
  1
450 (250)
 41
0.7695
  7
FontTableH_0
 72
               5
 11
1176.3346153490247
 21
1105.7930235581209
 31
0.0
100
AcDbText
  0
TEXT
  5
677
100
AcDbEntity
  8
0
 62
               7
100
AcDbText
 10
936.33437034902488
 20
1091.7930235581209
 30
0.0
 40
7.9999999999999218
  1
100
 50
359.99998239990748
 41
0.7695
  7
FontTableH_0
 72
               5
 11
945.33437034902443
 21
1091.7930207935049
 31
0.0
100
AcDbText
  0
TEXT
  5
678
100
AcDbEntity
  8
0
 62
               7
100
AcDbText
 10
873.33455334902476
 20
1091.7930235581209
 30
0.0
 40
8.0
  1
27
 41
0.7695
  7
FontTableH_0
 72
               5
 11
879.33455334902476
 21
1091.7930235581209
 31
0.0
100
AcDbText
  0
TEXT
  5
679
100
AcDbEntity
  8
0
 62
               7
100
AcDbText
 10
867.33437034902488
 20
1077.7930235581209
 30
0.0
 40
7.9999999999999218
  1
6
 50
359.99998239990748
 41
0.7695
  7
FontTableH_0
 72
               5
 11
870.33437034902465
 21
1077.7930226365822
 31
0.0
100
AcDbText
  0
TEXT
  5
67A
100
AcDbEntity
  8
0
 62
               7
100
AcDbText
 10
878.33437034902488
 20
1077.7930235581209
 30
0.0
 40
7.9999999999999218
  1
20
 50
359.99998239990748
 41
0.7695
  7
FontTableH_0
 72
               5
 11
884.33437034902465
 21
1077.7930217150436
 31
0.0
100
AcDbText
  0
TEXT
  5
67B
100
AcDbEntity
  8
0
 62
               7
100
AcDbText
 10
913.33437034902488
 20
1077.7930235581209
 30
0.0
 40
7.9999999999999218
  1
50
 50
359.99998239990748
 41
0.7695
  7
FontTableH_0
 72
               5
 11
919.33437034902465
 21
1077.7930217150436
 31
0.0
100
AcDbText
  0
TEXT
  5
67C
100
AcDbEntity
  8
0
 62
               7
100
AcDbText
 10
963.33437034902488
 20
1077.7930235581209
 30
0.0
 40
7.9999999999999218
  1
50
 50
359.99998239990748
 41
0.7695
  7
FontTableH_0
 72
               5
 11
969.33437034902465
 21
1077.7930217150436
 31
0.0
100
AcDbText
  0
TEXT
  5
67D
100
AcDbEntity
  8
0
 62
               7
100
AcDbText
 10
1174.3346153490247
 20
1091.7930235581209
 30
0.0
 40
8.0
  1
400 (200)
 41
0.7695
  7
FontTableH_0
 72
               5
 11
1201.3346153490247
 21
1091.7930235581209
 31
0.0
100
AcDbText
  0
TEXT
  5
67E
100
AcDbEntity
  8
0
 62
               7
100
AcDbText
 10
587.33440134902492
 20
1049.7939395581211
 30
0.0
 40
8.0
  1
外壁材：立ハゼ葺(W=225） フッ素ステンレス t0.4
 41
0.7695
  7
FontTableH_0
 72
               5
 11
763.45806548150483
 21
1049.7939395581211
 31
0.0
100
AcDbText
  0
TEXT
  5
67F
100
AcDbEntity
  8
0
 62
               7
100
AcDbText
 10
587.33440134902492
 20
1035.7939395581211
 30
0.0
 40
8.0
  1
下葺材：ゴムアスファルトル－フィング t1.0
 41
0.7695
  7
FontTableH_0
 72
               5
 11
749.39678791361132
 21
1035.7939395581211
 31
0.0
100
AcDbText
  0
TEXT
  5
680
100
AcDbEntity
  8
0
 62
               7
100
AcDbText
 10
587.33440134902492
 20
1021.7939395581211
 30
0.0
 40
8.0
  1
フレキシブルボ－ド t6（別途工事）
 41
0.7695
  7
FontTableH_0
 72
               5
 11
718.41773752351298
 21
1021.7939395581211
 31
0.0
100
AcDbText
  0
TEXT
  5
681
100
AcDbEntity
  8
0
 62
               7
100
AcDbText
 10
587.33522534902488
 20
1007.7942445581211
 30
0.0
 40
8.0
  1
ネオマフォ－ム t20（別途工事）
 41
0.7695
  7
FontTableH_0
 72
               5
 11
705.67432663552029
 21
1007.7942445581211
 31
0.0
100
AcDbText
  0
TEXT
  5
682
100
AcDbEntity
  8
0
 62
               7
100
AcDbText
 10
587.33455334902487
 20
993.79369555812104
 30
0.0
 40
8.0
  1
ＡＬＣ板 t100（別途工事）
 41
0.7695
  7
FontTableH_0
 72
               5
 11
684.55677325328861
 21
993.79369555812104
 31
0.0
100
AcDbText
  0
TEXT
  5
683
100
AcDbEntity
  8
0
 62
               7
100
AcDbText
 10
1152.2881063490249
 20
675.29326744778484
 30
0.0
 40
12.000000000000002
  1
内  部
 50
270.00000112387437
 41
0.7695
  7
FontTableV_0
 72
               5
 11
1152.2881070110416
 21
641.54326744778484
 31
0.0
100
AcDbText
  0
TEXT
  5
684
100
AcDbEntity
  8
0
 62
               7
100
AcDbText
 10
694.70949234902491
 20
675.29320644778488
 30
0.0
 40
12.000000000000002
  1
外  部
 50
270.00000112387437
 41
0.7695
  7
FontTableV_0
 72
               5
 11
694.70949301104156
 21
641.54320644778488
 31
0.0
100
AcDbText
  0
TEXT
  5
685
100
AcDbEntity
  8
0
 62
               7
100
AcDbText
 10
726.47108934902485
 20
845.79302355812115
 30
0.0
 40
8.0
  1
コ－キング（別途工事）
 41
0.7695
  7
FontTableH_0
 72
               5
 11
814.47108934902485
 21
845.79302355812115
 31
0.0
100
AcDbText
  0
TEXT
  5
686
100
AcDbEntity
  8
0
 62
               7
100
AcDbText
 10
1031.4493613490249
 20
929.79326755812099
 30
0.0
 40
8.0000000000002274
  1
Ｌ－65×65×6（別途工事）
 41
0.7695
  7
FontTableH_0
 72
               5
 11
1128.6715812532889
 21
929.79326755812099
 31
0.0
100
AcDbText
  0
TEXT
  5
687
100
AcDbEntity
  8
0
 62
               7
100
AcDbText
 10
848.33455334902476
 20
1091.793267558121
 30
0.0
 40
8.0
  1
20
 41
0.7695
  7
FontTableH_0
 72
               5
 11
854.33455334902476
 21
1091.793267558121
 31
0.0
100
AcDbText
  0
TEXT
  5
688
100
AcDbEntity
  8
0
 62
               7
100
AcDbText
 10
754.33882634902488
 20
873.79326755812099
 30
0.0
 40
8.0
  1
小口塞ギ：外壁同材
 41
0.7695
  7
FontTableH_0
 72
               5
 11
826.33882634902488
 21
873.79326755812099
 31
0.0
100
AcDbText
  0
TEXT
  5
689
100
AcDbEntity
  8
0
 62
               7
100
AcDbText
 10
1410.3346153490247
 20
499.79329855812102
 30
0.0
 40
8.0
  1
▽１ＦＬ
 41
0.7695
  7
FontTableH_0
 72
               5
 11
1442.3346153490247
 21
499.79329855812102
 31
0.0
100
AcDbText
  0
TEXT
  5
68A
100
AcDbEntity
  8
0
 62
               7
100
AcDbText
 10
1012.9133503490249
 20
814.79326755812099
 30
0.0
 40
7.999999999999746
  1
10
 50
89.999981276031491
 41
0.7695
  7
FontTableH_0
 72
               5
 11
1012.9133523097943
 21
820.79326755812076
 31
0.0
100
AcDbText
  0
TEXT
  5
68B
100
AcDbEntity
  8
0
 62
               7
100
AcDbText
 10
1012.9133503490249
 20
792.29326755812099
 30
0.0
 40
7.9999999999999716
  1
35
 50
89.999981276031491
 41
0.7695
  7
FontTableH_0
 72
               5
 11
1012.9133523097943
 21
798.29326755812076
 31
0.0
100
AcDbText
  0
TEXT
  5
68C
100
AcDbEntity
  8
0
 62
               7
100
AcDbText
 10
1012.9133503490249
 20
764.79326755812099
 30
0.0
 40
7.9999999999999716
  1
20
 50
89.999981276031491
 41
0.7695
  7
FontTableH_0
 72
               5
 11
1012.9133523097943
 21
770.79326755812076
 31
0.0
100
AcDbText
  0
TEXT
  5
68D
100
AcDbEntity
  8
0
 62
               7
100
AcDbText
 10
1082.9133503490248
 20
814.79326755812099
 30
0.0
 40
7.9999999999999716
  1
80
 50
89.999981276033665
 41
0.7695
  7
FontTableH_0
 72
               5
 11
1082.9133523097939
 21
820.79326755812076
 31
0.0
100
AcDbText
  0
TEXT
  5
68E
100
AcDbEntity
  8
0
 62
               7
100
AcDbText
 10
1082.9133503490248
 20
814.79326755812099
 30
0.0
 40
7.9999999999999716
  1
80
 50
89.999981276033665
 41
0.7695
  7
FontTableH_0
 72
               5
 11
1082.9133523097939
 21
820.79326755812076
 31
0.0
100
AcDbText
  0
TEXT
  5
68F
100
AcDbEntity
  8
0
 62
               7
100
AcDbText
 10
1068.9133503490248
 20
817.29326755812099
 30
0.0
 40
7.9999999999999716
  1
75
 50
89.999981276033665
 41
0.7695
  7
FontTableH_0
 72
               5
 11
1068.9133523097939
 21
823.29326755812076
 31
0.0
100
AcDbText
  0
TEXT
  5
690
100
AcDbEntity
  8
0
 62
               7
100
AcDbText
 10
1068.9133503490248
 20
779.29326755812099
 30
0.0
 40
7.9999999999999716
  1
5
 50
89.999981276029317
 41
0.7695
  7
FontTableH_0
 72
               5
 11
1068.9133513294096
 21
782.29326755812076
 31
0.0
100
AcDbText
  0
TEXT
  5
691
100
AcDbEntity
  8
0
 62
               7
100
AcDbText
 10
1082.9133503490248
 20
633.29326755812099
 30
0.0
 40
7.9999999999999716
  1
Ｈ＝1,995
 50
89.999981276031491
 41
0.7695
  7
FontTableH_0
 72
               5
 11
1082.9133606130522
 21
664.70143040740936
 31
0.0
100
AcDbText
  0
TEXT
  5
692
100
AcDbEntity
  8
0
 62
               7
100
AcDbText
 10
1082.9133503490248
 20
427.79329855812102
 30
0.0
 40
7.9999999999999716
  1
180
 50
89.999981276032244
 41
0.7695
  7
FontTableH_0
 72
               5
 11
1082.9133532901787
 21
436.79329855812057
 31
0.0
100
AcDbText
  0
TEXT
  5
693
100
AcDbEntity
  8
0
 62
               7
100
AcDbText
 10
1068.9133503490248
 20
349.79329855812102
 30
0.0
 40
7.9999999999999716
  1
20
 50
89.999981276033665
 41
0.7695
  7
FontTableH_0
 72
               5
 11
1068.9133523097939
 21
355.79329855812068
 31
0.0
100
AcDbText
  0
TEXT
  5
694
100
AcDbEntity
  8
0
 62
               7
100
AcDbText
 10
1068.9133503490248
 20
417.79329855812102
 30
0.0
 40
7.9999999999999716
  1
120
 50
89.999981276032244
 41
0.7695
  7
FontTableH_0
 72
               5
 11
1068.9133532901787
 21
426.79329855812057
 31
0.0
100
AcDbText
  0
TEXT
  5
695
100
AcDbEntity
  8
0
 62
               7
100
AcDbText
 10
1068.9133503490248
 20
487.29329855812102
 30
0.0
 40
7.9999999999999716
  1
15
 50
89.999981276033665
 41
0.7695
  7
FontTableH_0
 72
               5
 11
1068.9133523097939
 21
493.29329855812068
 31
0.0
100
AcDbText
  0
TEXT
  5
696
100
AcDbEntity
  8
0
 62
               7
100
AcDbText
 10
1068.9133503490248
 20
507.29329855812102
 30
0.0
 40
7.9999999999999716
  1
25
 50
89.999981276033665
 41
0.7695
  7
FontTableH_0
 72
               5
 11
1068.9133523097939
 21
513.29329855812068
 31
0.0
100
AcDbText
  0
TEXT
  5
697
100
AcDbEntity
  8
0
 62
               7
100
AcDbText
 10
807.33455334902476
 20
812.29326755812099
 30
0.0
 40
7.9999999999999716
  1
15
 50
89.999981276031491
 41
0.7695
  7
FontTableH_0
 72
               5
 11
807.33455530979415
 21
818.29326755812076
 31
0.0
100
AcDbText
  0
TEXT
  5
698
100
AcDbEntity
  8
0
 62
               7
100
AcDbText
 10
807.33455334902476
 20
789.79326755812099
 30
0.0
 40
8.0000000000002007
  1
30
 50
89.999981276031491
 41
0.7695
  7
FontTableH_0
 72
               5
 11
807.33455530979415
 21
795.79326755812076
 31
0.0
100
AcDbText
  0
TEXT
  5
699
100
AcDbEntity
  8
0
 62
               7
100
AcDbText
 10
807.33455334902476
 20
775.29326755812099
 30
0.0
 40
8.0000000000002007
  1
3
 50
89.999981276033665
 41
0.7695
  7
FontTableH_0
 72
               5
 11
807.33455432940934
 21
778.29326755812076
 31
0.0
100
AcDbText
  0
TEXT
  5
69A
100
AcDbEntity
  8
0
 62
               7
100
AcDbText
 10
807.33455334902476
 20
764.29326755812099
 30
0.0
 40
7.9999999999999716
  1
15
 50
89.999981276031491
 41
0.7695
  7
FontTableH_0
 72
               5
 11
807.33455530979415
 21
770.29326755812076
 31
0.0
100
AcDbText
  0
TEXT
  5
69B
100
AcDbEntity
  8
0
 62
               7
100
AcDbText
 10
947.08455334902476
 20
675.79326755812099
 30
0.0
 40
8.0
  1
33.5
 41
0.7695
  7
FontTableH_0
 72
               5
 11
959.08455334902476
 21
675.79326755812099
 31
0.0
100
AcDbText
  0
TEXT
  5
69C
100
AcDbEntity
  8
0
 62
               7
100
AcDbText
 10
924.08455334902476
 20
675.79326755812099
 30
0.0
 40
8.0
  1
12.5
 41
0.7695
  7
FontTableH_0
 72
               5
 11
936.08455334902476
 21
675.79326755812099
 31
0.0
100
AcDbText
  0
TEXT
  5
69D
100
AcDbEntity
  8
0
 62
               7
100
AcDbText
 10
921.33455334902476
 20
675.79326755812099
 30
0.0
 40
8.0
  1
5
 41
0.7695
  7
FontTableH_0
 72
               5
 11
924.33455334902476
 21
675.79326755812099
 31
0.0
100
AcDbText
  0
TEXT
  5
69E
100
AcDbEntity
  8
0
 62
               7
100
AcDbText
 10
896.83455334902476
 20
675.79326755812099
 30
0.0
 40
8.0
  1
40
 41
0.7695
  7
FontTableH_0
 72
               5
 11
902.83455334902476
 21
675.79326755812099
 31
0.0
100
AcDbText
  0
TEXT
  5
69F
100
AcDbEntity
  8
0
 62
               7
100
AcDbText
 10
1380.3346153490247
 20
1121.793267558121
 30
0.0
 40
8.0
  1
通リ芯
 41
0.7695
  7
FontTableH_0
 72
               5
 11
1404.3346153490247
 21
1121.793267558121
 31
0.0
100
AcDbText
  0
TEXT
  5
6A0
100
AcDbEntity
  8
0
 62
               7
100
AcDbText
 10
850.58455334902476
 20
799.79326755812099
 30
0.0
 40
8.0
  1
6.5
 41
0.7695
  7
FontTableH_0
 72
               5
 11
859.58455334902476
 21
799.79326755812099
 31
0.0
100
AcDbText
  0
TEXT
  5
6A1
100
AcDbEntity
  8
0
 62
               7
100
AcDbText
 10
924.08455334902476
 20
901.79326755812099
 30
0.0
 40
8.0
  1
20.5
 41
0.7695
  7
FontTableH_0
 72
               5
 11
936.08455334902476
 21
901.79326755812099
 31
0.0
100
AcDbText
  0
TEXT
  5
6A2
100
AcDbEntity
  8
0
 62
               7
100
AcDbText
 10
765.33455334902487
 20
772.79271855812112
 30
0.0
 40
7.9999999999999716
  1
8
 50
89.999981276033665
 41
0.7695
  7
FontTableH_0
 72
               5
 11
765.33455432940946
 21
775.7927185581209
 31
0.0
100
AcDbText
  0
TEXT
  5
6A3
100
AcDbEntity
  8
0
 62
               7
100
AcDbText
 10
779.33455334902487
 20
756.79216955812103
 30
0.0
 40
7.9999999999999716
  1
20
 50
89.999981276031491
 41
0.7695
  7
FontTableH_0
 72
               5
 11
779.33455530979427
 21
762.7921695581208
 31
0.0
100
AcDbText
  0
TEXT
  5
6A4
100
AcDbEntity
  8
0
 62
               7
100
AcDbText
 10
765.33455334902487
 20
626.29271855812112
 30
0.0
 40
7.9999999999999716
  1
2,009
 50
89.999981276031946
 41
0.7695
  7
FontTableH_0
 72
               5
 11
765.33455825094825
 21
641.29271855812021
 31
0.0
100
AcDbText
  0
TEXT
  5
6A5
100
AcDbEntity
  8
0
 62
               7
100
AcDbText
 10
779.33455334902487
 20
507.79329855812102
 30
0.0
 40
8.0000000000002007
  1
20
 50
89.999981276031491
 41
0.7695
  7
FontTableH_0
 72
               5
 11
779.33455530979427
 21
513.79329855812068
 31
0.0
100
AcDbText
  0
TEXT
  5
6A6
100
AcDbEntity
  8
0
 62
               7
100
AcDbText
 10
779.33455334902487
 20
626.29271855812112
 30
0.0
 40
7.9999999999999716
  1
1,969
 50
89.999981276031946
 41
0.7695
  7
FontTableH_0
 72
               5
 11
779.33455825094825
 21
641.29271855812021
 31
0.0
100
AcDbText
  0
TEXT
  5
6A7
100
AcDbEntity
  8
0
 62
               7
100
AcDbText
 10
807.33455334902476
 20
500.29329855812102
 30
0.0
 40
7.9999999999999716
  1
15
 50
89.999981276031491
 41
0.7695
  7
FontTableH_0
 72
               5
 11
807.33455530979415
 21
506.29329855812068
 31
0.0
100
AcDbText
  0
TEXT
  5
6A8
100
AcDbEntity
  8
0
 62
               7
100
AcDbText
 10
807.33455334902476
 20
483.79329855812102
 30
0.0
 40
7.9999999999999716
  1
18
 50
89.999981276031491
 41
0.7695
  7
FontTableH_0
 72
               5
 11
807.33455530979415
 21
489.79329855812068
 31
0.0
100
AcDbText
  0
TEXT
  5
6A9
100
AcDbEntity
  8
0
 62
               7
100
AcDbText
 10
807.33455334902476
 20
467.29329855812102
 30
0.0
 40
7.9999999999999716
  1
15
 50
89.999981276031491
 41
0.7695
  7
FontTableH_0
 72
               5
 11
807.33455530979415
 21
473.29329855812068
 31
0.0
100
AcDbText
  0
TEXT
  5
6AA
100
AcDbEntity
  8
0
 62
               7
100
AcDbText
 10
807.33455334902476
 20
454.79329855812102
 30
0.0
 40
7.9999999999999716
  1
10
 50
89.999981276031491
 41
0.7695
  7
FontTableH_0
 72
               5
 11
807.33455530979415
 21
460.79329855812068
 31
0.0
100
AcDbText
  0
TEXT
  5
6AB
100
AcDbEntity
  8
0
 62
               7
100
AcDbText
 10
885.33455334902476
 20
799.79326755812099
 30
0.0
 40
8.0
  1
35
 41
0.7695
  7
FontTableH_0
 72
               5
 11
891.33455334902476
 21
799.79326755812099
 31
0.0
100
AcDbText
  0
TEXT
  5
6AC
100
AcDbEntity
  8
0
 62
               7
100
AcDbText
 10
825.83455334902476
 20
288.79328355812106
 30
0.0
 40
8.0
  1
15
 41
0.7695
  7
FontTableH_0
 72
               5
 11
831.83455334902476
 21
288.79328355812106
 31
0.0
100
AcDbText
  0
TEXT
  5
6AD
100
AcDbEntity
  8
0
 62
               7
100
AcDbText
 10
918.83455334902476
 20
288.79328355812106
 30
0.0
 40
8.0
  1
175
 41
0.7695
  7
FontTableH_0
 72
               5
 11
927.83455334902476
 21
288.79328355812106
 31
0.0
100
AcDbText
  0
TEXT
  5
6AE
100
AcDbEntity
  8
0
 62
               7
100
AcDbText
 10
860.83455334902476
 20
302.79329855812108
 30
0.0
 40
8.0
  1
55
 41
0.7695
  7
FontTableH_0
 72
               5
 11
866.83455334902476
 21
302.79329855812108
 31
0.0
100
AcDbText
  0
TEXT
  5
6AF
100
AcDbEntity
  8
0
 62
               7
100
AcDbText
 10
946.33455334902476
 20
302.79329855812108
 30
0.0
 40
8.0
  1
120
 41
0.7695
  7
FontTableH_0
 72
               5
 11
955.33455334902476
 21
302.79329855812108
 31
0.0
100
AcDbText
  0
TEXT
  5
6B0
100
AcDbEntity
  8
0
 62
               7
100
AcDbText
 10
970.83455334902476
 20
316.79329855812108
 30
0.0
 40
8.0
  1
75
 41
0.7695
  7
FontTableH_0
 72
               5
 11
976.83455334902476
 21
316.79329855812108
 31
0.0
100
AcDbText
  0
TEXT
  5
6B1
100
AcDbEntity
  8
0
 62
               7
100
AcDbText
 10
910.83455334902476
 20
316.79329855812108
 30
0.0
 40
8.0
  1
45
 41
0.7695
  7
FontTableH_0
 72
               5
 11
916.83455334902476
 21
316.79329855812108
 31
0.0
100
AcDbText
  0
TEXT
  5
6B2
100
AcDbEntity
  8
0
 62
               7
100
AcDbText
 10
779.33455334902487
 20
442.29799855812109
 30
0.0
 40
7.9999999999999716
  1
15
 50
89.999981276031491
 41
0.7695
  7
FontTableH_0
 72
               5
 11
779.33455530979427
 21
448.29799855812075
 31
0.0
100
AcDbText
  0
TEXT
  5
6B3
100
AcDbEntity
  8
0
 62
               7
100
AcDbText
 10
779.33455334902487
 20
402.29799855812109
 30
0.0
 40
7.9999999999999716
  1
65
 50
89.999981276031491
 41
0.7695
  7
FontTableH_0
 72
               5
 11
779.33455530979427
 21
408.29799855812075
 31
0.0
100
AcDbText
  0
TEXT
  5
6B4
100
AcDbEntity
  8
0
 62
               7
100
AcDbText
 10
779.33455334902487
 20
472.29329855812102
 30
0.0
 40
7.9999999999999716
  1
45
 50
89.999981276031491
 41
0.7695
  7
FontTableH_0
 72
               5
 11
779.33455530979427
 21
478.29329855812068
 31
0.0
100
AcDbText
  0
TEXT
  5
6B5
100
AcDbEntity
  8
0
 62
               7
100
AcDbText
 10
765.33455334902487
 20
430.29329855812102
 30
0.0
 40
7.9999999999999716
  1
125
 50
89.999981276032244
 41
0.7695
  7
FontTableH_0
 72
               5
 11
765.33455629017885
 21
439.29329855812057
 31
0.0
100
AcDbText
  0
TEXT
  5
6B6
100
AcDbEntity
  8
0
 62
               7
100
AcDbText
 10
765.33455334902487
 20
362.29329855812102
 30
0.0
 40
7.9999999999999716
  1
15
 50
89.999981276031491
 41
0.7695
  7
FontTableH_0
 72
               5
 11
765.33455530979427
 21
368.29329855812068
 31
0.0
100
AcDbText
  0
TEXT
  5
6B7
100
AcDbEntity
  8
0
 62
               7
100
AcDbText
 10
765.33455334902487
 20
502.29329855812102
 30
0.0
 40
7.9999999999999716
  1
3
 50
89.999981276033665
 41
0.7695
  7
FontTableH_0
 72
               5
 11
765.33455432940946
 21
505.29329855812091
 31
0.0
100
AcDbText
  0
TEXT
  5
6B8
100
AcDbEntity
  8
0
 62
               7
100
AcDbText
 10
835.33455334902476
 20
504.29329855812102
 30
0.0
 40
7.9999999999999716
  1
3
 50
89.999981276033665
 41
0.7695
  7
FontTableH_0
 72
               5
 11
835.33455432940934
 21
507.29329855812091
 31
0.0
100
AcDbText
  0
TEXT
  5
6B9
100
AcDbEntity
  8
0
 62
               7
100
AcDbText
 10
874.83455334902476
 20
388.79329855812102
 30
0.0
 40
8.0
  1
117
 41
0.7695
  7
FontTableH_0
 72
               5
 11
883.83455334902476
 21
388.79329855812102
 31
0.0
100
AcDbText
  0
TEXT
  5
6BA
100
AcDbEntity
  8
0
 62
               7
100
AcDbText
 10
638.33455334902487
 20
499.79329855812102
 30
0.0
 40
8.0
  1
▽１ＦＬ
 41
0.7695
  7
FontTableH_0
 72
               5
 11
670.33455334902487
 21
499.79329855812102
 31
0.0
100
AcDbText
  0
TEXT
  5
6BB
100
AcDbEntity
  8
0
 62
               7
100
AcDbText
 10
848.83455334902476
 20
675.79326755812099
 30
0.0
 40
8.0
  1
20
 41
0.7695
  7
FontTableH_0
 72
               5
 11
854.83455334902476
 21
675.79326755812099
 31
0.0
100
AcDbText
  0
TEXT
  5
6BC
100
AcDbEntity
  8
0
 62
               7
100
AcDbText
 10
884.58455334902476
 20
592.79326755812099
 30
0.0
 40
8.0
  1
97.5
 41
0.7695
  7
FontTableH_0
 72
               5
 11
896.58455334902476
 21
592.79326755812099
 31
0.0
100
AcDbText
  0
TEXT
  5
6BD
100
AcDbEntity
  8
0
 62
               7
100
AcDbText
 10
728.83308934902493
 20
817.79296255812119
 30
0.0
 40
8.0
  1
捨唐草：外壁同材
 41
0.7695
  7
FontTableH_0
 72
               5
 11
792.83308934902493
 21
817.79296255812119
 31
0.0
100
AcDbText
  0
TEXT
  5
6BE
100
AcDbEntity
  8
0
 62
               7
100
AcDbText
 10
461.33440134902492
 20
711.79284055812104
 30
0.0
 40
8.0
  1
外壁材：立ハゼ葺(W=225） フッ素ステンレス t0.4
 41
0.7695
  7
FontTableH_0
 72
               5
 11
637.45806548150483
 21
711.79284055812104
 31
0.0
100
AcDbText
  0
TEXT
  5
6BF
100
AcDbEntity
  8
0
 62
               7
100
AcDbText
 10
461.33440134902492
 20
697.79284055812104
 30
0.0
 40
8.0
  1
下葺材：ゴムアスファルトル－フィング t1.0
 41
0.7695
  7
FontTableH_0
 72
               5
 11
623.39678791361132
 21
697.79284055812104
 31
0.0
100
AcDbText
  0
TEXT
  5
6C0
100
AcDbEntity
  8
0
 62
               7
100
AcDbText
 10
461.33440134902492
 20
683.79284055812104
 30
0.0
 40
8.0
  1
野地板 t15（別途工事）
 41
0.7695
  7
FontTableH_0
 72
               5
 11
547.25156204344069
 21
683.79284055812104
 31
0.0
100
AcDbText
  0
TEXT
  5
6C1
100
AcDbEntity
  8
0
 62
               7
100
AcDbText
 10
924.08455334902476
 20
402.79329855812102
 30
0.0
 40
8.0
  1
20.5
 41
0.7695
  7
FontTableH_0
 72
               5
 11
936.08455334902476
 21
402.79329855812102
 31
0.0
100
AcDbText
  0
TEXT
  5
6C2
100
AcDbEntity
  8
0
 62
               7
100
AcDbText
 10
1042.0747273490247
 20
545.79329855812102
 30
0.0
 40
8.0
  1
木額縁（別途工事）
 41
0.7695
  7
FontTableH_0
 72
               5
 11
1114.0747273490247
 21
545.79329855812102
 31
0.0
100
AcDbText
  0
TEXT
  5
6C3
100
AcDbEntity
  8
0
 62
               7
100
AcDbText
 10
1022.8512163490249
 20
385.79329855812102
 30
0.0
 40
8.0
  1
モルタル充填（別途工事）
 41
0.7695
  7
FontTableH_0
 72
               5
 11
1118.8512163490252
 21
385.79329855812102
 31
0.0
100
AcDbText
  0
TEXT
  5
6C4
100
AcDbEntity
  8
0
 62
               7
100
AcDbText
 10
717.79720034902493
 20
324.79329855812108
 30
0.0
 40
8.0
  1
コ－キング（別途工事）
 41
0.7695
  7
FontTableH_0
 72
               5
 11
805.79720034902493
 21
324.79329855812108
 31
0.0
100
AcDbText
  0
TEXT
  5
6C5
100
AcDbEntity
  8
0
 62
               7
100
AcDbText
 10
977.83455334902476
 20
552.79326755812099
 30
0.0
 40
8.0
  1
20
 41
0.7695
  7
FontTableH_0
 72
               5
 11
983.83455334902476
 21
552.79326755812099
 31
0.0
100
AcDbText
  0
TEXT
  5
6C6
100
AcDbEntity
  8
0
 62
               7
100
AcDbText
 10
915.83455334902476
 20
552.79326755812099
 30
0.0
 40
8.0
  1
100
 41
0.7695
  7
FontTableH_0
 72
               5
 11
924.83455334902476
 21
552.79326755812099
 31
0.0
100
AcDbText
  0
TEXT
  5
6C7
100
AcDbEntity
  8
0
 62
               7
100
AcDbText
 10
833.08455334902476
 20
552.79326755812099
 30
0.0
 40
8.0
  1
49.5
 41
0.7695
  7
FontTableH_0
 72
               5
 11
845.08455334902476
 21
552.79326755812099
 31
0.0
100
AcDbText
  0
TEXT
  5
6C8
100
AcDbEntity
  8
0
 62
               7
100
AcDbText
 10
666.68788634902489
 20
338.79329855812108
 30
0.0
 40
7.9999999999998863
  1
水切リ：AL-2.0t（別途工事）
 41
0.7695
  7
FontTableH_0
 72
               5
 11
770.11002939461855
 21
338.79329855812108
 31
0.0
100
AcDbText
  0
TEXT
  5
6C9
100
AcDbEntity
  8
0
 62
               7
100
AcDbText
 10
704.23860634902496
 20
529.79329855812102
 30
0.0
 40
8.0
  1
コ－キング（別途工事）
 41
0.7695
  7
FontTableH_0
 72
               5
 11
792.23860634902496
 21
529.79329855812102
 31
0.0
100
AcDbText
  0
TEXT
  5
6CA
100
AcDbEntity
  8
0
 62
               7
100
AcDbText
 10
757.03432234902493
 20
564.79320655812103
 30
0.0
 40
8.0
  1
捨唐草：外壁同材
 41
0.7695
  7
FontTableH_0
 72
               5
 11
821.03432234902493
 21
564.79320655812103
 31
0.0
100
AcDbText
  0
TEXT
  5
6CB
100
AcDbEntity
  8
0
 62
               7
100
AcDbText
 10
869.33455334902476
 20
675.79326755812099
 30
0.0
 40
8.0
  1
15
 41
0.7695
  7
FontTableH_0
 72
               5
 11
875.33455334902476
 21
675.79326755812099
 31
0.0
100
AcDbText
  0
TEXT
  5
6CC
100
AcDbEntity
  8
0
 62
               7
100
AcDbText
 10
821.33455334902476
 20
805.15551155812113
 30
0.0
 40
7.9999999999999716
  1
5
 50
89.999981276033665
 41
0.7695
  7
FontTableH_0
 72
               5
 11
821.33455432940934
 21
808.15551155812091
 31
0.0
100
AcDbText
  0
TEXT
  5
6CD
100
AcDbEntity
  8
0
 62
               7
100
AcDbText
 10
821.33455334902476
 20
788.15551155812113
 30
0.0
 40
7.9999999999999716
  1
25
 50
89.999981276031491
 41
0.7695
  7
FontTableH_0
 72
               5
 11
821.33455530979415
 21
794.15551155812091
 31
0.0
100
AcDbText
  0
TEXT
  5
6CE
100
AcDbEntity
  8
0
 62
               7
100
AcDbText
 10
852.83455334902476
 20
785.79326755812099
 30
0.0
 40
8.0
  1
30
 41
0.7695
  7
FontTableH_0
 72
               5
 11
858.83455334902476
 21
785.79326755812099
 31
0.0
100
AcDbText
  0
TEXT
  5
6CF
100
AcDbEntity
  8
0
 62
               7
100
AcDbText
 10
731.49678534902489
 20
831.79326755812099
 30
0.0
 40
8.0
  1
水切リ：外壁同材
 41
0.7695
  7
FontTableH_0
 72
               5
 11
795.49678534902489
 21
831.79326755812099
 31
0.0
100
AcDbText
  0
TEXT
  5
6D0
100
AcDbEntity
  8
14
 62
               7
100
AcDbText
 10
636.68120334902494
 20
60.178170558121082
 30
0.0
 40
6.0
  1
サッシュ取合イ断面詳細図(AD-4)
 41
0.7695
  7
FontTableH_0
 72
               5
 11
724.18120126286237
 21
60.178170558121082
 31
0.0
100
AcDbText
  0
TEXT
  5
6D1
100
AcDbEntity
  8
14
 62
               7
100
AcDbText
 10
765.39296434902485
 20
58.178159558121081
 30
0.0
 40
4.9999999999999858
  1
1/2
 41
0.7695
  7
FontTableH_0
 72
               5
 11
771.01796434902485
 21
58.178159558121081
 31
0.0
100
AcDbText
  0
ENDSEC
  0
SECTION
  2
OBJECTS
  0
DICTIONARY
  5
19
100
AcDbDictionary
  3
ACAD_GROUP
350
1A
  3
ACAD_MLINESTYLE
350
1B
  3
DWGPROPS
350
6D2
  0
DICTIONARY
  5
1A
102
{ACAD_REACTORS
330
19
102
}
100
AcDbDictionary
  0
DICTIONARY
  5
1B
102
{ACAD_REACTORS
330
19
102
}
100
AcDbDictionary
  3
STANDARD
350
1C
  0
MLINESTYLE
  5
1C
102
{ACAD_REACTORS
330
1B
102
}
100
AcDbMlineStyle
  2
Standard
 70
               0
  3

 62
               0
 51
90.0
 52
90.0
 71
               2
 49
0.5
 62
             256
  6
ByLayer
 49
-0.5
 62
             256
  6
ByLayer
  0
XRECORD
  5
6D2
100
AcDbXrecord
  1
DWGPROPS COOKIE
  2

  3

  4

  6

  7

  0
ENDSEC
  0
EOF
