  0
SECTION
  2
HEADER
  9
$ACADVER
  1
AC1014
  9
$ACADMAINTVER
 70
               0
  9
$DWGCODEPAGE
  3
ANSI_932
  9
$INSBASE
 10
0.0
 20
0.0
 30
0.0
  9
$EXTMIN
 10
0.0
 20
0.0
 30
0.0
  9
$EXTMAX
 10
1682.0
 20
1188.0
 30
0.0
  9
$LIMMIN
 10
0.0
 20
0.0
  9
$LIMMAX
 10
1682.0
 20
1188.0
  9
$ORTHOMODE
 70
               0
  9
$REGENMODE
 70
               1
  9
$FILLMODE
 70
               1
  9
$QTEXTMODE
 70
               0
  9
$MIRRTEXT
 70
               1
  9
$DRAGMODE
 70
               2
  9
$LTSCALE
 40
2.0
  9
$OSMODE
 70
               0
  9
$ATTMODE
 70
               1
  9
$TEXTSIZE
 40
0.2
  9
$TRACEWID
 40
0.05
  9
$TEXTSTYLE
  7
Standard
  9
$CLAYER
  8
0
  9
$CELTYPE
  6
Continuous
  9
$CECOLOR
 62
             256
  9
$CELTSCALE
 40
1.0
  9
$DELOBJ
 70
               1
  9
$DISPSILH
 70
               0
  9
$DIMSCALE
 40
1.0
  9
$DIMASZ
 40
0.18
  9
$DIMEXO
 40
0.0625
  9
$DIMDLI
 40
0.38
  9
$DIMRND
 40
0.0
  9
$DIMDLE
 40
0.0
  9
$DIMEXE
 40
0.18
  9
$DIMTP
 40
0.0
  9
$DIMTM
 40
0.0
  9
$DIMTXT
 40
0.18
  9
$DIMCEN
 40
0.09
  9
$DIMTSZ
 40
0.0
  9
$DIMTOL
 70
               0
  9
$DIMLIM
 70
               0
  9
$DIMTIH
 70
               1
  9
$DIMTOH
 70
               1
  9
$DIMSE1
 70
               0
  9
$DIMSE2
 70
               0
  9
$DIMTAD
 70
               0
  9
$DIMZIN
 70
               0
  9
$DIMBLK
  1

  9
$DIMASO
 70
               1
  9
$DIMSHO
 70
               1
  9
$DIMPOST
  1

  9
$DIMAPOST
  1

  9
$DIMALT
 70
               0
  9
$DIMALTD
 70
               2
  9
$DIMALTF
 40
25.399999999999999
  9
$DIMLFAC
 40
1.0
  9
$DIMTOFL
 70
               0
  9
$DIMTVP
 40
0.0
  9
$DIMTIX
 70
               0
  9
$DIMSOXD
 70
               0
  9
$DIMSAH
 70
               0
  9
$DIMBLK1
  1

  9
$DIMBLK2
  1

  9
$DIMSTYLE
  2
Standard
  9
$DIMCLRD
 70
               0
  9
$DIMCLRE
 70
               0
  9
$DIMCLRT
 70
               0
  9
$DIMTFAC
 40
1.0
  9
$DIMGAP
 40
0.09
  9
$DIMJUST
 70
               0
  9
$DIMSD1
 70
               0
  9
$DIMSD2
 70
               0
  9
$DIMTOLJ
 70
               1
  9
$DIMTZIN
 70
               0
  9
$DIMALTZ
 70
               0
  9
$DIMALTTZ
 70
               0
  9
$DIMFIT
 70
               3
  9
$DIMUPT
 70
               0
  9
$DIMUNIT
 70
               2
  9
$DIMDEC
 70
               4
  9
$DIMTDEC
 70
               4
  9
$DIMALTU
 70
               2
  9
$DIMALTTD
 70
               2
  9
$DIMTXSTY
  7
Standard
  9
$DIMAUNIT
 70
               0
  9
$LUNITS
 70
               2
  9
$LUPREC
 70
               4
  9
$SKETCHINC
 40
0.1
  9
$FILLETRAD
 40
0.0
  9
$AUNITS
 70
               0
  9
$AUPREC
 70
               0
  9
$MENU
  1
acad
  9
$ELEVATION
 40
0.0
  9
$PELEVATION
 40
0.0
  9
$THICKNESS
 40
0.0
  9
$LIMCHECK
 70
               0
  9
$BLIPMODE
 70
               1
  9
$CHAMFERA
 40
0.0
  9
$CHAMFERB
 40
0.0
  9
$CHAMFERC
 40
0.0
  9
$CHAMFERD
 40
0.0
  9
$SKPOLY
 70
               0
  9
$TDCREATE
 40
0.000000000
  9
$TDUPDATE
 40
0.000000000
  9
$TDINDWG
 40
0.0000000000
  9
$TDUSRTIMER
 40
0.0000000000
  9
$USRTIMER
 70
               1
  9
$ANGBASE
 50
0.0
  9
$ANGDIR
 70
               0
  9
$PDMODE
 70
               0
  9
$PDSIZE
 40
0.0
  9
$PLINEWID
 40
0.0
  9
$COORDS
 70
               0
  9
$SPLFRAME
 70
               0
  9
$SPLINETYPE
 70
               6
  9
$SPLINESEGS
 70
               8
  9
$ATTDIA
 70
               0
  9
$ATTREQ
 70
               1
  9
$HANDLING
 70
               1
  9
$HANDSEED
  5
3F8
  9
$SURFTAB1
 70
               6
  9
$SURFTAB2
 70
               6
  9
$SURFTYPE
 70
               6
  9
$SURFU
 70
               6
  9
$SURFV
 70
               6
  9
$UCSNAME
  2

  9
$UCSORG
 10
0.0
 20
0.0
 30
0.0
  9
$UCSXDIR
 10
1.0
 20
0.0
 30
0.0
  9
$UCSYDIR
 10
0.0
 20
1.0
 30
0.0
  9
$PUCSNAME
  2

  9
$PUCSORG
 10
0.0
 20
0.0
 30
0.0
  9
$PUCSXDIR
 10
1.0
 20
0.0
 30
0.0
  9
$PUCSYDIR
 10
0.0
 20
1.0
 30
0.0
  9
$USERI1
 70
               0
  9
$USERI2
 70
               0
  9
$USERI3
 70
               0
  9
$USERI4
 70
               0
  9
$USERI5
 70
               0
  9
$USERR1
 40
0.0
  9
$USERR2
 40
0.0
  9
$USERR3
 40
0.0
  9
$USERR4
 40
0.0
  9
$USERR5
 40
0.0
  9
$WORLDVIEW
 70
               1
  9
$SHADEDGE
 70
               3
  9
$SHADEDIF
 70
              70
  9
$TILEMODE
 70
               1
  9
$MAXACTVP
 70
              16
  9
$PINSBASE
 10
0.0
 20
0.0
 30
0.0
  9
$PLIMCHECK
 70
               0
  9
$PEXTMIN
 10
1.0000000000000000E+20
 20
1.0000000000000000E+20
 30
1.0000000000000000E+20
  9
$PEXTMAX
 10
-1.0000000000000000E+20
 20
-1.0000000000000000E+20
 30
-1.0000000000000000E+20
  9
$PLIMMIN
 10
0.0
 20
0.0
  9
$PLIMMAX
 10
12.0
 20
9.0
  9
$UNITMODE
 70
               0
  9
$VISRETAIN
 70
               0
  9
$PLINEGEN
 70
               1
  9
$PSLTSCALE
 70
               0
  9
$TREEDEPTH
 70
            3020
  9
$PICKSTYLE
 70
               1
  9
$CMLSTYLE
  2
Standard
  9
$CMLJUST
 70
               0
  9
$CMLSCALE
 40
1.0
  9
$PROXYGRAPHICS
 70
               0
  9
$MEASUREMENT
 70
               0
  0
ENDSEC
  0
SECTION
  2
CLASSES
  0
CLASS
  1
LWPOLYLINE
  2
AcDbPolyline
  3
"AutoCAD"
 90
        0
280
               0
281
               1
  0
CLASS
  1
IMAGE
  2
AcDbRasterImage
  3
ISM
 90
      127
280
               0
281
               1
  0
CLASS
  1
OLE2FRAME
  2
AcDbOle2Frame
  3
""
 90
        0
280
               0
281
               1
  0
CLASS
  1
HATCH
  2
AcDbHatch
  3
"ACAD_SEDONA"
 90
        0
280
               0
281
               1
  0
CLASS
  1
DICTIONARYVAR
  2
AcDbDictionaryVar
  3
"AutoCAD"
 90
        0
280
               0
281
               0
  0
CLASS
  1
RASTERVARIABLES
  2
AcDbRasterVariables
  3
ISM
 90
        0
280
               0
281
               0
  0
CLASS
  1
IMAGEDEF
  2
AcDbRasterImageDef
  3
ISM
 90
        0
280
               0
281
               0
  0
CLASS
  1
IMAGEDEF_REACTOR
  2
AcDbRasterImageDefReactor
  3
ISM
 90
        1
280
               0
281
               0
  0
CLASS
  1
IDBUFFER
  2
AcDbIdBuffer
  3
"Acad"
 90
        0
280
               0
281
               0
  0
CLASS
  1
SPATIAL_FILTER
  2
AcDbSpatialFilter
  3
"Acad"
 90
        0
280
               0
281
               0
  0
CLASS
  1
XRECORD
  2
AcDbXrecord
  3
"<Built In>"
 90
        0
280
               0
281
               0
  0
CLASS
  1
SORTENTSTABLE
  2
AcDbSortentsTable
  3
"AutoCAD"
 90
        0
280
               0
281
               0
  0
CLASS
  1
LAYER_INDEX
  2
AcDbLayerIndex
  3
"Acad"
 90
        0
280
               0
281
               0
  0
CLASS
  1
SPATIAL_INDEX
  2
AcDbSpatialIndex
  3
"Acad"
 90
        0
280
               0
281
               0
  0
CLASS
  1
OBJECT_PTR
  2
CAseDLPNTableRecord
  3
"ASE-LPNTableRecord"
 90
        1
280
               0
281
               0
  0
CLASS
  1
LAYOUT
  2
AcDbLayout
  3
"AutoCAD 2000"
 90
        0
280
               0
281
               0
  0
CLASS
  1
PLOTSETTINGS
  2
AcDbPlotSettings
  3
"AutoCAD 2000"
 90
        0
280
               0
281
               0
  0
CLASS
  1
ACDBDICTIONARYWDFLT
  2
AcDbDictionaryWithDefault
  3
"AutoCAD 2000"
 90
        0
280
               0
281
               0
  0
CLASS
  1
ACDBPLACEHOLDER
  2
AcDbPlaceHolder
  3
"AutoCAD 2000"
 90
        0
280
               0
281
               0
  0
CLASS
  1
VBA_PROJECT
  2
AcDbVbaProject
  3
"acadvba"
 90
        0
280
               0
281
               0
  0
CLASS
  1
WIPEOUT
  2
AcDbWipeout
  3
WipeOut|AutoCAD Express Tool|expresstools@autodesk.com
 90
      127
280
               0
281
               1
  0
CLASS
  1
WIPEOUTVARIABLES
  2
AcDbWipeoutVariables
  3
WipeOut|AutoCAD Express Tool|expresstools@autodesk.com
 90
        0
280
               0
281
               0
  0
CLASS
  1
RTEXT
  2
RText
  3
RText|AutoCAD Express Tool|expresstools@autodesk.com
 90
        0
280
               0
281
               1
  0
CLASS
  1
ARCALIGNEDTEXT
  2
AcDbArcAlignedText
  3
ATEXT|AutoCAD Express Tool|expresstools@autodesk.com
 90
        0
280
               0
281
               1
  0
ENDSEC
  0
SECTION
  2
TABLES
  0
TABLE
  2
VPORT
  5
7
100
AcDbSymbolTable
 70
               1
  0
VPORT
  5
15
100
AcDbSymbolTableRecord
100
AcDbViewportTableRecord
  2
*ACTIVE
 70
               0
 10
0.0
 20
0.0
 11
1.0
 21
1.0
 12
841.0
 22
594.0
 13
0.0
 23
0.0
 14
10.0
 24
10.0
 15
10.0
 25
10.0
 16
0.0
 26
0.0
 36
1.0
 17
0.0
 27
0.0
 37
0.0
 40
1188.0
 41
1.4158249158249159
 42
50.0
 43
0.0
 44
0.0
 50
0.0
 51
0.0
 71
               0
 72
             100
 73
               1
 74
               1
 75
               0
 76
               0
 77
               0
 78
               0
  0
ENDTAB
  0
TABLE
  2
LTYPE
  5
4
100
AcDbSymbolTable
 70
              24
  0
LTYPE
  5
11
100
AcDbSymbolTableRecord
100
AcDbLinetypeTableRecord
  2
ByBlock
 70
              64
  3

 72
              65
 73
               0
 40
0.0
  0
LTYPE
  5
12
100
AcDbSymbolTableRecord
100
AcDbLinetypeTableRecord
  2
ByLayer
 70
              64
  3

 72
              65
 73
               0
 40
0.0
  0
LTYPE
  5
13
100
AcDbSymbolTableRecord
100
AcDbLinetypeTableRecord
  2
Continuous
 70
              64
  3
Solid line
 72
              65
 73
               0
 40
0.0
  0
LTYPE
  5
1D
100
AcDbSymbolTableRecord
100
AcDbLinetypeTableRecord
  2
DOT
 70
              64
  3
Dot . . . . . . . . . . . . . . . . . . . . . .
 72
              65
 73
               2
 40
6.3499999999999996
 49
0.35
 74
               0
 49
-6.0
 74
               0
  0
LTYPE
  5
1E
100
AcDbSymbolTableRecord
100
AcDbLinetypeTableRecord
  2
DASHED
 70
              64
  3
Dashed __ __ __ __ __ __ __ __ __ __ __ __ __ _
 72
              65
 73
               2
 40
12.699999999999999
 49
6.3499999999999996
 74
               0
 49
-6.3499999999999996
 74
               0
  0
LTYPE
  5
1F
100
AcDbSymbolTableRecord
100
AcDbLinetypeTableRecord
  2
DASHDOT
 70
              64
  3
Dash dot __ . __ . __ . __ . __ . __ . __ . __
 72
              65
 73
               4
 40
25.399999999999999
 49
12.699999999999999
 74
               0
 49
-6.0
 74
               0
 49
0.7
 74
               0
 49
-6.0
 74
               0
  0
LTYPE
  5
20
100
AcDbSymbolTableRecord
100
AcDbLinetypeTableRecord
  2
DIVIDE
 70
              64
  3
Divide ____ . . ____ . . ____ . . ____ . . ____
 72
              65
 73
               6
 40
31.75
 49
12.699999999999999
 74
               0
 49
-6.0
 74
               0
 49
0.875
 74
               0
 49
-6.0
 74
               0
 49
0.875
 74
               0
 49
-6.0
 74
               0
  0
LTYPE
  5
21
100
AcDbSymbolTableRecord
100
AcDbLinetypeTableRecord
  2
HIDDEN
 70
              64
  3
Hidden __ __ __ __ __ __ __ __ __ __ __ __ __ _
 72
              65
 73
               2
 40
9.5250000000000004
 49
6.3499999999999996
 74
               0
 49
-3.1749999999999998
 74
               0
  0
LTYPE
  5
22
100
AcDbSymbolTableRecord
100
AcDbLinetypeTableRecord
  2
CENTER
 70
              64
  3
Center ____ _ ____ _ ____ _ ____ _ ____ _ ____
 72
              65
 73
               4
 40
50.799999999999997
 49
31.75
 74
               0
 49
-6.3499999999999996
 74
               0
 49
6.3499999999999996
 74
               0
 49
-6.3499999999999996
 74
               0
  0
LTYPE
  5
23
100
AcDbSymbolTableRecord
100
AcDbLinetypeTableRecord
  2
PHANTOM
 70
              64
  3
Phantom ______  __  __  ______  __  __  ______
 72
              65
 73
               6
 40
63.5
 49
31.75
 74
               0
 49
-6.3499999999999996
 74
               0
 49
6.3499999999999996
 74
               0
 49
-6.3499999999999996
 74
               0
 49
6.3499999999999996
 74
               0
 49
-6.3499999999999996
 74
               0
  0
LTYPE
  5
24
100
AcDbSymbolTableRecord
100
AcDbLinetypeTableRecord
  2
ACAD_ISO02W100
 70
              64
  3
ISO dash __ __ __ __ __ __ __ __ __ __ __ __ __
 72
              65
 73
               2
 40
15.0
 49
12.0
 74
               0
 49
-3.0
 74
               0
  0
LTYPE
  5
25
100
AcDbSymbolTableRecord
100
AcDbLinetypeTableRecord
  2
ACAD_ISO03W100
 70
              64
  3
ISO dash space __ __ __ __ __ __ __ __ __ __ __ __ __ __
 72
              65
 73
               2
 40
30.0
 49
12.0
 74
               0
 49
-18.0
 74
               0
  0
LTYPE
  5
26
100
AcDbSymbolTableRecord
100
AcDbLinetypeTableRecord
  2
ACAD_ISO04W100
 70
              64
  3
ISO long-dash dot ____ . ____ . ____ . ____ . _
 72
              65
 73
               4
 40
30.0
 49
24.0
 74
               0
 49
-3.0
 74
               0
 49
0.0
 74
               0
 49
-3.0
 74
               0
  0
LTYPE
  5
27
100
AcDbSymbolTableRecord
100
AcDbLinetypeTableRecord
  2
ACAD_ISO05W100
 70
              64
  3
ISO long-dash double-dot ____ .. ____ .. ____ .
 72
              65
 73
               6
 40
33.0
 49
24.0
 74
               0
 49
-3.0
 74
               0
 49
0.0
 74
               0
 49
-3.0
 74
               0
 49
0.0
 74
               0
 49
-3.0
 74
               0
  0
LTYPE
  5
28
100
AcDbSymbolTableRecord
100
AcDbLinetypeTableRecord
  2
ACAD_ISO06W100
 70
              64
  3
ISO long-dash triple-dot ____ ... ____ ... ____
 72
              65
 73
               8
 40
36.0
 49
24.0
 74
               0
 49
-3.0
 74
               0
 49
0.0
 74
               0
 49
-3.0
 74
               0
 49
0.0
 74
               0
 49
-3.0
 74
               0
 49
0.0
 74
               0
 49
-3.0
 74
               0
  0
LTYPE
  5
29
100
AcDbSymbolTableRecord
100
AcDbLinetypeTableRecord
  2
ACAD_ISO07W100
 70
              64
  3
ISO dot . . . . . . . . . . . . . . . . . . . .
 72
              65
 73
               2
 40
3.0
 49
0.0
 74
               0
 49
-3.0
 74
               0
  0
LTYPE
  5
2A
100
AcDbSymbolTableRecord
100
AcDbLinetypeTableRecord
  2
ACAD_ISO08W100
 70
              64
  3
ISO long-dash short-dash ____ __ ____ __ ____ _
 72
              65
 73
               4
 40
36.0
 49
24.0
 74
               0
 49
-3.0
 74
               0
 49
6.0
 74
               0
 49
-3.0
 74
               0
  0
LTYPE
  5
2B
100
AcDbSymbolTableRecord
100
AcDbLinetypeTableRecord
  2
ACAD_ISO09W100
 70
              64
  3
ISO long-dash double-short-dash ____ __ __ ____
 72
              65
 73
               6
 40
45.0
 49
24.0
 74
               0
 49
-3.0
 74
               0
 49
6.0
 74
               0
 49
-3.0
 74
               0
 49
6.0
 74
               0
 49
-3.0
 74
               0
  0
LTYPE
  5
2C
100
AcDbSymbolTableRecord
100
AcDbLinetypeTableRecord
  2
ACAD_ISO10W100
 70
              64
  3
ISO dash dot __ . __ . __ . __ . __ . __ . __ .
 72
              65
 73
               4
 40
18.0
 49
12.0
 74
               0
 49
-3.0
 74
               0
 49
0.0
 74
               0
 49
-3.0
 74
               0
  0
LTYPE
  5
2D
100
AcDbSymbolTableRecord
100
AcDbLinetypeTableRecord
  2
ACAD_ISO11W100
 70
              64
  3
ISO double-dash dot __ __ . __ __ . __ __ . __ 
 72
              65
 73
               6
 40
33.0
 49
12.0
 74
               0
 49
-3.0
 74
               0
 49
12.0
 74
               0
 49
-3.0
 74
               0
 49
0.0
 74
               0
 49
-3.0
 74
               0
  0
LTYPE
  5
2E
100
AcDbSymbolTableRecord
100
AcDbLinetypeTableRecord
  2
ACAD_ISO12W100
 70
              64
  3
ISO dash double-dot __ . . __ . . __ . . __ . .
 72
              65
 73
               6
 40
21.0
 49
12.0
 74
               0
 49
-3.0
 74
               0
 49
0.0
 74
               0
 49
-3.0
 74
               0
 49
0.0
 74
               0
 49
-3.0
 74
               0
  0
LTYPE
  5
2F
100
AcDbSymbolTableRecord
100
AcDbLinetypeTableRecord
  2
ACAD_ISO13W100
 70
              64
  3
ISO double-dash double-dot __ __ . . __ __ . . 
 72
              65
 73
               8
 40
36.0
 49
12.0
 74
               0
 49
-3.0
 74
               0
 49
12.0
 74
               0
 49
-3.0
 74
               0
 49
0.0
 74
               0
 49
-3.0
 74
               0
 49
0.0
 74
               0
 49
-3.0
 74
               0
  0
LTYPE
  5
30
100
AcDbSymbolTableRecord
100
AcDbLinetypeTableRecord
  2
ACAD_ISO14W100
 70
              64
  3
ISO dash triple-dot __ . . . __ . . . __ . . . 
 72
              65
 73
               8
 40
24.0
 49
12.0
 74
               0
 49
-3.0
 74
               0
 49
0.0
 74
               0
 49
-3.0
 74
               0
 49
0.0
 74
               0
 49
-3.0
 74
               0
 49
0.0
 74
               0
 49
-3.0
 74
               0
  0
LTYPE
  5
31
100
AcDbSymbolTableRecord
100
AcDbLinetypeTableRecord
  2
ACAD_ISO15W100
 70
              64
  3
ISO double-dash double-dot __ __ . . __ __ . . 
 72
              65
 73
              10
 40
39.0
 49
12.0
 74
               0
 49
-3.0
 74
               0
 49
12.0
 74
               0
 49
-3.0
 74
               0
 49
0.0
 74
               0
 49
-3.0
 74
               0
 49
0.0
 74
               0
 49
-3.0
 74
               0
 49
0.0
 74
               0
 49
-3.0
 74
               0
  0
ENDTAB
  0
TABLE
  2
LAYER
  5
2
100
AcDbSymbolTable
 70
              17
  0
LAYER
  5
14
100
AcDbSymbolTableRecord
100
AcDbLayerTableRecord
  2
0
 70
               0
 62
               7
  6
Continuous
  0
LAYER
  5
35
100
AcDbSymbolTableRecord
100
AcDbLayerTableRecord
  2
1
 70
               0
 62
               7
  6
Continuous
  0
LAYER
  5
36
100
AcDbSymbolTableRecord
100
AcDbLayerTableRecord
  2
2
 70
               0
 62
               7
  6
Continuous
  0
LAYER
  5
37
100
AcDbSymbolTableRecord
100
AcDbLayerTableRecord
  2
3
 70
               0
 62
               7
  6
Continuous
  0
LAYER
  5
38
100
AcDbSymbolTableRecord
100
AcDbLayerTableRecord
  2
4
 70
               0
 62
               7
  6
Continuous
  0
LAYER
  5
39
100
AcDbSymbolTableRecord
100
AcDbLayerTableRecord
  2
5
 70
               0
 62
               7
  6
Continuous
  0
LAYER
  5
3A
100
AcDbSymbolTableRecord
100
AcDbLayerTableRecord
  2
6
 70
               0
 62
               7
  6
Continuous
  0
LAYER
  5
3B
100
AcDbSymbolTableRecord
100
AcDbLayerTableRecord
  2
7
 70
               0
 62
               7
  6
Continuous
  0
LAYER
  5
3C
100
AcDbSymbolTableRecord
100
AcDbLayerTableRecord
  2
8
 70
               0
 62
               7
  6
Continuous
  0
LAYER
  5
3D
100
AcDbSymbolTableRecord
100
AcDbLayerTableRecord
  2
9
 70
               0
 62
               7
  6
Continuous
  0
LAYER
  5
3E
100
AcDbSymbolTableRecord
100
AcDbLayerTableRecord
  2
10
 70
               0
 62
               7
  6
Continuous
  0
LAYER
  5
3F
100
AcDbSymbolTableRecord
100
AcDbLayerTableRecord
  2
11
 70
               0
 62
               7
  6
Continuous
  0
LAYER
  5
40
100
AcDbSymbolTableRecord
100
AcDbLayerTableRecord
  2
12
 70
               0
 62
               7
  6
Continuous
  0
LAYER
  5
41
100
AcDbSymbolTableRecord
100
AcDbLayerTableRecord
  2
13
 70
               0
 62
               7
  6
Continuous
  0
LAYER
  5
42
100
AcDbSymbolTableRecord
100
AcDbLayerTableRecord
  2
14
 70
               0
 62
               7
  6
Continuous
  0
LAYER
  5
43
100
AcDbSymbolTableRecord
100
AcDbLayerTableRecord
  2
15
 70
               0
 62
               7
  6
Continuous
  0
LAYER
  5
44
100
AcDbSymbolTableRecord
100
AcDbLayerTableRecord
  2
HOZYOTEN
 70
               0
 62
               7
  6
Continuous
  0
ENDTAB
  0
TABLE
  2
STYLE
  5
3
100
AcDbSymbolTable
 70
               4
  0
STYLE
  5
17
100
AcDbSymbolTableRecord
100
AcDbTextStyleTableRecord
  2
Standard
 70
               0
 40
0.0
 41
1.0
 50
0.0
 71
               0
 42
0.0
  3
txt.shx
  4
bigfont.shx
  0
STYLE
  5
32
100
AcDbSymbolTableRecord
100
AcDbTextStyleTableRecord
  2
STANDARD_T
 70
               4
 40
0.0
 41
1.0
 50
0.0
 71
               0
 42
0.0
  3
txt.shx
  4
bigfont.shx
  0
STYLE
  5
33
100
AcDbSymbolTableRecord
100
AcDbTextStyleTableRecord
  2
FontTableH_0
 70
               0
 40
0.0
 41
1.0
 50
0.0
 71
               0
 42
0.0
  3
MS Gothic.ttf
  4

1001
ACAD
1000
MS Gothic
1071
    32817
  0
STYLE
  5
34
100
AcDbSymbolTableRecord
100
AcDbTextStyleTableRecord
  2
FontTableV_0
 70
               0
 40
0.0
 41
1.0
 50
0.0
 71
               0
 42
0.0
  3
@MS Gothic.ttf
  4

1001
ACAD
1000
@MS Gothic
1071
    32817
  0
ENDTAB
  0
TABLE
  2
VIEW
  5
5
100
AcDbSymbolTable
 70
               0
  0
ENDTAB
  0
TABLE
  2
UCS
  5
6
100
AcDbSymbolTable
 70
               0
  0
ENDTAB
  0
TABLE
  2
APPID
  5
8
100
AcDbSymbolTable
 70
               1
  0
APPID
  5
16
100
AcDbSymbolTableRecord
100
AcDbRegAppTableRecord
  2
ACAD
 70
               0
  0
ENDTAB
  0
TABLE
  2
DIMSTYLE
  5
9
100
AcDbSymbolTable
 70
               1
  0
DIMSTYLE
105
18
100
AcDbSymbolTableRecord
100
AcDbDimStyleTableRecord
  2
Standard
 70
               0
  3

  4

  5

  6

  7

 40
1.0
 41
0.18
 42
0.0625
 43
0.38
 44
0.18
 45
0.0
 46
0.0
 47
0.0
 48
0.0
 71
               0
 72
               0
 73
               1
 74
               1
 75
               0
 76
               0
 77
               0
 78
               0
140
0.18
141
0.09
142
0.0
143
25.399999999999999
144
1.0
145
0.0
146
1.0
147
0.09
170
               0
171
               2
172
               0
173
               0
174
               0
175
               0
176
               0
177
               0
178
               0
270
               2
271
               4
272
               4
273
               2
274
               2
275
               0
280
               0
281
               0
282
               0
283
               1
284
               0
285
               0
286
               0
287
               0
288
               0
340
17
  0
ENDTAB
  0
TABLE
  2
BLOCK_RECORD
  5
1
100
AcDbSymbolTable
 70
               0
  0
BLOCK_RECORD
  5
A
100
AcDbSymbolTableRecord
100
AcDbBlockTableRecord
  2
*MODEL_SPACE
  0
BLOCK_RECORD
  5
B
100
AcDbSymbolTableRecord
100
AcDbBlockTableRecord
  2
*PAPER_SPACE
  0
ENDTAB
  0
ENDSEC
  0
SECTION
  2
BLOCKS
  0
BLOCK
  5
D
100
AcDbEntity
  8
0
100
AcDbBlockBegin
  2
*MODEL_SPACE
 70
               0
 10
0.0
 20
0.0
 30
0.0
  3
*MODEL_SPACE
  1

  0
ENDBLK
  5
E
100
AcDbEntity
  8
0
100
AcDbBlockEnd
  0
BLOCK
  5
F
100
AcDbEntity
 67
               1
  8
0
100
AcDbBlockBegin
  2
*PAPER_SPACE
 70
               0
 10
0.0
 20
0.0
 30
0.0
  3
*PAPER_SPACE
  1

  0
ENDBLK
  5
10
100
AcDbEntity
 67
               1
  8
0
100
AcDbBlockEnd
  0
ENDSEC
  0
SECTION
  2
ENTITIES
  0
LINE
  5
45
100
AcDbEntity
  8
0
  6
DASHDOT
 62
               4
100
AcDbLine
 10
373.68013347674071
 20
872.88448886714423
 30
0.0
 11
1309.6801334767406
 21
872.88448886714423
 31
0.0
  0
LINE
  5
46
100
AcDbEntity
  8
0
  6
DASHDOT
 62
               4
100
AcDbLine
 10
909.68013347674071
 20
195.88448886714411
 30
0.0
 11
909.68013347674071
 21
1142.8844888671442
 31
0.0
  0
LINE
  5
47
100
AcDbEntity
  8
0
  6
Continuous
 62
               6
100
AcDbLine
 10
759.68013347674071
 20
847.88448886714423
 30
0.0
 11
1309.6801334767406
 21
847.88448886714423
 31
0.0
  0
LINE
  5
48
100
AcDbEntity
  8
0
  6
Continuous
 62
               6
100
AcDbLine
 10
1059.6801334767406
 20
647.88448886714423
 30
0.0
 11
1309.6801334767406
 21
647.88448886714423
 31
0.0
  0
LINE
  5
49
100
AcDbEntity
  8
0
  6
Continuous
 62
               6
100
AcDbLine
 10
859.68013347674071
 20
772.88448886714423
 30
0.0
 11
959.68013347674071
 21
772.88448886714423
 31
0.0
  0
LINE
  5
4A
100
AcDbEntity
  8
0
  6
Continuous
 62
               6
100
AcDbLine
 10
959.68013347674071
 20
772.88448886714423
 30
0.0
 11
959.68013347674071
 21
764.88448886714423
 31
0.0
  0
LINE
  5
4B
100
AcDbEntity
  8
0
  6
Continuous
 62
               6
100
AcDbLine
 10
959.68013347674071
 20
572.88448886714423
 30
0.0
 11
859.68013347674071
 21
572.88448886714423
 31
0.0
  0
LINE
  5
4C
100
AcDbEntity
  8
0
  6
Continuous
 62
               6
100
AcDbLine
 10
859.68013347674071
 20
572.88448886714423
 30
0.0
 11
859.68013347674071
 21
580.88448886714423
 31
0.0
  0
LINE
  5
4D
100
AcDbEntity
  8
0
  6
Continuous
 62
               6
100
AcDbLine
 10
923.43013347674071
 20
580.88448886714423
 30
0.0
 11
959.68013347674071
 21
580.88448886714423
 31
0.0
  0
LINE
  5
4E
100
AcDbEntity
  8
0
  6
Continuous
 62
               6
100
AcDbLine
 10
895.93013347674071
 20
764.88448886714423
 30
0.0
 11
859.68013347674071
 21
764.88448886714423
 31
0.0
  0
LINE
  5
4F
100
AcDbEntity
  8
0
  6
Continuous
 62
               6
100
AcDbLine
 10
906.93013347674071
 20
753.88448886714423
 30
0.0
 11
906.93013347674071
 21
591.88448886714423
 31
0.0
  0
LINE
  5
50
100
AcDbEntity
  8
0
  6
Continuous
 62
               6
100
AcDbLine
 10
912.43013347674071
 20
753.88448886714423
 30
0.0
 11
912.43013347674071
 21
591.88448886714423
 31
0.0
  0
LINE
  5
51
100
AcDbEntity
  8
0
  6
Continuous
 62
               6
100
AcDbLine
 10
959.68013347674071
 20
580.88448886714423
 30
0.0
 11
959.68013347674071
 21
572.88448886714423
 31
0.0
  0
LINE
  5
52
100
AcDbEntity
  8
0
  6
Continuous
 62
               6
100
AcDbLine
 10
859.68013347674071
 20
764.88448886714423
 30
0.0
 11
859.68013347674071
 21
772.88448886714423
 31
0.0
  0
LINE
  5
53
100
AcDbEntity
  8
0
  6
Continuous
 62
               6
100
AcDbLine
 10
895.93013347674071
 20
580.88448886714423
 30
0.0
 11
859.68013347674071
 21
580.88448886714423
 31
0.0
  0
LINE
  5
54
100
AcDbEntity
  8
0
  6
Continuous
 62
               6
100
AcDbLine
 10
923.43013347674071
 20
764.88448886714423
 30
0.0
 11
959.68013347674071
 21
764.88448886714423
 31
0.0
  0
LINE
  5
55
100
AcDbEntity
  8
0
  6
Continuous
 62
               6
100
AcDbLine
 10
759.68013347674071
 20
847.88448886714423
 30
0.0
 11
759.68013347674071
 21
272.88448886714411
 31
0.0
  0
LINE
  5
56
100
AcDbEntity
  8
0
  6
Continuous
 62
               6
100
AcDbLine
 10
1059.6801334767406
 20
647.88448886714423
 30
0.0
 11
1059.6801334767406
 21
272.88448886714411
 31
0.0
  0
LINE
  5
57
100
AcDbEntity
  8
0
  6
Continuous
 62
               6
100
AcDbLine
 10
834.68013347674071
 20
1142.8844888671442
 30
0.0
 11
834.68013347674071
 21
847.88448886714423
 31
0.0
  0
LINE
  5
58
100
AcDbEntity
  8
0
  6
Continuous
 62
               6
100
AcDbLine
 10
984.68013347674071
 20
1142.8844888671442
 30
0.0
 11
984.68013347674071
 21
847.88448886714423
 31
0.0
  0
LINE
  5
59
100
AcDbEntity
  8
0
  6
DASHED
 62
               4
100
AcDbLine
 10
834.68013347674071
 20
845.88448886714446
 30
0.0
 11
834.68013347674071
 21
847.88448886714446
 31
0.0
  0
LINE
  5
5A
100
AcDbEntity
  8
0
  6
DASHED
 62
               4
100
AcDbLine
 10
761.68013347674071
 20
772.88448886714423
 30
0.0
 11
759.68013347674071
 21
772.88448886714423
 31
0.0
  0
LINE
  5
5B
100
AcDbEntity
  8
0
  6
DASHED
 62
               4
100
AcDbLine
 10
759.68013347674071
 20
772.88448886714423
 30
0.0
 11
759.68013347674071
 21
847.88448886714423
 31
0.0
  0
LINE
  5
5C
100
AcDbEntity
  8
0
  6
DASHED
 62
               4
100
AcDbLine
 10
759.68013347674071
 20
847.88448886714423
 30
0.0
 11
834.68013347674071
 21
847.88448886714446
 31
0.0
  0
LINE
  5
5D
100
AcDbEntity
  8
0
  6
DASHED
 62
               4
100
AcDbLine
 10
765.68013347674071
 20
776.88448886714423
 30
0.0
 11
765.68013347674071
 21
833.38448886714423
 31
0.0
  0
LINE
  5
5E
100
AcDbEntity
  8
0
  6
DASHED
 62
               4
100
AcDbLine
 10
830.68013347674071
 20
841.88448886714446
 30
0.0
 11
774.18013347674071
 21
841.88448886714423
 31
0.0
  0
LINE
  5
5F
100
AcDbEntity
  8
0
  6
Continuous
 62
               7
100
AcDbLine
 10
709.68013347674071
 20
582.88448886714423
 30
0.0
 11
709.68013347674071
 21
1142.8844888671442
 31
0.0
  0
LINE
  5
60
100
AcDbEntity
  8
0
  6
Continuous
 62
               7
100
AcDbLine
 10
609.68013347674071
 20
1142.8844888671442
 30
0.0
 11
609.68013347674071
 21
572.88448886714423
 31
0.0
  0
LINE
  5
61
100
AcDbEntity
  8
0
  6
Continuous
 62
               7
100
AcDbLine
 10
699.68013347674071
 20
572.88448886714423
 30
0.0
 11
619.68013347674071
 21
572.88448886714423
 31
0.0
  0
LINE
  5
62
100
AcDbEntity
  8
0
  6
Continuous
 62
               7
100
AcDbLine
 10
589.68013347674071
 20
1142.8844888671442
 30
0.0
 11
589.68013347674071
 21
435.88448886714411
 31
0.0
  0
LINE
  5
63
100
AcDbEntity
  8
0
  6
Continuous
 62
               7
100
AcDbLine
 10
583.68013347674071
 20
1142.8844888671442
 30
0.0
 11
583.68013347674071
 21
435.88448886714411
 31
0.0
  0
LINE
  5
64
100
AcDbEntity
  8
0
  6
Continuous
 62
               7
100
AcDbLine
 10
583.68013347674071
 20
435.88448886714411
 30
0.0
 11
589.68013347674071
 21
435.88448886714411
 31
0.0
  0
LINE
  5
65
100
AcDbEntity
  8
0
  6
Continuous
 62
               7
100
AcDbLine
 10
619.68013347674071
 20
572.88448886714423
 30
0.0
 11
609.68013347674071
 21
582.88448886714423
 31
0.0
  0
LINE
  5
66
100
AcDbEntity
  8
0
  6
Continuous
 62
               7
100
AcDbLine
 10
699.68013347674071
 20
572.88448886714423
 30
0.0
 11
709.68013347674071
 21
582.88448886714423
 31
0.0
  0
LINE
  5
67
100
AcDbEntity
  8
0
  6
Continuous
 62
               7
100
AcDbLine
 10
709.68013347674071
 20
696.21897841063196
 30
0.0
 11
609.68013347674071
 21
796.21897841063196
 31
0.0
  0
LINE
  5
68
100
AcDbEntity
  8
0
  6
Continuous
 62
               7
100
AcDbLine
 10
709.68013347674071
 20
710.3611140343628
 30
0.0
 11
609.68013347674071
 21
810.3611140343628
 31
0.0
  0
LINE
  5
69
100
AcDbEntity
  8
0
  6
Continuous
 62
               7
100
AcDbLine
 10
709.68013347674071
 20
979.06169088525075
 30
0.0
 11
609.68013347674071
 21
1079.0616908852512
 31
0.0
  0
LINE
  5
6A
100
AcDbEntity
  8
0
  6
Continuous
 62
               7
100
AcDbLine
 10
709.68013347674071
 20
993.20382650898182
 30
0.0
 11
609.68013347674071
 21
1093.2038265089823
 31
0.0
  0
LINE
  5
6B
100
AcDbEntity
  8
0
  6
Continuous
 62
               6
100
AcDbLine
 10
1059.6801334767406
 20
386.48838579925155
 30
0.0
 11
946.07623654463316
 21
272.88448886714411
 31
0.0
  0
LINE
  5
6C
100
AcDbEntity
  8
0
  6
Continuous
 62
               6
100
AcDbLine
 10
1059.6801334767406
 20
393.55945361111685
 30
0.0
 11
939.00516873276786
 21
272.88448886714411
 31
0.0
  0
LINE
  5
6D
100
AcDbEntity
  8
0
  6
Continuous
 62
               6
100
AcDbLine
 10
1309.6801334767406
 20
650.63052142298238
 30
0.0
 11
1306.9341009209024
 21
647.88448886714423
 31
0.0
  0
LINE
  5
6E
100
AcDbEntity
  8
0
  6
Continuous
 62
               6
100
AcDbLine
 10
1059.6801334767406
 20
400.63052142298238
 30
0.0
 11
931.93410092090232
 21
272.88448886714411
 31
0.0
  0
LINE
  5
6F
100
AcDbEntity
  8
0
  6
Continuous
 62
               6
100
AcDbLine
 10
1308.9442021886694
 20
847.88448886714423
 30
0.0
 11
1108.9442021886694
 21
647.88448886714423
 31
0.0
  0
LINE
  5
70
100
AcDbEntity
  8
0
  6
Continuous
 62
               6
100
AcDbLine
 10
1059.6801334767406
 20
598.6204201552157
 30
0.0
 11
759.68013347674071
 21
298.6204201552157
 31
0.0
  0
LINE
  5
71
100
AcDbEntity
  8
0
  6
Continuous
 62
               6
100
AcDbLine
 10
1301.8731343768036
 20
847.88448886714423
 30
0.0
 11
1101.8731343768036
 21
647.88448886714423
 31
0.0
  0
LINE
  5
72
100
AcDbEntity
  8
0
  6
Continuous
 62
               6
100
AcDbLine
 10
1059.6801334767406
 20
605.69148796708123
 30
0.0
 11
759.68013347674071
 21
305.69148796708123
 31
0.0
  0
LINE
  5
73
100
AcDbEntity
  8
0
  6
Continuous
 62
               6
100
AcDbLine
 10
1294.8020665649383
 20
847.88448886714423
 30
0.0
 11
1094.8020665649383
 21
647.88448886714423
 31
0.0
  0
LINE
  5
74
100
AcDbEntity
  8
0
  6
Continuous
 62
               6
100
AcDbLine
 10
1059.6801334767406
 20
612.76255577894653
 30
0.0
 11
759.68013347674071
 21
312.76255577894676
 31
0.0
  0
LINE
  5
75
100
AcDbEntity
  8
0
  6
Continuous
 62
               6
100
AcDbLine
 10
1096.8121678327043
 20
847.88448886714423
 30
0.0
 11
759.68013347674071
 21
510.75245451118008
 31
0.0
  0
LINE
  5
76
100
AcDbEntity
  8
0
  6
Continuous
 62
               6
100
AcDbLine
 10
1089.7411000208394
 20
847.88448886714423
 30
0.0
 11
759.68013347674071
 21
517.82352232304561
 31
0.0
  0
LINE
  5
77
100
AcDbEntity
  8
0
  6
Continuous
 62
               6
100
AcDbLine
 10
1082.6700322089746
 20
847.88448886714423
 30
0.0
 11
759.68013347674071
 21
524.89459013491091
 31
0.0
  0
LINE
  5
78
100
AcDbEntity
  8
0
  6
Continuous
 62
               6
100
AcDbLine
 10
884.68013347674071
 20
847.88448886714423
 30
0.0
 11
759.68013347674071
 21
722.88448886714423
 31
0.0
  0
LINE
  5
79
100
AcDbEntity
  8
0
  6
Continuous
 62
               6
100
AcDbLine
 10
877.60906566487517
 20
847.88448886714423
 30
0.0
 11
759.68013347674071
 21
729.95555667900976
 31
0.0
  0
LINE
  5
7A
100
AcDbEntity
  8
0
  6
Continuous
 62
               6
100
AcDbLine
 10
870.53799785300964
 20
847.88448886714423
 30
0.0
 11
759.68013347674071
 21
737.02662449087529
 31
0.0
  0
LINE
  5
7B
100
AcDbEntity
  8
0
  6
Continuous
 62
               6
100
AcDbLine
 10
664.68013347674071
 20
568.88448886714423
 30
0.0
 11
664.68013347674071
 21
566.88448886714423
 31
0.0
  0
LINE
  5
7C
100
AcDbEntity
  8
0
  6
Continuous
 62
               6
100
AcDbLine
 10
727.68013347674071
 20
631.88448886714423
 30
0.0
 11
729.68013347674071
 21
631.88448886714423
 31
0.0
  0
LINE
  5
7D
100
AcDbEntity
  8
0
  6
Continuous
 62
               6
100
AcDbLine
 10
729.68013347674071
 20
631.88448886714423
 30
0.0
 11
729.68013347674071
 21
566.88448886714423
 31
0.0
  0
LINE
  5
7E
100
AcDbEntity
  8
0
  6
Continuous
 62
               6
100
AcDbLine
 10
729.68013347674071
 20
566.88448886714423
 30
0.0
 11
664.68013347674071
 21
566.88448886714423
 31
0.0
  0
LINE
  5
7F
100
AcDbEntity
  8
0
  6
Continuous
 62
               6
100
AcDbLine
 10
715.18013347674071
 20
572.88448886714423
 30
0.0
 11
668.68013347674071
 21
572.88448886714423
 31
0.0
  0
LINE
  5
80
100
AcDbEntity
  8
0
  6
Continuous
 62
               6
100
AcDbLine
 10
723.68013347674071
 20
581.38448886714423
 30
0.0
 11
723.68013347674071
 21
627.88448886714423
 31
0.0
  0
LINE
  5
81
100
AcDbEntity
  8
0
  6
Continuous
 62
               6
100
AcDbLine
 10
694.68013347674071
 20
564.88448886714423
 30
0.0
 11
694.68013347674071
 21
566.88448886714423
 31
0.0
  0
LINE
  5
82
100
AcDbEntity
  8
0
  6
Continuous
 62
               6
100
AcDbLine
 10
757.68013347674071
 20
501.88448886714411
 30
0.0
 11
759.68013347674071
 21
501.88448886714411
 31
0.0
  0
LINE
  5
83
100
AcDbEntity
  8
0
  6
Continuous
 62
               6
100
AcDbLine
 10
759.68013347674071
 20
501.88448886714411
 30
0.0
 11
759.68013347674071
 21
566.88448886714423
 31
0.0
  0
LINE
  5
84
100
AcDbEntity
  8
0
  6
Continuous
 62
               6
100
AcDbLine
 10
759.68013347674071
 20
566.88448886714423
 30
0.0
 11
694.68013347674071
 21
566.88448886714423
 31
0.0
  0
LINE
  5
85
100
AcDbEntity
  8
0
  6
Continuous
 62
               6
100
AcDbLine
 10
745.18013347674071
 20
560.88448886714423
 30
0.0
 11
698.68013347674071
 21
560.88448886714423
 31
0.0
  0
LINE
  5
86
100
AcDbEntity
  8
0
  6
Continuous
 62
               6
100
AcDbLine
 10
753.68013347674071
 20
552.38448886714411
 30
0.0
 11
753.68013347674071
 21
505.88448886714411
 31
0.0
  0
LINE
  5
87
100
AcDbEntity
  8
0
  6
DASHED
 62
               4
100
AcDbLine
 10
759.68013347674071
 20
594.38448886714423
 30
0.0
 11
765.68013347674071
 21
594.38448886714423
 31
0.0
  0
LINE
  5
88
100
AcDbEntity
  8
0
  6
DASHED
 62
               4
100
AcDbLine
 10
759.68013347674071
 20
474.38448886714411
 30
0.0
 11
765.68013347674071
 21
474.38448886714411
 31
0.0
  0
LINE
  5
89
100
AcDbEntity
  8
0
  6
DASHED
 62
               4
100
AcDbLine
 10
765.68013347674071
 20
594.38448886714423
 30
0.0
 11
765.68013347674071
 21
474.38448886714411
 31
0.0
  0
LINE
  5
8A
100
AcDbEntity
  8
0
  6
DASHED
 62
               4
100
AcDbLine
 10
759.68013347674071
 20
474.38448886714411
 30
0.0
 11
759.68013347674071
 21
594.38448886714423
 31
0.0
  0
LINE
  5
8B
100
AcDbEntity
  8
0
  6
Continuous
 62
               6
100
AcDbLine
 10
799.68013347674071
 20
851.88448886714423
 30
0.0
 11
799.68013347674071
 21
853.88448886714423
 31
0.0
  0
LINE
  5
8C
100
AcDbEntity
  8
0
  6
Continuous
 62
               6
100
AcDbLine
 10
736.68013347674071
 20
788.88448886714423
 30
0.0
 11
734.68013347674071
 21
788.88448886714423
 31
0.0
  0
LINE
  5
8D
100
AcDbEntity
  8
0
  6
Continuous
 62
               6
100
AcDbLine
 10
734.68013347674071
 20
788.88448886714423
 30
0.0
 11
734.68013347674071
 21
853.88448886714423
 31
0.0
  0
LINE
  5
8E
100
AcDbEntity
  8
0
  6
Continuous
 62
               6
100
AcDbLine
 10
734.68013347674071
 20
853.88448886714423
 30
0.0
 11
799.68013347674071
 21
853.88448886714423
 31
0.0
  0
LINE
  5
8F
100
AcDbEntity
  8
0
  6
Continuous
 62
               6
100
AcDbLine
 10
749.18013347674071
 20
847.88448886714423
 30
0.0
 11
795.68013347674071
 21
847.88448886714423
 31
0.0
  0
LINE
  5
90
100
AcDbEntity
  8
0
  6
Continuous
 62
               6
100
AcDbLine
 10
740.68013347674071
 20
839.38448886714423
 30
0.0
 11
740.68013347674071
 21
792.88448886714423
 31
0.0
  0
LINE
  5
91
100
AcDbEntity
  8
0
  6
Continuous
 62
               7
100
AcDbLine
 10
609.68013347674071
 20
574.80837042139547
 30
0.0
 11
607.75625192248947
 21
572.88448886714423
 31
0.0
  0
LINE
  5
92
100
AcDbEntity
  8
0
  6
Continuous
 62
               7
100
AcDbLine
 10
609.68013347674071
 20
581.87943823326077
 30
0.0
 11
600.68518411062394
 21
572.88448886714423
 31
0.0
  0
LINE
  5
93
100
AcDbEntity
  8
0
  6
Continuous
 62
               7
100
AcDbLine
 10
609.68013347674071
 20
588.9505060451263
 30
0.0
 11
593.6141162987584
 21
572.88448886714423
 31
0.0
  0
LINE
  5
94
100
AcDbEntity
  8
0
  6
Continuous
 62
               7
100
AcDbLine
 10
609.68013347674071
 20
596.02157385699184
 30
0.0
 11
589.68013347674071
 21
576.02157385699184
 31
0.0
  0
LINE
  5
95
100
AcDbEntity
  8
0
  6
Continuous
 62
               7
100
AcDbLine
 10
609.68013347674071
 20
603.09264166885737
 30
0.0
 11
589.68013347674071
 21
583.09264166885714
 31
0.0
  0
LINE
  5
96
100
AcDbEntity
  8
0
  6
Continuous
 62
               7
100
AcDbLine
 10
609.68013347674071
 20
610.16370948072267
 30
0.0
 11
589.68013347674071
 21
590.16370948072267
 31
0.0
  0
LINE
  5
97
100
AcDbEntity
  8
0
  6
Continuous
 62
               7
100
AcDbLine
 10
609.68013347674071
 20
617.23477729258821
 30
0.0
 11
589.68013347674071
 21
597.23477729258821
 31
0.0
  0
LINE
  5
98
100
AcDbEntity
  8
0
  6
Continuous
 62
               7
100
AcDbLine
 10
609.68013347674071
 20
624.30584510445374
 30
0.0
 11
589.68013347674071
 21
604.30584510445374
 31
0.0
  0
LINE
  5
99
100
AcDbEntity
  8
0
  6
Continuous
 62
               7
100
AcDbLine
 10
609.68013347674071
 20
631.37691291631927
 30
0.0
 11
589.68013347674071
 21
611.37691291631904
 31
0.0
  0
LINE
  5
9A
100
AcDbEntity
  8
0
  6
Continuous
 62
               7
100
AcDbLine
 10
609.68013347674071
 20
638.44798072818458
 30
0.0
 11
589.68013347674071
 21
618.44798072818458
 31
0.0
  0
LINE
  5
9B
100
AcDbEntity
  8
0
  6
Continuous
 62
               7
100
AcDbLine
 10
609.68013347674071
 20
645.51904854005011
 30
0.0
 11
589.68013347674071
 21
625.51904854005011
 31
0.0
  0
LINE
  5
9C
100
AcDbEntity
  8
0
  6
Continuous
 62
               7
100
AcDbLine
 10
609.68013347674071
 20
652.59011635191564
 30
0.0
 11
589.68013347674071
 21
632.59011635191564
 31
0.0
  0
LINE
  5
9D
100
AcDbEntity
  8
0
  6
Continuous
 62
               7
100
AcDbLine
 10
609.68013347674071
 20
659.66118416378117
 30
0.0
 11
589.68013347674071
 21
639.66118416378117
 31
0.0
  0
LINE
  5
9E
100
AcDbEntity
  8
0
  6
Continuous
 62
               7
100
AcDbLine
 10
609.68013347674071
 20
666.73225197564648
 30
0.0
 11
589.68013347674071
 21
646.73225197564648
 31
0.0
  0
LINE
  5
9F
100
AcDbEntity
  8
0
  6
Continuous
 62
               7
100
AcDbLine
 10
609.68013347674071
 20
673.80331978751201
 30
0.0
 11
589.68013347674071
 21
653.80331978751201
 31
0.0
  0
LINE
  5
A0
100
AcDbEntity
  8
0
  6
Continuous
 62
               7
100
AcDbLine
 10
609.68013347674071
 20
680.87438759937754
 30
0.0
 11
589.68013347674071
 21
660.87438759937754
 31
0.0
  0
LINE
  5
A1
100
AcDbEntity
  8
0
  6
Continuous
 62
               7
100
AcDbLine
 10
609.68013347674071
 20
687.94545541124307
 30
0.0
 11
589.68013347674071
 21
667.94545541124307
 31
0.0
  0
LINE
  5
A2
100
AcDbEntity
  8
0
  6
Continuous
 62
               7
100
AcDbLine
 10
609.68013347674071
 20
695.01652322310838
 30
0.0
 11
589.68013347674071
 21
675.01652322310838
 31
0.0
  0
LINE
  5
A3
100
AcDbEntity
  8
0
  6
Continuous
 62
               7
100
AcDbLine
 10
609.68013347674071
 20
702.08759103497391
 30
0.0
 11
589.68013347674071
 21
682.08759103497391
 31
0.0
  0
LINE
  5
A4
100
AcDbEntity
  8
0
  6
Continuous
 62
               7
100
AcDbLine
 10
609.68013347674071
 20
709.15865884683944
 30
0.0
 11
589.68013347674071
 21
689.15865884683944
 31
0.0
  0
LINE
  5
A5
100
AcDbEntity
  8
0
  6
Continuous
 62
               7
100
AcDbLine
 10
609.68013347674071
 20
716.22972665870498
 30
0.0
 11
589.68013347674071
 21
696.22972665870498
 31
0.0
  0
LINE
  5
A6
100
AcDbEntity
  8
0
  6
Continuous
 62
               7
100
AcDbLine
 10
609.68013347674071
 20
723.30079447057028
 30
0.0
 11
589.68013347674071
 21
703.30079447057028
 31
0.0
  0
LINE
  5
A7
100
AcDbEntity
  8
0
  6
Continuous
 62
               7
100
AcDbLine
 10
609.68013347674071
 20
730.37186228243581
 30
0.0
 11
589.68013347674071
 21
710.37186228243581
 31
0.0
  0
LINE
  5
A8
100
AcDbEntity
  8
0
  6
Continuous
 62
               7
100
AcDbLine
 10
609.68013347674071
 20
737.44293009430135
 30
0.0
 11
589.68013347674071
 21
717.44293009430135
 31
0.0
  0
LINE
  5
A9
100
AcDbEntity
  8
0
  6
Continuous
 62
               7
100
AcDbLine
 10
609.68013347674071
 20
744.51399790616688
 30
0.0
 11
589.68013347674071
 21
724.51399790616688
 31
0.0
  0
LINE
  5
AA
100
AcDbEntity
  8
0
  6
Continuous
 62
               7
100
AcDbLine
 10
609.68013347674071
 20
751.58506571803218
 30
0.0
 11
589.68013347674071
 21
731.58506571803218
 31
0.0
  0
LINE
  5
AB
100
AcDbEntity
  8
0
  6
Continuous
 62
               7
100
AcDbLine
 10
609.68013347674071
 20
758.65613352989772
 30
0.0
 11
589.68013347674071
 21
738.65613352989772
 31
0.0
  0
LINE
  5
AC
100
AcDbEntity
  8
0
  6
Continuous
 62
               7
100
AcDbLine
 10
609.68013347674071
 20
765.72720134176325
 30
0.0
 11
589.68013347674071
 21
745.72720134176325
 31
0.0
  0
LINE
  5
AD
100
AcDbEntity
  8
0
  6
Continuous
 62
               7
100
AcDbLine
 10
609.68013347674071
 20
772.79826915362878
 30
0.0
 11
589.68013347674071
 21
752.79826915362878
 31
0.0
  0
LINE
  5
AE
100
AcDbEntity
  8
0
  6
Continuous
 62
               7
100
AcDbLine
 10
609.68013347674071
 20
779.86933696549409
 30
0.0
 11
589.68013347674071
 21
759.86933696549409
 31
0.0
  0
LINE
  5
AF
100
AcDbEntity
  8
0
  6
Continuous
 62
               7
100
AcDbLine
 10
609.68013347674071
 20
786.94040477735962
 30
0.0
 11
589.68013347674071
 21
766.94040477735962
 31
0.0
  0
LINE
  5
B0
100
AcDbEntity
  8
0
  6
Continuous
 62
               7
100
AcDbLine
 10
609.68013347674071
 20
794.01147258922515
 30
0.0
 11
589.68013347674071
 21
774.01147258922515
 31
0.0
  0
LINE
  5
B1
100
AcDbEntity
  8
0
  6
Continuous
 62
               7
100
AcDbLine
 10
609.68013347674071
 20
801.08254040109068
 30
0.0
 11
589.68013347674071
 21
781.08254040109068
 31
0.0
  0
LINE
  5
B2
100
AcDbEntity
  8
0
  6
Continuous
 62
               7
100
AcDbLine
 10
609.68013347674071
 20
808.15360821295599
 30
0.0
 11
589.68013347674071
 21
788.15360821295599
 31
0.0
  0
LINE
  5
B3
100
AcDbEntity
  8
0
  6
Continuous
 62
               7
100
AcDbLine
 10
609.68013347674071
 20
815.22467602482152
 30
0.0
 11
589.68013347674071
 21
795.22467602482152
 31
0.0
  0
LINE
  5
B4
100
AcDbEntity
  8
0
  6
Continuous
 62
               7
100
AcDbLine
 10
609.68013347674071
 20
822.29574383668705
 30
0.0
 11
589.68013347674071
 21
802.29574383668705
 31
0.0
  0
LINE
  5
B5
100
AcDbEntity
  8
0
  6
Continuous
 62
               7
100
AcDbLine
 10
609.68013347674071
 20
829.36681164855258
 30
0.0
 11
589.68013347674071
 21
809.36681164855258
 31
0.0
  0
LINE
  5
B6
100
AcDbEntity
  8
0
  6
Continuous
 62
               7
100
AcDbLine
 10
609.68013347674071
 20
836.43787946041789
 30
0.0
 11
589.68013347674071
 21
816.43787946041789
 31
0.0
  0
LINE
  5
B7
100
AcDbEntity
  8
0
  6
Continuous
 62
               7
100
AcDbLine
 10
609.68013347674071
 20
843.50894727228342
 30
0.0
 11
589.68013347674071
 21
823.50894727228342
 31
0.0
  0
LINE
  5
B8
100
AcDbEntity
  8
0
  6
Continuous
 62
               7
100
AcDbLine
 10
609.68013347674071
 20
850.58001508414895
 30
0.0
 11
589.68013347674071
 21
830.58001508414895
 31
0.0
  0
LINE
  5
B9
100
AcDbEntity
  8
0
  6
Continuous
 62
               7
100
AcDbLine
 10
609.68013347674071
 20
857.65108289601449
 30
0.0
 11
589.68013347674071
 21
837.65108289601449
 31
0.0
  0
LINE
  5
BA
100
AcDbEntity
  8
0
  6
Continuous
 62
               7
100
AcDbLine
 10
609.68013347674071
 20
864.72215070787979
 30
0.0
 11
589.68013347674071
 21
844.72215070787979
 31
0.0
  0
LINE
  5
BB
100
AcDbEntity
  8
0
  6
Continuous
 62
               7
100
AcDbLine
 10
609.68013347674071
 20
871.79321851974532
 30
0.0
 11
589.68013347674071
 21
851.79321851974532
 31
0.0
  0
LINE
  5
BC
100
AcDbEntity
  8
0
  6
Continuous
 62
               7
100
AcDbLine
 10
609.68013347674071
 20
878.86428633161086
 30
0.0
 11
589.68013347674071
 21
858.86428633161086
 31
0.0
  0
LINE
  5
BD
100
AcDbEntity
  8
0
  6
Continuous
 62
               7
100
AcDbLine
 10
609.68013347674071
 20
885.93535414347639
 30
0.0
 11
589.68013347674071
 21
865.93535414347639
 31
0.0
  0
LINE
  5
BE
100
AcDbEntity
  8
0
  6
Continuous
 62
               7
100
AcDbLine
 10
609.68013347674071
 20
893.00642195534169
 30
0.0
 11
589.68013347674071
 21
873.00642195534169
 31
0.0
  0
LINE
  5
BF
100
AcDbEntity
  8
0
  6
Continuous
 62
               7
100
AcDbLine
 10
609.68013347674071
 20
900.07748976720723
 30
0.0
 11
589.68013347674071
 21
880.07748976720723
 31
0.0
  0
LINE
  5
C0
100
AcDbEntity
  8
0
  6
Continuous
 62
               7
100
AcDbLine
 10
609.68013347674071
 20
907.14855757907276
 30
0.0
 11
589.68013347674071
 21
887.14855757907276
 31
0.0
  0
LINE
  5
C1
100
AcDbEntity
  8
0
  6
Continuous
 62
               7
100
AcDbLine
 10
609.68013347674071
 20
914.21962539093829
 30
0.0
 11
589.68013347674071
 21
894.21962539093829
 31
0.0
  0
LINE
  5
C2
100
AcDbEntity
  8
0
  6
Continuous
 62
               7
100
AcDbLine
 10
609.68013347674071
 20
921.2906932028036
 30
0.0
 11
589.68013347674071
 21
901.2906932028036
 31
0.0
  0
LINE
  5
C3
100
AcDbEntity
  8
0
  6
Continuous
 62
               7
100
AcDbLine
 10
609.68013347674071
 20
928.36176101466913
 30
0.0
 11
589.68013347674071
 21
908.36176101466913
 31
0.0
  0
LINE
  5
C4
100
AcDbEntity
  8
0
  6
Continuous
 62
               7
100
AcDbLine
 10
609.68013347674071
 20
935.43282882653466
 30
0.0
 11
589.68013347674071
 21
915.43282882653466
 31
0.0
  0
LINE
  5
C5
100
AcDbEntity
  8
0
  6
Continuous
 62
               7
100
AcDbLine
 10
609.68013347674071
 20
942.50389663840019
 30
0.0
 11
589.68013347674071
 21
922.50389663840019
 31
0.0
  0
LINE
  5
C6
100
AcDbEntity
  8
0
  6
Continuous
 62
               7
100
AcDbLine
 10
609.68013347674071
 20
949.5749644502655
 30
0.0
 11
589.68013347674071
 21
929.5749644502655
 31
0.0
  0
LINE
  5
C7
100
AcDbEntity
  8
0
  6
Continuous
 62
               7
100
AcDbLine
 10
609.68013347674071
 20
956.64603226213103
 30
0.0
 11
589.68013347674071
 21
936.64603226213103
 31
0.0
  0
LINE
  5
C8
100
AcDbEntity
  8
0
  6
Continuous
 62
               7
100
AcDbLine
 10
609.68013347674071
 20
963.71710007399656
 30
0.0
 11
589.68013347674071
 21
943.71710007399656
 31
0.0
  0
LINE
  5
C9
100
AcDbEntity
  8
0
  6
Continuous
 62
               7
100
AcDbLine
 10
609.68013347674071
 20
970.78816788586209
 30
0.0
 11
589.68013347674071
 21
950.78816788586209
 31
0.0
  0
LINE
  5
CA
100
AcDbEntity
  8
0
  6
Continuous
 62
               7
100
AcDbLine
 10
604.70538664615754
 20
972.88448886714423
 30
0.0
 11
589.68013347674071
 21
957.8592356977274
 31
0.0
  0
LINE
  5
CB
100
AcDbEntity
  8
0
  6
Continuous
 62
               7
100
AcDbLine
 10
597.63431883429178
 20
972.88448886714423
 30
0.0
 11
589.68013347674071
 21
964.93030350959293
 31
0.0
  0
LINE
  5
CC
100
AcDbEntity
  8
0
  6
Continuous
 62
               7
100
AcDbLine
 10
590.56325102242647
 20
972.88448886714423
 30
0.0
 11
589.68013347674071
 21
972.00137132145846
 31
0.0
  0
LINE
  5
CD
100
AcDbEntity
  8
0
  6
Continuous
 62
               7
100
AcDbLine
 10
592.40091286316203
 20
572.88448886714423
 30
0.0
 11
589.68013347674071
 21
575.60526825356555
 31
0.0
  0
LINE
  5
CE
100
AcDbEntity
  8
0
  6
Continuous
 62
               7
100
AcDbLine
 10
599.47198067502757
 20
572.88448886714423
 30
0.0
 11
589.68013347674071
 21
582.67633606543109
 31
0.0
  0
LINE
  5
CF
100
AcDbEntity
  8
0
  6
Continuous
 62
               7
100
AcDbLine
 10
606.5430484868931
 20
572.88448886714423
 30
0.0
 11
589.68013347674071
 21
589.74740387729662
 31
0.0
  0
LINE
  5
D0
100
AcDbEntity
  8
0
  6
Continuous
 62
               7
100
AcDbLine
 10
609.68013347674071
 20
576.81847168916215
 30
0.0
 11
589.68013347674071
 21
596.81847168916215
 31
0.0
  0
LINE
  5
D1
100
AcDbEntity
  8
0
  6
Continuous
 62
               7
100
AcDbLine
 10
609.68013347674071
 20
583.88953950102746
 30
0.0
 11
589.68013347674071
 21
603.88953950102746
 31
0.0
  0
LINE
  5
D2
100
AcDbEntity
  8
0
  6
Continuous
 62
               7
100
AcDbLine
 10
609.68013347674071
 20
590.96060731289299
 30
0.0
 11
589.68013347674071
 21
610.96060731289299
 31
0.0
  0
LINE
  5
D3
100
AcDbEntity
  8
0
  6
Continuous
 62
               7
100
AcDbLine
 10
609.68013347674071
 20
598.03167512475852
 30
0.0
 11
589.68013347674071
 21
618.03167512475852
 31
0.0
  0
LINE
  5
D4
100
AcDbEntity
  8
0
  6
Continuous
 62
               7
100
AcDbLine
 10
609.68013347674071
 20
605.10274293662383
 30
0.0
 11
589.68013347674071
 21
625.10274293662405
 31
0.0
  0
LINE
  5
D5
100
AcDbEntity
  8
0
  6
Continuous
 62
               7
100
AcDbLine
 10
609.68013347674071
 20
612.17381074848936
 30
0.0
 11
589.68013347674071
 21
632.17381074848936
 31
0.0
  0
LINE
  5
D6
100
AcDbEntity
  8
0
  6
Continuous
 62
               7
100
AcDbLine
 10
609.68013347674071
 20
619.24487856035489
 30
0.0
 11
589.68013347674071
 21
639.24487856035489
 31
0.0
  0
LINE
  5
D7
100
AcDbEntity
  8
0
  6
Continuous
 62
               7
100
AcDbLine
 10
609.68013347674071
 20
626.31594637222042
 30
0.0
 11
589.68013347674071
 21
646.31594637222042
 31
0.0
  0
LINE
  5
D8
100
AcDbEntity
  8
0
  6
Continuous
 62
               7
100
AcDbLine
 10
609.68013347674071
 20
633.38701418408596
 30
0.0
 11
589.68013347674071
 21
653.38701418408596
 31
0.0
  0
LINE
  5
D9
100
AcDbEntity
  8
0
  6
Continuous
 62
               7
100
AcDbLine
 10
609.68013347674071
 20
640.45808199595126
 30
0.0
 11
589.68013347674071
 21
660.45808199595126
 31
0.0
  0
LINE
  5
DA
100
AcDbEntity
  8
0
  6
Continuous
 62
               7
100
AcDbLine
 10
609.68013347674071
 20
647.52914980781679
 30
0.0
 11
589.68013347674071
 21
667.52914980781679
 31
0.0
  0
LINE
  5
DB
100
AcDbEntity
  8
0
  6
Continuous
 62
               7
100
AcDbLine
 10
609.68013347674071
 20
654.60021761968233
 30
0.0
 11
589.68013347674071
 21
674.60021761968233
 31
0.0
  0
LINE
  5
DC
100
AcDbEntity
  8
0
  6
Continuous
 62
               7
100
AcDbLine
 10
609.68013347674071
 20
661.67128543154786
 30
0.0
 11
589.68013347674071
 21
681.67128543154786
 31
0.0
  0
LINE
  5
DD
100
AcDbEntity
  8
0
  6
Continuous
 62
               7
100
AcDbLine
 10
609.68013347674071
 20
668.74235324341316
 30
0.0
 11
589.68013347674071
 21
688.74235324341316
 31
0.0
  0
LINE
  5
DE
100
AcDbEntity
  8
0
  6
Continuous
 62
               7
100
AcDbLine
 10
609.68013347674071
 20
675.8134210552787
 30
0.0
 11
589.68013347674071
 21
695.8134210552787
 31
0.0
  0
LINE
  5
DF
100
AcDbEntity
  8
0
  6
Continuous
 62
               7
100
AcDbLine
 10
609.68013347674071
 20
682.88448886714423
 30
0.0
 11
589.68013347674071
 21
702.88448886714423
 31
0.0
  0
LINE
  5
E0
100
AcDbEntity
  8
0
  6
Continuous
 62
               7
100
AcDbLine
 10
609.68013347674071
 20
689.95555667900976
 30
0.0
 11
589.68013347674071
 21
709.95555667900976
 31
0.0
  0
LINE
  5
E1
100
AcDbEntity
  8
0
  6
Continuous
 62
               7
100
AcDbLine
 10
609.68013347674071
 20
697.02662449087507
 30
0.0
 11
589.68013347674071
 21
717.02662449087507
 31
0.0
  0
LINE
  5
E2
100
AcDbEntity
  8
0
  6
Continuous
 62
               7
100
AcDbLine
 10
609.68013347674071
 20
704.0976923027406
 30
0.0
 11
589.68013347674071
 21
724.0976923027406
 31
0.0
  0
LINE
  5
E3
100
AcDbEntity
  8
0
  6
Continuous
 62
               7
100
AcDbLine
 10
609.68013347674071
 20
711.16876011460613
 30
0.0
 11
589.68013347674071
 21
731.16876011460613
 31
0.0
  0
LINE
  5
E4
100
AcDbEntity
  8
0
  6
Continuous
 62
               7
100
AcDbLine
 10
609.68013347674071
 20
718.23982792647166
 30
0.0
 11
589.68013347674071
 21
738.23982792647166
 31
0.0
  0
LINE
  5
E5
100
AcDbEntity
  8
0
  6
Continuous
 62
               7
100
AcDbLine
 10
609.68013347674071
 20
725.31089573833697
 30
0.0
 11
589.68013347674071
 21
745.31089573833697
 31
0.0
  0
LINE
  5
E6
100
AcDbEntity
  8
0
  6
Continuous
 62
               7
100
AcDbLine
 10
609.68013347674071
 20
732.3819635502025
 30
0.0
 11
589.68013347674071
 21
752.3819635502025
 31
0.0
  0
LINE
  5
E7
100
AcDbEntity
  8
0
  6
Continuous
 62
               7
100
AcDbLine
 10
609.68013347674071
 20
739.45303136206803
 30
0.0
 11
589.68013347674071
 21
759.45303136206803
 31
0.0
  0
LINE
  5
E8
100
AcDbEntity
  8
0
  6
Continuous
 62
               7
100
AcDbLine
 10
609.68013347674071
 20
746.52409917393356
 30
0.0
 11
589.68013347674071
 21
766.52409917393356
 31
0.0
  0
LINE
  5
E9
100
AcDbEntity
  8
0
  6
Continuous
 62
               7
100
AcDbLine
 10
609.68013347674071
 20
753.59516698579887
 30
0.0
 11
589.68013347674071
 21
773.59516698579887
 31
0.0
  0
LINE
  5
EA
100
AcDbEntity
  8
0
  6
Continuous
 62
               7
100
AcDbLine
 10
609.68013347674071
 20
760.6662347976644
 30
0.0
 11
589.68013347674071
 21
780.6662347976644
 31
0.0
  0
LINE
  5
EB
100
AcDbEntity
  8
0
  6
Continuous
 62
               7
100
AcDbLine
 10
609.68013347674071
 20
767.73730260952993
 30
0.0
 11
589.68013347674071
 21
787.73730260952993
 31
0.0
  0
LINE
  5
EC
100
AcDbEntity
  8
0
  6
Continuous
 62
               7
100
AcDbLine
 10
609.68013347674071
 20
774.80837042139547
 30
0.0
 11
589.68013347674071
 21
794.80837042139547
 31
0.0
  0
LINE
  5
ED
100
AcDbEntity
  8
0
  6
Continuous
 62
               7
100
AcDbLine
 10
609.68013347674071
 20
781.87943823326077
 30
0.0
 11
589.68013347674071
 21
801.87943823326077
 31
0.0
  0
LINE
  5
EE
100
AcDbEntity
  8
0
  6
Continuous
 62
               7
100
AcDbLine
 10
609.68013347674071
 20
788.9505060451263
 30
0.0
 11
589.68013347674071
 21
808.9505060451263
 31
0.0
  0
LINE
  5
EF
100
AcDbEntity
  8
0
  6
Continuous
 62
               7
100
AcDbLine
 10
609.68013347674071
 20
796.02157385699184
 30
0.0
 11
589.68013347674071
 21
816.02157385699184
 31
0.0
  0
LINE
  5
F0
100
AcDbEntity
  8
0
  6
Continuous
 62
               7
100
AcDbLine
 10
609.68013347674071
 20
803.09264166885737
 30
0.0
 11
589.68013347674071
 21
823.09264166885737
 31
0.0
  0
LINE
  5
F1
100
AcDbEntity
  8
0
  6
Continuous
 62
               7
100
AcDbLine
 10
609.68013347674071
 20
810.16370948072267
 30
0.0
 11
589.68013347674071
 21
830.16370948072267
 31
0.0
  0
LINE
  5
F2
100
AcDbEntity
  8
0
  6
Continuous
 62
               7
100
AcDbLine
 10
609.68013347674071
 20
817.23477729258821
 30
0.0
 11
589.68013347674071
 21
837.23477729258821
 31
0.0
  0
LINE
  5
F3
100
AcDbEntity
  8
0
  6
Continuous
 62
               7
100
AcDbLine
 10
609.68013347674071
 20
824.30584510445374
 30
0.0
 11
589.68013347674071
 21
844.30584510445374
 31
0.0
  0
LINE
  5
F4
100
AcDbEntity
  8
0
  6
Continuous
 62
               7
100
AcDbLine
 10
609.68013347674071
 20
831.37691291631927
 30
0.0
 11
589.68013347674071
 21
851.37691291631927
 31
0.0
  0
LINE
  5
F5
100
AcDbEntity
  8
0
  6
Continuous
 62
               7
100
AcDbLine
 10
609.68013347674071
 20
838.44798072818458
 30
0.0
 11
589.68013347674071
 21
858.44798072818458
 31
0.0
  0
LINE
  5
F6
100
AcDbEntity
  8
0
  6
Continuous
 62
               7
100
AcDbLine
 10
609.68013347674071
 20
845.51904854005011
 30
0.0
 11
589.68013347674071
 21
865.51904854005011
 31
0.0
  0
LINE
  5
F7
100
AcDbEntity
  8
0
  6
Continuous
 62
               7
100
AcDbLine
 10
609.68013347674071
 20
852.59011635191564
 30
0.0
 11
589.68013347674071
 21
872.59011635191564
 31
0.0
  0
LINE
  5
F8
100
AcDbEntity
  8
0
  6
Continuous
 62
               7
100
AcDbLine
 10
609.68013347674071
 20
859.66118416378117
 30
0.0
 11
589.68013347674071
 21
879.66118416378117
 31
0.0
  0
LINE
  5
F9
100
AcDbEntity
  8
0
  6
Continuous
 62
               7
100
AcDbLine
 10
609.68013347674071
 20
866.73225197564648
 30
0.0
 11
589.68013347674071
 21
886.73225197564648
 31
0.0
  0
LINE
  5
FA
100
AcDbEntity
  8
0
  6
Continuous
 62
               7
100
AcDbLine
 10
609.68013347674071
 20
873.80331978751201
 30
0.0
 11
589.68013347674071
 21
893.80331978751201
 31
0.0
  0
LINE
  5
FB
100
AcDbEntity
  8
0
  6
Continuous
 62
               7
100
AcDbLine
 10
609.68013347674071
 20
880.87438759937754
 30
0.0
 11
589.68013347674071
 21
900.87438759937754
 31
0.0
  0
LINE
  5
FC
100
AcDbEntity
  8
0
  6
Continuous
 62
               7
100
AcDbLine
 10
609.68013347674071
 20
887.94545541124307
 30
0.0
 11
589.68013347674071
 21
907.94545541124307
 31
0.0
  0
LINE
  5
FD
100
AcDbEntity
  8
0
  6
Continuous
 62
               7
100
AcDbLine
 10
609.68013347674071
 20
895.01652322310838
 30
0.0
 11
589.68013347674071
 21
915.01652322310838
 31
0.0
  0
LINE
  5
FE
100
AcDbEntity
  8
0
  6
Continuous
 62
               7
100
AcDbLine
 10
609.68013347674071
 20
902.08759103497391
 30
0.0
 11
589.68013347674071
 21
922.08759103497391
 31
0.0
  0
LINE
  5
FF
100
AcDbEntity
  8
0
  6
Continuous
 62
               7
100
AcDbLine
 10
609.68013347674071
 20
909.15865884683944
 30
0.0
 11
589.68013347674071
 21
929.15865884683944
 31
0.0
  0
LINE
  5
100
100
AcDbEntity
  8
0
  6
Continuous
 62
               7
100
AcDbLine
 10
609.68013347674071
 20
916.22972665870498
 30
0.0
 11
589.68013347674071
 21
936.22972665870498
 31
0.0
  0
LINE
  5
101
100
AcDbEntity
  8
0
  6
Continuous
 62
               7
100
AcDbLine
 10
609.68013347674071
 20
923.30079447057028
 30
0.0
 11
589.68013347674071
 21
943.30079447057028
 31
0.0
  0
LINE
  5
102
100
AcDbEntity
  8
0
  6
Continuous
 62
               7
100
AcDbLine
 10
609.68013347674071
 20
930.37186228243581
 30
0.0
 11
589.68013347674071
 21
950.37186228243581
 31
0.0
  0
LINE
  5
103
100
AcDbEntity
  8
0
  6
Continuous
 62
               7
100
AcDbLine
 10
609.68013347674071
 20
937.44293009430135
 30
0.0
 11
589.68013347674071
 21
957.44293009430135
 31
0.0
  0
LINE
  5
104
100
AcDbEntity
  8
0
  6
Continuous
 62
               7
100
AcDbLine
 10
609.68013347674071
 20
944.51399790616688
 30
0.0
 11
589.68013347674071
 21
964.51399790616688
 31
0.0
  0
LINE
  5
105
100
AcDbEntity
  8
0
  6
Continuous
 62
               7
100
AcDbLine
 10
609.68013347674071
 20
951.58506571803218
 30
0.0
 11
589.68013347674071
 21
971.58506571803218
 31
0.0
  0
LINE
  5
106
100
AcDbEntity
  8
0
  6
Continuous
 62
               7
100
AcDbLine
 10
609.68013347674071
 20
958.65613352989772
 30
0.0
 11
595.45177813949419
 21
972.88448886714423
 31
0.0
  0
LINE
  5
107
100
AcDbEntity
  8
0
  6
Continuous
 62
               7
100
AcDbLine
 10
609.68013347674071
 20
965.72720134176325
 30
0.0
 11
602.52284595135973
 21
972.88448886714423
 31
0.0
  0
LINE
  5
108
100
AcDbEntity
  8
0
  6
Continuous
 62
               6
100
AcDbLine
 10
711.18013347674071
 20
913.88448886714423
 30
0.0
 11
709.68013347674071
 21
913.88448886714423
 31
0.0
  0
LINE
  5
109
100
AcDbEntity
  8
0
  6
Continuous
 62
               6
100
AcDbLine
 10
769.68013347674071
 20
855.38448886714423
 30
0.0
 11
769.68013347674071
 21
853.88448886714423
 31
0.0
  0
LINE
  5
10A
100
AcDbEntity
  8
0
  6
Continuous
 62
               6
100
AcDbLine
 10
769.68013347674071
 20
853.88448886714423
 30
0.0
 11
709.68013347674071
 21
853.88448886714423
 31
0.0
  0
LINE
  5
10B
100
AcDbEntity
  8
0
  6
Continuous
 62
               6
100
AcDbLine
 10
709.68013347674071
 20
853.88448886714423
 30
0.0
 11
709.68013347674071
 21
913.88448886714423
 31
0.0
  0
LINE
  5
10C
100
AcDbEntity
  8
0
  6
Continuous
 62
               6
100
AcDbLine
 10
715.68013347674071
 20
909.38448886714423
 30
0.0
 11
715.68013347674071
 21
866.38448886714423
 31
0.0
  0
LINE
  5
10D
100
AcDbEntity
  8
0
  6
Continuous
 62
               6
100
AcDbLine
 10
765.18013347674071
 20
859.88448886714423
 30
0.0
 11
722.18013347674071
 21
859.88448886714423
 31
0.0
  0
LINE
  5
10E
100
AcDbEntity
  8
0
  6
Continuous
 62
               7
100
AcDbLine
 10
639.68013347674071
 20
942.88448886714423
 30
0.0
 11
609.68013347674071
 21
942.88448886714423
 31
0.0
  0
LINE
  5
10F
100
AcDbEntity
  8
0
  6
Continuous
 62
               7
100
AcDbLine
 10
639.68013347674071
 20
897.88448886714423
 30
0.0
 11
609.68013347674071
 21
897.88448886714423
 31
0.0
  0
LINE
  5
110
100
AcDbEntity
  8
0
  6
Continuous
 62
               7
100
AcDbLine
 10
639.68013347674071
 20
942.88448886714423
 30
0.0
 11
639.68013347674071
 21
897.88448886714423
 31
0.0
  0
LINE
  5
111
100
AcDbEntity
  8
0
  6
Continuous
 62
               7
100
AcDbLine
 10
636.68013347674071
 20
940.38448886714423
 30
0.0
 11
636.68013347674071
 21
900.38448886714423
 31
0.0
  0
LINE
  5
112
100
AcDbEntity
  8
0
  6
DASHDOT
 62
               7
100
AcDbLine
 10
736.68013347674071
 20
920.38448886714423
 30
0.0
 11
608.68013347674071
 21
920.38448886714423
 31
0.0
  0
LINE
  5
113
100
AcDbEntity
  8
0
  6
Continuous
 62
               7
100
AcDbLine
 10
624.68013347674071
 20
929.38448886714423
 30
0.0
 11
624.68013347674071
 21
911.38448886714423
 31
0.0
  0
LINE
  5
114
100
AcDbEntity
  8
0
  6
Continuous
 62
               7
100
AcDbLine
 10
636.68013347674071
 20
908.38448886714423
 30
0.0
 11
626.68013347674071
 21
908.38448886714423
 31
0.0
  0
LINE
  5
115
100
AcDbEntity
  8
0
  6
Continuous
 62
               7
100
AcDbLine
 10
636.68013347674071
 20
932.38448886714423
 30
0.0
 11
626.68013347674071
 21
932.38448886714423
 31
0.0
  0
LINE
  5
116
100
AcDbEntity
  8
0
  6
Continuous
 62
               7
100
AcDbLine
 10
639.68013347674071
 20
900.38448886714423
 30
0.0
 11
636.68013347674071
 21
900.38448886714423
 31
0.0
  0
LINE
  5
117
100
AcDbEntity
  8
0
  6
Continuous
 62
               7
100
AcDbLine
 10
639.68013347674071
 20
940.38448886714423
 30
0.0
 11
636.68013347674071
 21
940.38448886714423
 31
0.0
  0
LINE
  5
118
100
AcDbEntity
  8
0
  6
Continuous
 62
               7
100
AcDbLine
 10
626.68013347674071
 20
932.38448886714423
 30
0.0
 11
624.68013347674071
 21
929.38448886714423
 31
0.0
  0
LINE
  5
119
100
AcDbEntity
  8
0
  6
Continuous
 62
               7
100
AcDbLine
 10
626.68013347674071
 20
908.38448886714423
 30
0.0
 11
624.68013347674071
 21
911.38448886714423
 31
0.0
  0
LINE
  5
11A
100
AcDbEntity
  8
0
  6
Continuous
 62
               7
100
AcDbLine
 10
636.68013347674071
 20
926.38448886714423
 30
0.0
 11
626.68013347674071
 21
926.38448886714423
 31
0.0
  0
LINE
  5
11B
100
AcDbEntity
  8
0
  6
Continuous
 62
               7
100
AcDbLine
 10
636.68013347674071
 20
914.38448886714423
 30
0.0
 11
626.68013347674071
 21
914.38448886714423
 31
0.0
  0
LINE
  5
11C
100
AcDbEntity
  8
0
  6
Continuous
 62
               7
100
AcDbLine
 10
711.68013347674071
 20
926.38448886714423
 30
0.0
 11
709.68013347674071
 21
926.38448886714423
 31
0.0
  0
LINE
  5
11D
100
AcDbEntity
  8
0
  6
Continuous
 62
               7
100
AcDbLine
 10
711.68013347674071
 20
914.38448886714423
 30
0.0
 11
709.68013347674071
 21
914.38448886714423
 31
0.0
  0
LINE
  5
11E
100
AcDbEntity
  8
0
  6
Continuous
 62
               7
100
AcDbLine
 10
624.68013347674071
 20
926.38448886714423
 30
0.0
 11
618.68013347674071
 21
926.38448886714423
 31
0.0
  0
LINE
  5
11F
100
AcDbEntity
  8
0
  6
Continuous
 62
               7
100
AcDbLine
 10
624.68013347674071
 20
914.38448886714423
 30
0.0
 11
618.68013347674071
 21
914.38448886714423
 31
0.0
  0
LINE
  5
120
100
AcDbEntity
  8
0
  6
Continuous
 62
               7
100
AcDbLine
 10
618.68013347674071
 20
926.38448886714423
 30
0.0
 11
618.68013347674071
 21
914.38448886714423
 31
0.0
  0
LINE
  5
121
100
AcDbEntity
  8
0
  6
Continuous
 62
               7
100
AcDbLine
 10
716.68013347674071
 20
909.38448886714423
 30
0.0
 11
716.68013347674071
 21
907.21291599189044
 31
0.0
  0
LINE
  5
122
100
AcDbEntity
  8
0
  6
Continuous
 62
               7
100
AcDbLine
 10
728.68013347674071
 20
909.38448886714423
 30
0.0
 11
728.68013347674071
 21
880.38448886714423
 31
0.0
  0
LINE
  5
123
100
AcDbEntity
  8
0
  6
Continuous
 62
               7
100
AcDbLine
 10
728.68013347674071
 20
880.38448886714423
 30
0.0
 11
718.68013347674071
 21
880.38448886714423
 31
0.0
  0
LINE
  5
124
100
AcDbEntity
  8
0
  6
DOT
 62
               7
100
AcDbLine
 10
709.68013347674071
 20
926.38448886714423
 30
0.0
 11
636.68013347674071
 21
926.38448886714423
 31
0.0
  0
LINE
  5
125
100
AcDbEntity
  8
0
  6
DOT
 62
               7
100
AcDbLine
 10
709.68013347674071
 20
914.38448886714423
 30
0.0
 11
636.68013347674071
 21
914.38448886714423
 31
0.0
  0
LINE
  5
126
100
AcDbEntity
  8
0
  6
DASHED
 62
               6
100
AcDbLine
 10
582.68013347674071
 20
1142.8844888671442
 30
0.0
 11
582.68013347674071
 21
435.88448886714411
 31
0.0
  0
LINE
  5
127
100
AcDbEntity
  8
0
  6
DASHDOT
 62
               4
100
AcDbLine
 10
659.68013347674071
 20
214.88448886714411
 30
0.0
 11
659.68013347674071
 21
1142.8844888671442
 31
0.0
  0
LINE
  5
128
100
AcDbEntity
  8
0
  6
Continuous
 62
               4
100
AcDbLine
 10
1059.6801334767406
 20
320.88448886714411
 30
0.0
 11
759.68013347674071
 21
320.88448886714411
 31
0.0
  0
LINE
  5
129
100
AcDbEntity
  8
0
  6
Continuous
 62
               4
100
AcDbLine
 10
759.68013347674071
 20
306.88448886714411
 30
0.0
 11
659.68013347674071
 21
306.88448886714411
 31
0.0
  0
LINE
  5
12A
100
AcDbEntity
  8
0
  6
Continuous
 62
               4
100
AcDbLine
 10
759.68013347674071
 20
306.88448886714411
 30
0.0
 11
909.68013347674071
 21
306.88448886714411
 31
0.0
  0
LINE
  5
12B
100
AcDbEntity
  8
0
  6
Continuous
 62
               4
100
AcDbLine
 10
909.68013347674071
 20
306.88448886714411
 30
0.0
 11
1059.6801334767406
 21
306.88448886714411
 31
0.0
  0
LINE
  5
12C
100
AcDbEntity
  8
0
  6
Continuous
 62
               4
100
AcDbLine
 10
909.68013347674071
 20
216.88448886714411
 30
0.0
 11
659.68013347674071
 21
216.88448886714411
 31
0.0
  0
LINE
  5
12D
100
AcDbEntity
  8
0
  6
Continuous
 62
               4
100
AcDbLine
 10
963.68013347674071
 20
772.88448886714423
 30
0.0
 11
1014.6801334767407
 21
772.88448886714423
 31
0.0
  0
LINE
  5
12E
100
AcDbEntity
  8
0
  6
Continuous
 62
               4
100
AcDbLine
 10
1012.6801334767407
 20
872.88448886714423
 30
0.0
 11
1012.6801334767407
 21
772.88448886714423
 31
0.0
  0
LINE
  5
12F
100
AcDbEntity
  8
0
  6
Continuous
 62
               4
100
AcDbLine
 10
1124.6801334767406
 20
647.88448886714423
 30
0.0
 11
1124.6801334767406
 21
847.88448886714423
 31
0.0
  0
LINE
  5
130
100
AcDbEntity
  8
0
  6
Continuous
 62
               4
100
AcDbLine
 10
1124.6801334767406
 20
847.88448886714423
 30
0.0
 11
1124.6801334767406
 21
872.88448886714423
 31
0.0
  0
LINE
  5
131
100
AcDbEntity
  8
0
  6
Continuous
 62
               4
100
AcDbLine
 10
1110.6801334767406
 20
647.88448886714423
 30
0.0
 11
1110.6801334767406
 21
872.88448886714423
 31
0.0
  0
LINE
  5
132
100
AcDbEntity
  8
0
  6
Continuous
 62
               4
100
AcDbLine
 10
709.68013347674071
 20
472.88448886714411
 30
0.0
 11
709.68013347674071
 21
272.88448886714411
 31
0.0
  0
LINE
  5
133
100
AcDbEntity
  8
0
  6
Continuous
 62
               2
100
AcDbLine
 10
602.68013347674071
 20
417.88448886714411
 30
0.0
 11
689.68013347674071
 21
417.88448886714411
 31
0.0
  0
LINE
  5
134
100
AcDbEntity
  8
0
  6
Continuous
 62
               2
100
AcDbLine
 10
580.68013347674071
 20
1142.8844888671442
 30
0.0
 11
580.68013347674071
 21
398.38448886714411
 31
0.0
  0
LINE
  5
135
100
AcDbEntity
  8
0
  6
Continuous
 62
               4
100
AcDbLine
 10
729.68013347674071
 20
635.88448886714423
 30
0.0
 11
729.68013347674071
 21
647.88448886714423
 31
0.0
  0
LINE
  5
136
100
AcDbEntity
  8
0
  6
Continuous
 62
               4
100
AcDbLine
 10
709.68013347674071
 20
645.88448886714423
 30
0.0
 11
729.68013347674071
 21
645.88448886714423
 31
0.0
  0
LINE
  5
137
100
AcDbEntity
  8
0
  6
Continuous
 62
               4
100
AcDbLine
 10
729.68013347674071
 20
645.88448886714423
 30
0.0
 11
759.68013347674071
 21
645.88448886714423
 31
0.0
  0
LINE
  5
138
100
AcDbEntity
  8
0
  6
Continuous
 62
               4
100
AcDbLine
 10
709.68013347674071
 20
659.88448886714423
 30
0.0
 11
759.68013347674071
 21
659.88448886714423
 31
0.0
  0
LINE
  5
139
100
AcDbEntity
  8
0
  6
Continuous
 62
               4
100
AcDbLine
 10
759.68013347674071
 20
851.88448886714423
 30
0.0
 11
759.68013347674071
 21
1000.8844888671442
 31
0.0
  0
LINE
  5
13A
100
AcDbEntity
  8
0
  6
Continuous
 62
               4
100
AcDbLine
 10
734.68013347674071
 20
857.88448886714423
 30
0.0
 11
734.68013347674071
 21
1000.8844888671442
 31
0.0
  0
LINE
  5
13B
100
AcDbEntity
  8
0
  6
Continuous
 62
               4
100
AcDbLine
 10
759.68013347674071
 20
998.88448886714423
 30
0.0
 11
734.68013347674071
 21
998.88448886714423
 31
0.0
  0
LINE
  5
13C
100
AcDbEntity
  8
0
  6
Continuous
 62
               4
100
AcDbLine
 10
734.68013347674071
 20
998.88448886714423
 30
0.0
 11
709.68013347674071
 21
998.88448886714423
 31
0.0
  0
LINE
  5
13D
100
AcDbEntity
  8
0
  6
Continuous
 62
               4
100
AcDbLine
 10
709.68013347674071
 20
998.88448886714423
 30
0.0
 11
659.68013347674071
 21
998.88448886714423
 31
0.0
  0
LINE
  5
13E
100
AcDbEntity
  8
0
  6
Continuous
 62
               4
100
AcDbLine
 10
659.68013347674071
 20
998.88448886714423
 30
0.0
 11
609.68013347674071
 21
998.88448886714423
 31
0.0
  0
LINE
  5
13F
100
AcDbEntity
  8
0
  6
Continuous
 62
               4
100
AcDbLine
 10
609.68013347674071
 20
998.88448886714423
 30
0.0
 11
589.68013347674071
 21
998.88448886714423
 31
0.0
  0
LINE
  5
140
100
AcDbEntity
  8
0
  6
Continuous
 62
               4
100
AcDbLine
 10
589.68013347674071
 20
998.88448886714423
 30
0.0
 11
583.68013347674071
 21
998.88448886714423
 31
0.0
  0
LINE
  5
141
100
AcDbEntity
  8
0
  6
Continuous
 62
               4
100
AcDbLine
 10
580.68013347674071
 20
1012.8844888671442
 30
0.0
 11
609.68013347674071
 21
1012.8844888671442
 31
0.0
  0
LINE
  5
142
100
AcDbEntity
  8
0
  6
Continuous
 62
               4
100
AcDbLine
 10
609.68013347674071
 20
1012.8844888671442
 30
0.0
 11
709.68013347674071
 21
1012.8844888671442
 31
0.0
  0
LINE
  5
143
100
AcDbEntity
  8
0
  6
Continuous
 62
               4
100
AcDbLine
 10
709.68013347674071
 20
1012.8844888671442
 30
0.0
 11
909.68013347674071
 21
1012.8844888671442
 31
0.0
  0
LINE
  5
144
100
AcDbEntity
  8
0
  6
Continuous
 62
               4
100
AcDbLine
 10
455.68013347674071
 20
572.88448886714423
 30
0.0
 11
579.68013347674071
 21
572.88448886714423
 31
0.0
  0
LINE
  5
145
100
AcDbEntity
  8
0
  6
Continuous
 62
               4
100
AcDbLine
 10
457.68013347674071
 20
572.88448886714423
 30
0.0
 11
457.68013347674071
 21
872.88448886714423
 31
0.0
  0
LINE
  5
146
100
AcDbEntity
  8
0
  6
Continuous
 62
               4
100
AcDbLine
 10
743.68013347674071
 20
859.88448886714423
 30
0.0
 11
775.43439828217004
 21
914.88448886714423
 31
0.0
  0
LINE
  5
147
100
AcDbEntity
  8
0
  6
Continuous
 62
               4
100
AcDbLine
 10
817.18013347674071
 20
847.88448886714423
 30
0.0
 11
839.69679397513607
 21
886.88448886714423
 31
0.0
  0
LINE
  5
148
100
AcDbEntity
  8
0
  6
Continuous
 62
               4
100
AcDbLine
 10
784.68013347674071
 20
853.88448886714423
 30
0.0
 11
811.81559612865306
 21
900.88448886714423
 31
0.0
  0
LINE
  5
149
100
AcDbEntity
  8
0
  6
Continuous
 62
               4
100
AcDbLine
 10
839.69679397513607
 20
886.88448886714423
 30
0.0
 11
1012.2449725791479
 21
886.88448886714423
 31
0.0
  0
LINE
  5
14A
100
AcDbEntity
  8
0
  6
Continuous
 62
               4
100
AcDbLine
 10
811.81559612865306
 20
900.88448886714423
 30
0.0
 11
941.11150761913598
 21
900.88448886714423
 31
0.0
  0
LINE
  5
14B
100
AcDbEntity
  8
0
  6
Continuous
 62
               4
100
AcDbLine
 10
775.43439828217004
 20
914.88448886714423
 30
0.0
 11
902.31143582276616
 21
914.88448886714423
 31
0.0
  0
LINE
  5
14C
100
AcDbEntity
  8
0
  6
Continuous
 62
               4
100
AcDbLine
 10
817.18013347674071
 20
847.88448886714423
 30
0.0
 11
818.73304774735573
 21
853.68004382487857
 31
0.0
  0
LINE
  5
14D
100
AcDbEntity
  8
0
  6
Continuous
 62
               4
100
AcDbLine
 10
817.18013347674071
 20
847.88448886714423
 30
0.0
 11
821.42277416386003
 21
852.12712955426355
 31
0.0
  0
LINE
  5
14E
100
AcDbEntity
  8
0
  6
Continuous
 62
               4
100
AcDbLine
 10
784.68013347674071
 20
853.88448886714423
 30
0.0
 11
786.23304774735573
 21
859.68004382487857
 31
0.0
  0
LINE
  5
14F
100
AcDbEntity
  8
0
  6
Continuous
 62
               4
100
AcDbLine
 10
784.68013347674071
 20
853.88448886714423
 30
0.0
 11
788.92277416386003
 21
858.12712955426355
 31
0.0
  0
LINE
  5
150
100
AcDbEntity
  8
0
  6
Continuous
 62
               4
100
AcDbLine
 10
743.68013347674071
 20
859.88448886714423
 30
0.0
 11
745.23304774735573
 21
865.68004382487857
 31
0.0
  0
LINE
  5
151
100
AcDbEntity
  8
0
  6
Continuous
 62
               4
100
AcDbLine
 10
743.68013347674071
 20
859.88448886714423
 30
0.0
 11
747.9227741638598
 21
864.12712955426355
 31
0.0
  0
LINE
  5
152
100
AcDbEntity
  8
0
  6
Continuous
 62
               4
100
AcDbLine
 10
634.68013347674071
 20
1094.8844888671442
 30
0.0
 11
308.68013347674071
 21
1094.8844888671442
 31
0.0
  0
LINE
  5
153
100
AcDbEntity
  8
0
  6
Continuous
 62
               4
100
AcDbLine
 10
513.68013347674059
 20
1094.8844888671442
 30
0.0
 11
513.68013347674059
 21
1038.8844888671442
 31
0.0
  0
LINE
  5
154
100
AcDbEntity
  8
0
  6
Continuous
 62
               4
100
AcDbLine
 10
513.68013347674059
 20
1080.8844888671442
 30
0.0
 11
308.68013347674071
 21
1080.8844888671442
 31
0.0
  0
LINE
  5
155
100
AcDbEntity
  8
0
  6
Continuous
 62
               4
100
AcDbLine
 10
513.68013347674059
 20
1066.8844888671442
 30
0.0
 11
308.68013347674071
 21
1066.8844888671442
 31
0.0
  0
LINE
  5
156
100
AcDbEntity
  8
0
  6
Continuous
 62
               4
100
AcDbLine
 10
513.68013347674059
 20
1052.8844888671442
 30
0.0
 11
308.68013347674071
 21
1052.8844888671442
 31
0.0
  0
LINE
  5
157
100
AcDbEntity
  8
0
  6
Continuous
 62
               4
100
AcDbLine
 10
513.68013347674059
 20
1038.8844888671442
 30
0.0
 11
308.68013347674071
 21
1038.8844888671442
 31
0.0
  0
LINE
  5
158
100
AcDbEntity
  8
0
  6
DASHED
 62
               6
100
AcDbLine
 10
834.68013347674071
 20
847.88448886714423
 30
0.0
 11
834.68013347674071
 21
272.88448886714411
 31
0.0
  0
LINE
  5
159
100
AcDbEntity
  8
0
  6
DASHED
 62
               6
100
AcDbLine
 10
984.68013347674071
 20
847.88448886714423
 30
0.0
 11
984.68013347674071
 21
272.88448886714411
 31
0.0
  0
LINE
  5
15A
100
AcDbEntity
  8
0
  6
Continuous
 62
               2
100
AcDbLine
 10
582.68013347674071
 20
431.88448886714411
 30
0.0
 11
582.68013347674071
 21
398.48448886714425
 31
0.0
  0
LINE
  5
15B
100
AcDbEntity
  8
0
  6
Continuous
 62
               2
100
AcDbLine
 10
584.5436767547493
 20
414.86187619059456
 30
0.0
 11
583.68013347674071
 21
398.38448886714411
 31
0.0
  0
LINE
  5
15C
100
AcDbEntity
  8
0
  6
Continuous
 62
               2
100
AcDbLine
 10
560.68013347674071
 20
1142.8844888671442
 30
0.0
 11
560.68013347674071
 21
418.38448886714411
 31
0.0
  0
LINE
  5
15D
100
AcDbEntity
  8
0
  6
Continuous
 62
               2
100
AcDbLine
 10
560.68013347674071
 20
418.38448886714411
 30
0.0
 11
580.68013347674071
 21
398.38448886714411
 31
0.0
  0
LINE
  5
15E
100
AcDbEntity
  8
0
  6
Continuous
 62
               6
100
AcDbLine
 10
570.68013347674071
 20
1142.8844888671442
 30
0.0
 11
570.68013347674071
 21
408.38448886714411
 31
0.0
  0
LINE
  5
15F
100
AcDbEntity
  8
0
  6
Continuous
 62
               4
100
AcDbLine
 10
582.68013347674071
 20
200.88448886714411
 30
0.0
 11
582.68013347674071
 21
393.88448886714411
 31
0.0
  0
LINE
  5
160
100
AcDbEntity
  8
0
  6
Continuous
 62
               4
100
AcDbLine
 10
659.68013347674071
 20
216.88448886714411
 30
0.0
 11
582.68013347674071
 21
216.88448886714411
 31
0.0
  0
LINE
  5
161
100
AcDbEntity
  8
0
  6
Continuous
 62
               4
100
AcDbLine
 10
634.68013347674071
 20
1094.8844888671442
 30
0.0
 11
628.88457851900614
 21
1093.3315745965292
 31
0.0
  0
LINE
  5
162
100
AcDbEntity
  8
0
  6
Continuous
 62
               4
100
AcDbLine
 10
634.68013347674071
 20
1094.8844888671442
 30
0.0
 11
628.88457851900614
 21
1096.4374031377592
 31
0.0
  0
LINE
  5
163
100
AcDbEntity
  8
0
  6
Continuous
 62
               4
100
AcDbLine
 10
580.68013347674071
 20
1012.8844888671442
 30
0.0
 11
560.68013347674071
 21
1012.8844888671442
 31
0.0
  0
LINE
  5
164
100
AcDbEntity
  8
0
  6
Continuous
 62
               4
100
AcDbLine
 10
455.68013347674071
 20
397.88448886714411
 30
0.0
 11
577.28013347674062
 21
397.88448886714411
 31
0.0
  0
LINE
  5
165
100
AcDbEntity
  8
0
  6
Continuous
 62
               4
100
AcDbLine
 10
457.68013347674071
 20
397.88448886714411
 30
0.0
 11
457.68013347674071
 21
417.88448886714411
 31
0.0
  0
LINE
  5
166
100
AcDbEntity
  8
0
  6
Continuous
 62
               4
100
AcDbLine
 10
636.18013347674071
 20
417.88448886714423
 30
0.0
 11
596.34296490265649
 21
348.88448886714411
 31
0.0
  0
LINE
  5
167
100
AcDbEntity
  8
0
  6
Continuous
 62
               4
100
AcDbLine
 10
636.18013347674071
 20
417.88448886714423
 30
0.0
 11
634.62721920612569
 21
412.08893390940989
 31
0.0
  0
LINE
  5
168
100
AcDbEntity
  8
0
  6
Continuous
 62
               4
100
AcDbLine
 10
636.18013347674071
 20
417.88448886714423
 30
0.0
 11
631.93749278962139
 21
413.64184818002491
 31
0.0
  0
LINE
  5
169
100
AcDbEntity
  8
0
  6
Continuous
 62
               4
100
AcDbLine
 10
596.34296490265649
 20
348.88448886714411
 30
0.0
 11
531.6792993480459
 21
348.88448886714411
 31
0.0
  0
LINE
  5
16A
100
AcDbEntity
  8
0
  6
Continuous
 62
               4
100
AcDbLine
 10
744.68013347674071
 20
566.88448886714423
 30
0.0
 11
766.04209343675677
 21
603.88448886714423
 31
0.0
  0
LINE
  5
16B
100
AcDbEntity
  8
0
  6
Continuous
 62
               4
100
AcDbLine
 10
744.68013347674071
 20
566.88448886714423
 30
0.0
 11
746.23304774735573
 21
572.68004382487857
 31
0.0
  0
LINE
  5
16C
100
AcDbEntity
  8
0
  6
Continuous
 62
               4
100
AcDbLine
 10
744.68013347674071
 20
566.88448886714423
 30
0.0
 11
748.9227741638598
 21
571.12712955426355
 31
0.0
  0
LINE
  5
16D
100
AcDbEntity
  8
0
  6
Continuous
 62
               4
100
AcDbLine
 10
729.68013347674071
 20
599.38448886714423
 30
0.0
 11
748.44401722540363
 21
631.88448886714423
 31
0.0
  0
LINE
  5
16E
100
AcDbEntity
  8
0
  6
Continuous
 62
               4
100
AcDbLine
 10
729.68013347674071
 20
599.38448886714423
 30
0.0
 11
731.23304774735573
 21
605.18004382487857
 31
0.0
  0
LINE
  5
16F
100
AcDbEntity
  8
0
  6
Continuous
 62
               4
100
AcDbLine
 10
729.68013347674071
 20
599.38448886714423
 30
0.0
 11
733.9227741638598
 21
603.62712955426355
 31
0.0
  0
LINE
  5
170
100
AcDbEntity
  8
0
  6
Continuous
 62
               4
100
AcDbLine
 10
765.68013347674071
 20
506.38448886714411
 30
0.0
 11
789.64016964811015
 21
547.88448886714423
 31
0.0
  0
LINE
  5
171
100
AcDbEntity
  8
0
  6
Continuous
 62
               4
100
AcDbLine
 10
765.68013347674071
 20
506.38448886714411
 30
0.0
 11
767.23304774735573
 21
512.18004382487857
 31
0.0
  0
LINE
  5
172
100
AcDbEntity
  8
0
  6
Continuous
 62
               4
100
AcDbLine
 10
765.68013347674071
 20
506.38448886714411
 30
0.0
 11
769.9227741638598
 21
510.62712955426355
 31
0.0
  0
LINE
  5
173
100
AcDbEntity
  8
0
  6
Continuous
 62
               4
100
AcDbLine
 10
748.44401722540363
 20
631.88448886714423
 30
0.0
 11
905.88819228514774
 21
631.88448886714423
 31
0.0
  0
LINE
  5
174
100
AcDbEntity
  8
0
  6
Continuous
 62
               4
100
AcDbLine
 10
766.04209343675677
 20
603.88448886714423
 30
0.0
 11
894.94712415905394
 21
603.88448886714423
 31
0.0
  0
LINE
  5
175
100
AcDbEntity
  8
0
  6
Continuous
 62
               4
100
AcDbLine
 10
789.64016964811015
 20
547.88448886714423
 30
0.0
 11
946.00544208082476
 21
547.88448886714423
 31
0.0
  0
LINE
  5
176
100
AcDbEntity
  8
0
  6
Continuous
 62
               2
100
AcDbLine
 10
689.68013347674071
 20
431.88448886714411
 30
0.0
 11
689.68013347674071
 21
417.88448886714411
 31
0.0
  0
LINE
  5
177
100
AcDbEntity
  8
0
  6
Continuous
 62
               4
100
AcDbLine
 10
373.68013347674071
 20
417.88448886714411
 30
0.0
 11
577.28013347674062
 21
417.88448886714411
 31
0.0
  0
LINE
  5
178
100
AcDbEntity
  8
0
  6
Continuous
 62
               4
100
AcDbLine
 10
457.68013347674071
 20
572.88448886714423
 30
0.0
 11
457.68013347674071
 21
417.88448886714411
 31
0.0
  0
LINE
  5
179
100
AcDbEntity
  8
0
  6
Continuous
 62
               7
100
AcDbLine
 10
589.68013347674071
 20
572.88448886714423
 30
0.0
 11
609.68013347674071
 21
572.88448886714423
 31
0.0
  0
LINE
  5
17A
100
AcDbEntity
  8
0
  6
Continuous
 62
               4
100
AcDbLine
 10
469.68013347674071
 20
472.88448886714411
 30
0.0
 11
705.68013347674071
 21
472.88448886714411
 31
0.0
  0
LINE
  5
17B
100
AcDbEntity
  8
0
  6
Continuous
 62
               4
100
AcDbLine
 10
471.68013347674071
 20
572.88448886714423
 30
0.0
 11
471.68013347674071
 21
472.88448886714411
 31
0.0
  0
LINE
  5
17C
100
AcDbEntity
  8
0
  6
Continuous
 62
               4
100
AcDbLine
 10
443.68013347674071
 20
417.88448886714411
 30
0.0
 11
443.68013347674071
 21
872.88448886714423
 31
0.0
  0
LINE
  5
17D
100
AcDbEntity
  8
0
  6
Continuous
 62
               6
100
AcDbLine
 10
691.68013347674071
 20
419.88448886714411
 30
0.0
 11
707.68013347674071
 21
419.88448886714411
 31
0.0
  0
LINE
  5
17E
100
AcDbEntity
  8
0
  6
Continuous
 62
               6
100
AcDbLine
 10
709.68013347674071
 20
427.88448886714411
 30
0.0
 11
689.68013347674071
 21
427.88448886714411
 31
0.0
  0
LINE
  5
17F
100
AcDbEntity
  8
0
  6
Continuous
 62
               6
100
AcDbLine
 10
709.68013347674071
 20
418.42359105951004
 30
0.0
 11
709.62155014760503
 21
418.36501078140964
 31
0.0
  0
LINE
  5
180
100
AcDbEntity
  8
0
  6
Continuous
 62
               6
100
AcDbLine
 10
709.68013347674071
 20
421.25202123529129
 30
0.0
 11
708.23429451408094
 21
419.80618227263164
 31
0.0
  0
LINE
  5
181
100
AcDbEntity
  8
0
  6
Continuous
 62
               6
100
AcDbLine
 10
709.68013347674071
 20
424.08044836003751
 30
0.0
 11
705.4841739838472
 21
419.88448886714411
 31
0.0
  0
LINE
  5
182
100
AcDbEntity
  8
0
  6
Continuous
 62
               6
100
AcDbLine
 10
709.68013347674071
 20
426.90887548478361
 30
0.0
 11
702.65574685910121
 21
419.88448886714411
 31
0.0
  0
LINE
  5
183
100
AcDbEntity
  8
0
  6
Continuous
 62
               6
100
AcDbLine
 10
707.827319734355
 20
427.88448886714411
 30
0.0
 11
699.827319734355
 21
419.88448886714411
 31
0.0
  0
LINE
  5
184
100
AcDbEntity
  8
0
  6
Continuous
 62
               6
100
AcDbLine
 10
704.99889260960879
 20
427.88448886714411
 30
0.0
 11
696.99889260960879
 21
419.88448886714411
 31
0.0
  0
LINE
  5
185
100
AcDbEntity
  8
0
  6
Continuous
 62
               6
100
AcDbLine
 10
702.17046548486258
 20
427.88448886714411
 30
0.0
 11
694.17046548486258
 21
419.88448886714411
 31
0.0
  0
LINE
  5
186
100
AcDbEntity
  8
0
  6
Continuous
 62
               6
100
AcDbLine
 10
699.34203836011636
 20
427.88448886714411
 30
0.0
 11
691.34203836011636
 21
419.88448886714411
 31
0.0
  0
LINE
  5
187
100
AcDbEntity
  8
0
  6
Continuous
 62
               6
100
AcDbLine
 10
694.71526696514559
 20
418.25771747217334
 30
0.0
 11
694.68013347674071
 21
418.22258398376835
 31
0.0
  0
LINE
  5
188
100
AcDbEntity
  8
0
  6
Continuous
 62
               6
100
AcDbLine
 10
696.51361123537015
 20
427.88448886714411
 30
0.0
 11
689.68013347674071
 21
421.05101110851456
 31
0.0
  0
LINE
  5
189
100
AcDbEntity
  8
0
  6
Continuous
 62
               6
100
AcDbLine
 10
689.80578545540641
 20
418.58221337934128
 30
0.0
 11
689.68013347674071
 21
418.70786535800698
 31
0.0
  0
LINE
  5
18A
100
AcDbEntity
  8
0
  6
Continuous
 62
               6
100
AcDbLine
 10
696.9887913418421
 20
419.88448886714411
 30
0.0
 11
689.68013347674071
 21
427.19314673224562
 31
0.0
  0
LINE
  5
18B
100
AcDbEntity
  8
0
  6
Continuous
 62
               6
100
AcDbLine
 10
699.81721846658832
 20
419.88448886714411
 30
0.0
 11
691.81721846658832
 21
427.88448886714411
 31
0.0
  0
LINE
  5
18C
100
AcDbEntity
  8
0
  6
Continuous
 62
               6
100
AcDbLine
 10
702.64564559133453
 20
419.88448886714411
 30
0.0
 11
694.64564559133453
 21
427.88448886714411
 31
0.0
  0
LINE
  5
18D
100
AcDbEntity
  8
0
  6
Continuous
 62
               6
100
AcDbLine
 10
705.47407271608074
 20
419.88448886714411
 30
0.0
 11
697.47407271608074
 21
427.88448886714411
 31
0.0
  0
LINE
  5
18E
100
AcDbEntity
  8
0
  6
Continuous
 62
               6
100
AcDbLine
 10
709.68013347674071
 20
418.50685523123025
 30
0.0
 11
709.52122104933676
 21
418.66576765863419
 31
0.0
  0
LINE
  5
18F
100
AcDbEntity
  8
0
  6
Continuous
 62
               6
100
AcDbLine
 10
708.46141226823067
 20
419.72557643974028
 30
0.0
 11
700.30249984082673
 21
427.88448886714411
 31
0.0
  0
LINE
  5
190
100
AcDbEntity
  8
0
  6
Continuous
 62
               6
100
AcDbLine
 10
709.68013347674071
 20
421.33528235597646
 30
0.0
 11
703.13092696557294
 21
427.88448886714411
 31
0.0
  0
LINE
  5
191
100
AcDbEntity
  8
0
  6
Continuous
 62
               6
100
AcDbLine
 10
709.68013347674071
 20
424.16370948072267
 30
0.0
 11
705.95935409031915
 21
427.88448886714411
 31
0.0
  0
LINE
  5
192
100
AcDbEntity
  8
0
  6
Continuous
 62
               6
100
AcDbLine
 10
709.68013347674071
 20
426.99213660546889
 30
0.0
 11
708.78778121506537
 21
427.88448886714411
 31
0.0
  0
LINE
  5
193
100
AcDbEntity
  8
0
  6
Continuous
 62
               7
100
AcDbLine
 10
734.68013347674071
 20
472.88448886714411
 30
0.0
 11
734.68013347674071
 21
272.88448886714411
 31
0.0
  0
LINE
  5
194
100
AcDbEntity
  8
0
  6
Continuous
 62
               7
100
AcDbLine
 10
709.68012979790922
 20
472.88448886714411
 30
0.0
 11
734.68013347674071
 21
472.88448886714411
 31
0.0
  0
LINE
  5
195
100
AcDbEntity
  8
0
  6
Continuous
 62
               4
100
AcDbLine
 10
471.68013347674071
 20
472.88448886714411
 30
0.0
 11
471.68013347674071
 21
417.88448886714411
 31
0.0
  0
LINE
  5
196
100
AcDbEntity
  8
0
  6
Continuous
 62
               2
100
AcDbLine
 10
584.88013347674053
 20
430.38448886714411
 30
0.0
 11
602.68013347674071
 21
430.38448886714411
 31
0.0
  0
LINE
  5
197
100
AcDbEntity
  8
0
  6
Continuous
 62
               2
100
AcDbLine
 10
602.68013347674071
 20
430.38448886714411
 30
0.0
 11
602.68013347674071
 21
417.88448886714411
 31
0.0
  0
LINE
  5
198
100
AcDbEntity
  8
0
  6
Continuous
 62
               2
100
AcDbLine
 10
689.68013347674071
 20
431.88448886714411
 30
0.0
 11
707.68013347674071
 21
431.88448886714411
 31
0.0
  0
LINE
  5
199
100
AcDbEntity
  8
0
  6
Continuous
 62
               2
100
AcDbLine
 10
582.68013347674071
 20
431.88448886714411
 30
0.0
 11
602.68013347674071
 21
431.88448886714411
 31
0.0
  0
LINE
  5
19A
100
AcDbEntity
  8
0
  6
Continuous
 62
               6
100
AcDbLine
 10
600.68013347674071
 20
419.88448886714411
 30
0.0
 11
584.68013347674071
 21
419.88448886714411
 31
0.0
  0
LINE
  5
19B
100
AcDbEntity
  8
0
  6
Continuous
 62
               6
100
AcDbLine
 10
582.68013347674071
 20
427.88448886714411
 30
0.0
 11
602.68013347674071
 21
427.88448886714411
 31
0.0
  0
LINE
  5
19C
100
AcDbEntity
  8
0
  6
Continuous
 62
               6
100
AcDbLine
 10
582.68013347674071
 20
418.42359411054508
 30
0.0
 11
582.73871680587615
 21
418.36501078140964
 31
0.0
  0
LINE
  5
19D
100
AcDbEntity
  8
0
  6
Continuous
 62
               6
100
AcDbLine
 10
582.68013347674071
 20
421.25202123529129
 30
0.0
 11
584.12597243940047
 21
419.80618227263164
 31
0.0
  0
LINE
  5
19E
100
AcDbEntity
  8
0
  6
Continuous
 62
               6
100
AcDbLine
 10
582.68013347674071
 20
424.08044836003751
 30
0.0
 11
586.87609296963399
 21
419.88448886714411
 31
0.0
  0
LINE
  5
19F
100
AcDbEntity
  8
0
  6
Continuous
 62
               6
100
AcDbLine
 10
582.68013347674071
 20
426.90887548478361
 30
0.0
 11
589.7045200943802
 21
419.88448886714411
 31
0.0
  0
LINE
  5
1A0
100
AcDbEntity
  8
0
  6
Continuous
 62
               6
100
AcDbLine
 10
584.53294721912619
 20
427.88448886714411
 30
0.0
 11
592.53294721912619
 21
419.88448886714411
 31
0.0
  0
LINE
  5
1A1
100
AcDbEntity
  8
0
  6
Continuous
 62
               6
100
AcDbLine
 10
587.3613743438724
 20
427.88448886714411
 30
0.0
 11
595.3613743438724
 21
419.88448886714411
 31
0.0
  0
LINE
  5
1A2
100
AcDbEntity
  8
0
  6
Continuous
 62
               6
100
AcDbLine
 10
590.18980146861861
 20
427.88448886714411
 30
0.0
 11
598.18980146861861
 21
419.88448886714411
 31
0.0
  0
LINE
  5
1A3
100
AcDbEntity
  8
0
  6
Continuous
 62
               6
100
AcDbLine
 10
593.01822859336482
 20
427.88448886714411
 30
0.0
 11
601.01822859336482
 21
419.88448886714411
 31
0.0
  0
LINE
  5
1A4
100
AcDbEntity
  8
0
  6
Continuous
 62
               6
100
AcDbLine
 10
595.84665571811104
 20
427.88448886714411
 30
0.0
 11
602.68013347674071
 21
421.05101110851479
 31
0.0
  0
LINE
  5
1A5
100
AcDbEntity
  8
0
  6
Continuous
 62
               6
100
AcDbLine
 10
595.37147561163931
 20
419.88448886714411
 30
0.0
 11
602.68013347674071
 21
427.19314673224551
 31
0.0
  0
LINE
  5
1A6
100
AcDbEntity
  8
0
  6
Continuous
 62
               6
100
AcDbLine
 10
592.5430484868931
 20
419.88448886714411
 30
0.0
 11
600.5430484868931
 21
427.88448886714411
 31
0.0
  0
LINE
  5
1A7
100
AcDbEntity
  8
0
  6
Continuous
 62
               6
100
AcDbLine
 10
589.71462136214689
 20
419.88448886714411
 30
0.0
 11
597.71462136214689
 21
427.88448886714411
 31
0.0
  0
LINE
  5
1A8
100
AcDbEntity
  8
0
  6
Continuous
 62
               6
100
AcDbLine
 10
586.88619423740067
 20
419.88448886714411
 30
0.0
 11
594.88619423740067
 21
427.88448886714411
 31
0.0
  0
LINE
  5
1A9
100
AcDbEntity
  8
0
  6
Continuous
 62
               6
100
AcDbLine
 10
582.68013347674071
 20
418.50685523123025
 30
0.0
 11
582.83904590414443
 21
418.66576765863419
 31
0.0
  0
LINE
  5
1AA
100
AcDbEntity
  8
0
  6
Continuous
 62
               6
100
AcDbLine
 10
583.89885468525074
 20
419.72557643974028
 30
0.0
 11
592.05776711265446
 21
427.88448886714411
 31
0.0
  0
LINE
  5
1AB
100
AcDbEntity
  8
0
  6
Continuous
 62
               6
100
AcDbLine
 10
582.68013347674071
 20
421.33528235597646
 30
0.0
 11
589.22933998790825
 21
427.88448886714411
 31
0.0
  0
LINE
  5
1AC
100
AcDbEntity
  8
0
  6
Continuous
 62
               6
100
AcDbLine
 10
582.68013347674071
 20
424.16370948072267
 30
0.0
 11
586.40091286316203
 21
427.88448886714411
 31
0.0
  0
LINE
  5
1AD
100
AcDbEntity
  8
0
  6
Continuous
 62
               6
100
AcDbLine
 10
582.68013347674071
 20
426.99213660546889
 30
0.0
 11
583.57248573841582
 21
427.88448886714411
 31
0.0
  0
LINE
  5
1AE
100
AcDbEntity
  8
0
  6
Continuous
 62
               7
100
AcDbLine
 10
759.68013347674071
 20
348.05497982812165
 30
0.0
 11
753.50964251576318
 21
341.88448886714411
 31
0.0
  0
LINE
  5
1AF
100
AcDbEntity
  8
0
  6
Continuous
 62
               7
100
AcDbLine
 10
759.68013347674071
 20
355.12604763998706
 30
0.0
 11
746.43857470389787
 21
341.88448886714411
 31
0.0
  0
LINE
  5
1B0
100
AcDbEntity
  8
0
  6
Continuous
 62
               7
100
AcDbLine
 10
759.68013347674071
 20
362.1971154518526
 30
0.0
 11
739.36750689203211
 21
341.88448886714411
 31
0.0
  0
LINE
  5
1B1
100
AcDbEntity
  8
0
  6
Continuous
 62
               7
100
AcDbLine
 10
759.68013347674071
 20
369.26818326371802
 30
0.0
 11
734.68013347674071
 21
344.26818326371802
 31
0.0
  0
LINE
  5
1B2
100
AcDbEntity
  8
0
  6
Continuous
 62
               7
100
AcDbLine
 10
759.68013347674071
 20
376.33925107558355
 30
0.0
 11
734.68013347674071
 21
351.33925107558355
 31
0.0
  0
LINE
  5
1B3
100
AcDbEntity
  8
0
  6
Continuous
 62
               7
100
AcDbLine
 10
759.68013347674071
 20
383.41031888744897
 30
0.0
 11
734.68013347674071
 21
358.41031888744897
 31
0.0
  0
LINE
  5
1B4
100
AcDbEntity
  8
0
  6
Continuous
 62
               7
100
AcDbLine
 10
759.68013347674071
 20
390.4813866993145
 30
0.0
 11
734.68013347674071
 21
365.4813866993145
 31
0.0
  0
LINE
  5
1B5
100
AcDbEntity
  8
0
  6
Continuous
 62
               7
100
AcDbLine
 10
759.68013347674071
 20
397.55245451117992
 30
0.0
 11
734.68013347674071
 21
372.55245451117992
 31
0.0
  0
LINE
  5
1B6
100
AcDbEntity
  8
0
  6
Continuous
 62
               7
100
AcDbLine
 10
759.68013347674071
 20
404.62352232304545
 30
0.0
 11
734.68013347674071
 21
379.62352232304545
 31
0.0
  0
LINE
  5
1B7
100
AcDbEntity
  8
0
  6
Continuous
 62
               7
100
AcDbLine
 10
759.68013347674071
 20
411.69459013491087
 30
0.0
 11
734.68013347674071
 21
386.69459013491087
 31
0.0
  0
LINE
  5
1B8
100
AcDbEntity
  8
0
  6
Continuous
 62
               7
100
AcDbLine
 10
759.68013347674071
 20
418.7656579467764
 30
0.0
 11
734.68013347674071
 21
393.7656579467764
 31
0.0
  0
LINE
  5
1B9
100
AcDbEntity
  8
0
  6
Continuous
 62
               7
100
AcDbLine
 10
759.68013347674071
 20
425.83672575864182
 30
0.0
 11
734.68013347674071
 21
400.83672575864182
 31
0.0
  0
LINE
  5
1BA
100
AcDbEntity
  8
0
  6
Continuous
 62
               7
100
AcDbLine
 10
759.68013347674071
 20
432.90779357050735
 30
0.0
 11
734.68013347674071
 21
407.90779357050735
 31
0.0
  0
LINE
  5
1BB
100
AcDbEntity
  8
0
  6
Continuous
 62
               7
100
AcDbLine
 10
759.68013347674071
 20
439.97886138237277
 30
0.0
 11
734.68013347674071
 21
414.97886138237277
 31
0.0
  0
LINE
  5
1BC
100
AcDbEntity
  8
0
  6
Continuous
 62
               7
100
AcDbLine
 10
759.68013347674071
 20
447.0499291942383
 30
0.0
 11
734.68013347674071
 21
422.0499291942383
 31
0.0
  0
LINE
  5
1BD
100
AcDbEntity
  8
0
  6
Continuous
 62
               7
100
AcDbLine
 10
759.68013347674071
 20
454.12099700610383
 30
0.0
 11
734.68013347674071
 21
429.12099700610383
 31
0.0
  0
LINE
  5
1BE
100
AcDbEntity
  8
0
  6
Continuous
 62
               7
100
AcDbLine
 10
759.68013347674071
 20
461.19206481796925
 30
0.0
 11
734.68013347674071
 21
436.19206481796925
 31
0.0
  0
LINE
  5
1BF
100
AcDbEntity
  8
0
  6
Continuous
 62
               7
100
AcDbLine
 10
759.68013347674071
 20
468.26313262983467
 30
0.0
 11
734.68013347674071
 21
443.26313262983467
 31
0.0
  0
LINE
  5
1C0
100
AcDbEntity
  8
0
  6
Continuous
 62
               7
100
AcDbLine
 10
757.2304219021845
 20
472.88448886714411
 30
0.0
 11
734.68013347674071
 21
450.3342004417002
 31
0.0
  0
LINE
  5
1C1
100
AcDbEntity
  8
0
  6
Continuous
 62
               7
100
AcDbLine
 10
750.1593540903192
 20
472.88448886714411
 30
0.0
 11
734.68013347674071
 21
457.40526825356574
 31
0.0
  0
LINE
  5
1C2
100
AcDbEntity
  8
0
  6
Continuous
 62
               7
100
AcDbLine
 10
743.08828627845367
 20
472.88448886714411
 30
0.0
 11
734.68013347674071
 21
464.47633606543116
 31
0.0
  0
LINE
  5
1C3
100
AcDbEntity
  8
0
  6
Continuous
 62
               7
100
AcDbLine
 10
736.01721846658813
 20
472.88448886714411
 30
0.0
 11
734.68013347674071
 21
471.54740387729657
 31
0.0
  0
LINE
  5
1C4
100
AcDbEntity
  8
0
  6
Continuous
 62
               7
100
AcDbLine
 10
737.51974378353009
 20
341.88448886714411
 30
0.0
 11
734.68013347674071
 21
344.72409917393361
 31
0.0
  0
LINE
  5
1C5
100
AcDbEntity
  8
0
  6
Continuous
 62
               7
100
AcDbLine
 10
744.59081159539539
 20
341.88448886714411
 30
0.0
 11
734.68013347674071
 21
351.79516698579891
 31
0.0
  0
LINE
  5
1C6
100
AcDbEntity
  8
0
  6
Continuous
 62
               7
100
AcDbLine
 10
751.66187940726093
 20
341.88448886714411
 30
0.0
 11
734.68013347674071
 21
358.86623479766445
 31
0.0
  0
LINE
  5
1C7
100
AcDbEntity
  8
0
  6
Continuous
 62
               7
100
AcDbLine
 10
758.73294721912646
 20
341.88448886714411
 30
0.0
 11
734.68013347674071
 21
365.93730260952998
 31
0.0
  0
LINE
  5
1C8
100
AcDbEntity
  8
0
  6
Continuous
 62
               7
100
AcDbLine
 10
759.68013347674071
 20
348.00837042139551
 30
0.0
 11
734.68013347674071
 21
373.00837042139551
 31
0.0
  0
LINE
  5
1C9
100
AcDbEntity
  8
0
  6
Continuous
 62
               7
100
AcDbLine
 10
759.68013347674071
 20
355.07943823326082
 30
0.0
 11
734.68013347674071
 21
380.07943823326082
 31
0.0
  0
LINE
  5
1CA
100
AcDbEntity
  8
0
  6
Continuous
 62
               7
100
AcDbLine
 10
759.68013347674071
 20
362.15050604512635
 30
0.0
 11
734.68013347674071
 21
387.15050604512635
 31
0.0
  0
LINE
  5
1CB
100
AcDbEntity
  8
0
  6
Continuous
 62
               7
100
AcDbLine
 10
759.68013347674071
 20
369.22157385699188
 30
0.0
 11
734.68013347674071
 21
394.22157385699188
 31
0.0
  0
LINE
  5
1CC
100
AcDbEntity
  8
0
  6
Continuous
 62
               7
100
AcDbLine
 10
759.68013347674071
 20
376.2926416688573
 30
0.0
 11
734.68013347674071
 21
401.2926416688573
 31
0.0
  0
LINE
  5
1CD
100
AcDbEntity
  8
0
  6
Continuous
 62
               7
100
AcDbLine
 10
759.68013347674071
 20
383.36370948072272
 30
0.0
 11
734.68013347674071
 21
408.36370948072272
 31
0.0
  0
LINE
  5
1CE
100
AcDbEntity
  8
0
  6
Continuous
 62
               7
100
AcDbLine
 10
759.68013347674071
 20
390.43477729258825
 30
0.0
 11
734.68013347674071
 21
415.43477729258825
 31
0.0
  0
LINE
  5
1CF
100
AcDbEntity
  8
0
  6
Continuous
 62
               7
100
AcDbLine
 10
759.68013347674071
 20
397.50584510445378
 30
0.0
 11
734.68013347674071
 21
422.50584510445378
 31
0.0
  0
LINE
  5
1D0
100
AcDbEntity
  8
0
  6
Continuous
 62
               7
100
AcDbLine
 10
759.68013347674071
 20
404.5769129163192
 30
0.0
 11
734.68013347674071
 21
429.5769129163192
 31
0.0
  0
LINE
  5
1D1
100
AcDbEntity
  8
0
  6
Continuous
 62
               7
100
AcDbLine
 10
759.68013347674071
 20
411.64798072818473
 30
0.0
 11
734.68013347674071
 21
436.64798072818473
 31
0.0
  0
LINE
  5
1D2
100
AcDbEntity
  8
0
  6
Continuous
 62
               7
100
AcDbLine
 10
759.68013347674071
 20
418.71904854005015
 30
0.0
 11
734.68013347674071
 21
443.71904854005015
 31
0.0
  0
LINE
  5
1D3
100
AcDbEntity
  8
0
  6
Continuous
 62
               7
100
AcDbLine
 10
759.68013347674071
 20
425.79011635191569
 30
0.0
 11
734.68013347674071
 21
450.79011635191569
 31
0.0
  0
LINE
  5
1D4
100
AcDbEntity
  8
0
  6
Continuous
 62
               7
100
AcDbLine
 10
759.68013347674071
 20
432.8611841637811
 30
0.0
 11
734.68013347674071
 21
457.8611841637811
 31
0.0
  0
LINE
  5
1D5
100
AcDbEntity
  8
0
  6
Continuous
 62
               7
100
AcDbLine
 10
759.68013347674071
 20
439.93225197564664
 30
0.0
 11
734.68013347674071
 21
464.93225197564664
 31
0.0
  0
LINE
  5
1D6
100
AcDbEntity
  8
0
  6
Continuous
 62
               7
100
AcDbLine
 10
759.68013347674071
 20
447.00331978751205
 30
0.0
 11
734.68013347674071
 21
472.00331978751205
 31
0.0
  0
LINE
  5
1D7
100
AcDbEntity
  8
0
  6
Continuous
 62
               7
100
AcDbLine
 10
759.68013347674071
 20
454.07438759937759
 30
0.0
 11
740.87003220897407
 21
472.88448886714411
 31
0.0
  0
LINE
  5
1D8
100
AcDbEntity
  8
0
  6
Continuous
 62
               7
100
AcDbLine
 10
759.68013347674071
 20
461.14545541124301
 30
0.0
 11
747.94110002083937
 21
472.88448886714411
 31
0.0
  0
LINE
  5
1D9
100
AcDbEntity
  8
0
  6
Continuous
 62
               7
100
AcDbLine
 10
759.68013347674071
 20
468.21652322310854
 30
0.0
 11
755.0121678327049
 21
472.88448886714411
 31
0.0
  0
LINE
  5
1DA
100
AcDbEntity
  8
0
  6
Continuous
 62
               7
100
AcDbLine
 10
734.68013347674071
 20
344.26818326371802
 30
0.0
 11
732.29643908016681
 21
341.88448886714411
 31
0.0
  0
LINE
  5
1DB
100
AcDbEntity
  8
0
  6
Continuous
 62
               7
100
AcDbLine
 10
734.68013347674071
 20
358.41031888744897
 30
0.0
 11
718.15430345643574
 21
341.88448886714411
 31
0.0
  0
LINE
  5
1DC
100
AcDbEntity
  8
0
  6
Continuous
 62
               7
100
AcDbLine
 10
734.68013347674071
 20
372.55245451117992
 30
0.0
 11
709.68013347674071
 21
347.55245451117992
 31
0.0
  0
LINE
  5
1DD
100
AcDbEntity
  8
0
  6
Continuous
 62
               7
100
AcDbLine
 10
734.68013347674071
 20
386.69459013491087
 30
0.0
 11
709.68013347674071
 21
361.69459013491087
 31
0.0
  0
LINE
  5
1DE
100
AcDbEntity
  8
0
  6
Continuous
 62
               7
100
AcDbLine
 10
734.68013347674071
 20
400.83672575864182
 30
0.0
 11
709.68013347674071
 21
375.83672575864182
 31
0.0
  0
LINE
  5
1DF
100
AcDbEntity
  8
0
  6
Continuous
 62
               7
100
AcDbLine
 10
734.68013347674071
 20
414.97886138237277
 30
0.0
 11
709.68013347674071
 21
389.97886138237277
 31
0.0
  0
LINE
  5
1E0
100
AcDbEntity
  8
0
  6
Continuous
 62
               7
100
AcDbLine
 10
734.68013347674071
 20
429.12099700610372
 30
0.0
 11
709.68013347674071
 21
404.12099700610372
 31
0.0
  0
LINE
  5
1E1
100
AcDbEntity
  8
0
  6
Continuous
 62
               7
100
AcDbLine
 10
734.68013347674071
 20
443.26313262983467
 30
0.0
 11
709.68013347674071
 21
418.26313262983467
 31
0.0
  0
LINE
  5
1E2
100
AcDbEntity
  8
0
  6
Continuous
 62
               7
100
AcDbLine
 10
734.68013347674071
 20
457.40526825356562
 30
0.0
 11
709.68013347674071
 21
432.40526825356562
 31
0.0
  0
LINE
  5
1E3
100
AcDbEntity
  8
0
  6
Continuous
 62
               7
100
AcDbLine
 10
734.68013347674071
 20
471.54740387729657
 30
0.0
 11
709.68013347674071
 21
446.54740387729657
 31
0.0
  0
LINE
  5
1E4
100
AcDbEntity
  8
0
  6
Continuous
 62
               7
100
AcDbLine
 10
721.8750828428573
 20
472.88448886714411
 30
0.0
 11
709.68013347674071
 21
460.68953950102753
 31
0.0
  0
LINE
  5
1E5
100
AcDbEntity
  8
0
  6
Continuous
 62
               4
100
AcDbLine
 10
659.68013347674071
 20
320.88448886714411
 30
0.0
 11
709.68013347674071
 21
320.88448886714411
 31
0.0
  0
LINE
  5
1E6
100
AcDbEntity
  8
0
  6
Continuous
 62
               4
100
AcDbLine
 10
709.68013347674071
 20
320.88448886714411
 30
0.0
 11
734.68013347674071
 21
320.88448886714411
 31
0.0
  0
LINE
  5
1E7
100
AcDbEntity
  8
0
  6
Continuous
 62
               4
100
AcDbLine
 10
734.68013347674071
 20
320.88448886714411
 30
0.0
 11
759.68013347674071
 21
320.88448886714411
 31
0.0
  0
LINE
  5
1E8
100
AcDbEntity
  8
0
  6
Continuous
 62
               4
100
AcDbLine
 10
909.68013347674071
 20
202.88448886714411
 30
0.0
 11
582.68013347674071
 21
202.88448886714411
 31
0.0
  0
LINE
  5
1E9
100
AcDbEntity
  8
0
  6
DIVIDE
 62
               6
100
AcDbLine
 10
734.68013347674071
 20
788.88448886714423
 30
0.0
 11
734.68013347674071
 21
566.88448886714423
 31
0.0
  0
LINE
  5
1EA
100
AcDbEntity
  8
0
  6
Continuous
 62
               6
100
AcDbLine
 10
681.68013347674071
 20
451.88448886714411
 30
0.0
 11
686.68013347674071
 21
451.88448886714411
 31
0.0
  0
LINE
  5
1EB
100
AcDbEntity
  8
0
  6
Continuous
 62
               6
100
AcDbLine
 10
709.68013347674071
 20
451.88448886714411
 30
0.0
 11
709.68013347674071
 21
432.88448886714411
 31
0.0
  0
LINE
  5
1EC
100
AcDbEntity
  8
0
  6
Continuous
 62
               6
100
AcDbLine
 10
709.68013347674071
 20
432.88448886714411
 30
0.0
 11
681.68013347674071
 21
432.88448886714411
 31
0.0
  0
LINE
  5
1ED
100
AcDbEntity
  8
0
  6
Continuous
 62
               6
100
AcDbLine
 10
681.68013347674071
 20
432.88448886714411
 30
0.0
 11
681.68013347674071
 21
451.88448886714411
 31
0.0
  0
LINE
  5
1EE
100
AcDbEntity
  8
0
  6
Continuous
 62
               6
100
AcDbLine
 10
682.88013347674053
 20
450.68448886714418
 30
0.0
 11
685.48013347674066
 21
450.68448886714418
 31
0.0
  0
LINE
  5
1EF
100
AcDbEntity
  8
0
  6
Continuous
 62
               6
100
AcDbLine
 10
708.48013347674066
 20
450.68448886714418
 30
0.0
 11
708.48013347674066
 21
434.08448886714427
 31
0.0
  0
LINE
  5
1F0
100
AcDbEntity
  8
0
  6
Continuous
 62
               6
100
AcDbLine
 10
708.48013347674066
 20
434.08448886714427
 30
0.0
 11
682.88013347674053
 21
434.08448886714427
 31
0.0
  0
LINE
  5
1F1
100
AcDbEntity
  8
0
  6
Continuous
 62
               6
100
AcDbLine
 10
682.88013347674053
 20
434.08448886714427
 30
0.0
 11
682.88013347674053
 21
450.68448886714418
 31
0.0
  0
LINE
  5
1F2
100
AcDbEntity
  8
0
  6
Continuous
 62
               6
100
AcDbLine
 10
686.68013347674071
 20
447.88448886714411
 30
0.0
 11
686.68013347674071
 21
451.88448886714411
 31
0.0
  0
LINE
  5
1F3
100
AcDbEntity
  8
0
  6
Continuous
 62
               6
100
AcDbLine
 10
704.68013347674071
 20
451.88448886714411
 30
0.0
 11
704.68013347674071
 21
447.88448886714411
 31
0.0
  0
LINE
  5
1F4
100
AcDbEntity
  8
0
  6
Continuous
 62
               6
100
AcDbLine
 10
685.48013347674066
 20
447.88448886714411
 30
0.0
 11
686.68013347674071
 21
447.88448886714411
 31
0.0
  0
LINE
  5
1F5
100
AcDbEntity
  8
0
  6
Continuous
 62
               6
100
AcDbLine
 10
685.48013347674066
 20
447.88448886714411
 30
0.0
 11
685.48013347674066
 21
450.68448886714418
 31
0.0
  0
LINE
  5
1F6
100
AcDbEntity
  8
0
  6
Continuous
 62
               6
100
AcDbLine
 10
705.88013347674053
 20
450.68448886714418
 30
0.0
 11
705.88013347674053
 21
447.88448886714411
 31
0.0
  0
LINE
  5
1F7
100
AcDbEntity
  8
0
  6
Continuous
 62
               6
100
AcDbLine
 10
704.68013347674071
 20
451.88448886714411
 30
0.0
 11
709.68013347674071
 21
451.88448886714411
 31
0.0
  0
LINE
  5
1F8
100
AcDbEntity
  8
0
  6
Continuous
 62
               6
100
AcDbLine
 10
705.88013347674053
 20
450.68448886714418
 30
0.0
 11
708.48013347674066
 21
450.68448886714418
 31
0.0
  0
LINE
  5
1F9
100
AcDbEntity
  8
0
  6
Continuous
 62
               6
100
AcDbLine
 10
704.68013347674071
 20
447.88448886714411
 30
0.0
 11
705.88013347674053
 21
447.88448886714411
 31
0.0
  0
LINE
  5
1FA
100
AcDbEntity
  8
0
  6
Continuous
 62
               4
100
AcDbLine
 10
683.88013347674053
 20
490.88448886714411
 30
0.0
 11
707.48013347674066
 21
490.88448886714411
 31
0.0
  0
LINE
  5
1FB
100
AcDbEntity
  8
0
  6
Continuous
 62
               4
100
AcDbLine
 10
704.18013347674071
 20
452.88448886714411
 30
0.0
 11
707.48013347674066
 21
452.88448886714411
 31
0.0
  0
LINE
  5
1FC
100
AcDbEntity
  8
0
  6
Continuous
 62
               4
100
AcDbLine
 10
683.88013347674053
 20
445.88448886714411
 30
0.0
 11
707.48013347674066
 21
445.88448886714411
 31
0.0
  0
LINE
  5
1FD
100
AcDbEntity
  8
0
  6
Continuous
 62
               4
100
AcDbLine
 10
683.88013347674053
 20
445.88448886714411
 30
0.0
 11
683.88013347674053
 21
449.68448886714418
 31
0.0
  0
LINE
  5
1FE
100
AcDbEntity
  8
0
  6
Continuous
 62
               4
100
AcDbLine
 10
707.48013347674066
 20
449.68448886714418
 30
0.0
 11
707.48013347674066
 21
445.88448886714411
 31
0.0
  0
LINE
  5
1FF
100
AcDbEntity
  8
0
  6
Continuous
 62
               4
100
AcDbLine
 10
704.18013347674071
 20
452.88448886714411
 30
0.0
 11
704.18013347674071
 21
447.88448886714411
 31
0.0
  0
LINE
  5
200
100
AcDbEntity
  8
0
  6
Continuous
 62
               4
100
AcDbLine
 10
687.18013347674071
 20
447.88448886714411
 30
0.0
 11
687.18013347674071
 21
452.88448886714411
 31
0.0
  0
LINE
  5
201
100
AcDbEntity
  8
0
  6
Continuous
 62
               4
100
AcDbLine
 10
687.18013347674071
 20
452.88448886714411
 30
0.0
 11
683.88013347674053
 21
452.88448886714411
 31
0.0
  0
LINE
  5
202
100
AcDbEntity
  8
0
  6
Continuous
 62
               4
100
AcDbLine
 10
683.88013347674053
 20
449.68448886714418
 30
0.0
 11
685.48013347674066
 21
449.68448886714418
 31
0.0
  0
LINE
  5
203
100
AcDbEntity
  8
0
  6
Continuous
 62
               4
100
AcDbLine
 10
685.48013347674066
 20
449.68448886714418
 30
0.0
 11
685.48013347674066
 21
447.88448886714411
 31
0.0
  0
LINE
  5
204
100
AcDbEntity
  8
0
  6
Continuous
 62
               4
100
AcDbLine
 10
685.48013347674066
 20
447.88448886714411
 30
0.0
 11
687.18013347674071
 21
447.88448886714411
 31
0.0
  0
LINE
  5
205
100
AcDbEntity
  8
0
  6
Continuous
 62
               4
100
AcDbLine
 10
704.18013347674071
 20
447.88448886714411
 30
0.0
 11
705.88013347674053
 21
447.88448886714411
 31
0.0
  0
LINE
  5
206
100
AcDbEntity
  8
0
  6
Continuous
 62
               4
100
AcDbLine
 10
705.88013347674053
 20
447.88448886714411
 30
0.0
 11
705.88013347674053
 21
449.68448886714418
 31
0.0
  0
LINE
  5
207
100
AcDbEntity
  8
0
  6
Continuous
 62
               4
100
AcDbLine
 10
705.88013347674053
 20
449.68448886714418
 30
0.0
 11
707.48013347674066
 21
449.68448886714418
 31
0.0
  0
LINE
  5
208
100
AcDbEntity
  8
0
  6
Continuous
 62
               4
100
AcDbLine
 10
707.48013347674066
 20
452.88448886714411
 30
0.0
 11
707.48013347674066
 21
490.88448886714411
 31
0.0
  0
LINE
  5
209
100
AcDbEntity
  8
0
  6
Continuous
 62
               4
100
AcDbLine
 10
683.88013347674053
 20
452.88448886714411
 30
0.0
 11
683.88013347674053
 21
490.88448886714411
 31
0.0
  0
LINE
  5
20A
100
AcDbEntity
  8
0
  6
Continuous
 62
               6
100
AcDbLine
 10
589.68013347674071
 20
451.88448886714411
 30
0.0
 11
594.68013347674071
 21
451.88448886714411
 31
0.0
  0
LINE
  5
20B
100
AcDbEntity
  8
0
  6
Continuous
 62
               6
100
AcDbLine
 10
617.68013347674071
 20
451.88448886714411
 30
0.0
 11
617.68013347674071
 21
432.88448886714411
 31
0.0
  0
LINE
  5
20C
100
AcDbEntity
  8
0
  6
Continuous
 62
               6
100
AcDbLine
 10
617.68013347674071
 20
432.88448886714411
 30
0.0
 11
589.68013347674071
 21
432.88448886714411
 31
0.0
  0
LINE
  5
20D
100
AcDbEntity
  8
0
  6
Continuous
 62
               6
100
AcDbLine
 10
589.68013347674071
 20
432.88448886714411
 30
0.0
 11
589.68013347674071
 21
451.88448886714411
 31
0.0
  0
LINE
  5
20E
100
AcDbEntity
  8
0
  6
Continuous
 62
               6
100
AcDbLine
 10
590.88013347674053
 20
450.68448886714418
 30
0.0
 11
593.48013347674066
 21
450.68448886714418
 31
0.0
  0
LINE
  5
20F
100
AcDbEntity
  8
0
  6
Continuous
 62
               6
100
AcDbLine
 10
616.48013347674066
 20
450.68448886714418
 30
0.0
 11
616.48013347674066
 21
434.08448886714427
 31
0.0
  0
LINE
  5
210
100
AcDbEntity
  8
0
  6
Continuous
 62
               6
100
AcDbLine
 10
616.48013347674066
 20
434.08448886714427
 30
0.0
 11
590.88013347674053
 21
434.08448886714427
 31
0.0
  0
LINE
  5
211
100
AcDbEntity
  8
0
  6
Continuous
 62
               6
100
AcDbLine
 10
590.88013347674053
 20
434.08448886714427
 30
0.0
 11
590.88013347674053
 21
450.68448886714418
 31
0.0
  0
LINE
  5
212
100
AcDbEntity
  8
0
  6
Continuous
 62
               6
100
AcDbLine
 10
594.68013347674071
 20
447.88448886714411
 30
0.0
 11
594.68013347674071
 21
451.88448886714411
 31
0.0
  0
LINE
  5
213
100
AcDbEntity
  8
0
  6
Continuous
 62
               6
100
AcDbLine
 10
612.68013347674071
 20
451.88448886714411
 30
0.0
 11
612.68013347674071
 21
447.88448886714411
 31
0.0
  0
LINE
  5
214
100
AcDbEntity
  8
0
  6
Continuous
 62
               6
100
AcDbLine
 10
593.48013347674066
 20
447.88448886714411
 30
0.0
 11
594.68013347674071
 21
447.88448886714411
 31
0.0
  0
LINE
  5
215
100
AcDbEntity
  8
0
  6
Continuous
 62
               6
100
AcDbLine
 10
593.48013347674066
 20
447.88448886714411
 30
0.0
 11
593.48013347674066
 21
450.68448886714418
 31
0.0
  0
LINE
  5
216
100
AcDbEntity
  8
0
  6
Continuous
 62
               6
100
AcDbLine
 10
613.88013347674053
 20
450.68448886714418
 30
0.0
 11
613.88013347674053
 21
447.88448886714411
 31
0.0
  0
LINE
  5
217
100
AcDbEntity
  8
0
  6
Continuous
 62
               6
100
AcDbLine
 10
612.68013347674071
 20
451.88448886714411
 30
0.0
 11
617.68013347674071
 21
451.88448886714411
 31
0.0
  0
LINE
  5
218
100
AcDbEntity
  8
0
  6
Continuous
 62
               6
100
AcDbLine
 10
613.88013347674053
 20
450.68448886714418
 30
0.0
 11
616.48013347674066
 21
450.68448886714418
 31
0.0
  0
LINE
  5
219
100
AcDbEntity
  8
0
  6
Continuous
 62
               6
100
AcDbLine
 10
612.68013347674071
 20
447.88448886714411
 30
0.0
 11
613.88013347674053
 21
447.88448886714411
 31
0.0
  0
LINE
  5
21A
100
AcDbEntity
  8
0
  6
Continuous
 62
               4
100
AcDbLine
 10
591.88013347674053
 20
490.88448886714411
 30
0.0
 11
615.48013347674066
 21
490.88448886714411
 31
0.0
  0
LINE
  5
21B
100
AcDbEntity
  8
0
  6
Continuous
 62
               4
100
AcDbLine
 10
612.18013347674071
 20
452.88448886714411
 30
0.0
 11
615.48013347674066
 21
452.88448886714411
 31
0.0
  0
LINE
  5
21C
100
AcDbEntity
  8
0
  6
Continuous
 62
               4
100
AcDbLine
 10
591.88013347674053
 20
445.88448886714411
 30
0.0
 11
615.48013347674066
 21
445.88448886714411
 31
0.0
  0
LINE
  5
21D
100
AcDbEntity
  8
0
  6
Continuous
 62
               4
100
AcDbLine
 10
591.88013347674053
 20
445.88448886714411
 30
0.0
 11
591.88013347674053
 21
449.68448886714418
 31
0.0
  0
LINE
  5
21E
100
AcDbEntity
  8
0
  6
Continuous
 62
               4
100
AcDbLine
 10
615.48013347674066
 20
449.68448886714418
 30
0.0
 11
615.48013347674066
 21
445.88448886714411
 31
0.0
  0
LINE
  5
21F
100
AcDbEntity
  8
0
  6
Continuous
 62
               4
100
AcDbLine
 10
612.18013347674071
 20
452.88448886714411
 30
0.0
 11
612.18013347674071
 21
447.88448886714411
 31
0.0
  0
LINE
  5
220
100
AcDbEntity
  8
0
  6
Continuous
 62
               4
100
AcDbLine
 10
595.18013347674071
 20
447.88448886714411
 30
0.0
 11
595.18013347674071
 21
452.88448886714411
 31
0.0
  0
LINE
  5
221
100
AcDbEntity
  8
0
  6
Continuous
 62
               4
100
AcDbLine
 10
595.18013347674071
 20
452.88448886714411
 30
0.0
 11
591.88013347674053
 21
452.88448886714411
 31
0.0
  0
LINE
  5
222
100
AcDbEntity
  8
0
  6
Continuous
 62
               4
100
AcDbLine
 10
591.88013347674053
 20
449.68448886714418
 30
0.0
 11
593.48013347674066
 21
449.68448886714418
 31
0.0
  0
LINE
  5
223
100
AcDbEntity
  8
0
  6
Continuous
 62
               4
100
AcDbLine
 10
593.48013347674066
 20
449.68448886714418
 30
0.0
 11
593.48013347674066
 21
447.88448886714411
 31
0.0
  0
LINE
  5
224
100
AcDbEntity
  8
0
  6
Continuous
 62
               4
100
AcDbLine
 10
593.48013347674066
 20
447.88448886714411
 30
0.0
 11
595.18013347674071
 21
447.88448886714411
 31
0.0
  0
LINE
  5
225
100
AcDbEntity
  8
0
  6
Continuous
 62
               4
100
AcDbLine
 10
612.18013347674071
 20
447.88448886714411
 30
0.0
 11
613.88013347674053
 21
447.88448886714411
 31
0.0
  0
LINE
  5
226
100
AcDbEntity
  8
0
  6
Continuous
 62
               4
100
AcDbLine
 10
613.88013347674053
 20
447.88448886714411
 30
0.0
 11
613.88013347674053
 21
449.68448886714418
 31
0.0
  0
LINE
  5
227
100
AcDbEntity
  8
0
  6
Continuous
 62
               4
100
AcDbLine
 10
613.88013347674053
 20
449.68448886714418
 30
0.0
 11
615.48013347674066
 21
449.68448886714418
 31
0.0
  0
LINE
  5
228
100
AcDbEntity
  8
0
  6
Continuous
 62
               4
100
AcDbLine
 10
615.48013347674066
 20
452.88448886714411
 30
0.0
 11
615.48013347674066
 21
490.88448886714411
 31
0.0
  0
LINE
  5
229
100
AcDbEntity
  8
0
  6
Continuous
 62
               4
100
AcDbLine
 10
591.88013347674053
 20
452.88448886714411
 30
0.0
 11
591.88013347674053
 21
490.88448886714411
 31
0.0
  0
LINE
  5
22A
100
AcDbEntity
  8
0
  6
Continuous
 62
               6
100
AcDbLine
 10
694.16036421709589
 20
419.88448886714411
 30
0.0
 11
689.68013347674071
 21
424.36471960749941
 31
0.0
  0
LINE
  5
22B
100
AcDbEntity
  8
0
  6
Continuous
 62
               6
100
AcDbLine
 10
691.33193709234968
 20
419.88448886714411
 30
0.0
 11
689.68013347674071
 21
421.5362924827532
 31
0.0
  0
LINE
  5
22C
100
AcDbEntity
  8
0
  6
Continuous
 62
               6
100
AcDbLine
 10
693.68518411062416
 20
427.88448886714411
 30
0.0
 11
689.68013347674071
 21
423.879438233261
 31
0.0
  0
LINE
  5
22D
100
AcDbEntity
  8
0
  6
Continuous
 62
               6
100
AcDbLine
 10
690.85675698587795
 20
427.88448886714411
 30
0.0
 11
689.68013347674071
 21
426.70786535800698
 31
0.0
  0
LINE
  5
22E
100
AcDbEntity
  8
0
  6
Continuous
 62
               6
100
AcDbLine
 10
598.67508284285725
 20
427.88448886714423
 30
0.0
 11
602.68013347674071
 21
423.879438233261
 31
0.0
  0
LINE
  5
22F
100
AcDbEntity
  8
0
  6
Continuous
 62
               6
100
AcDbLine
 10
598.19990273638552
 20
419.88448886714423
 30
0.0
 11
602.68013347674071
 21
424.36471960749941
 31
0.0
  0
LINE
  5
230
100
AcDbEntity
  8
0
  6
Continuous
 62
               6
100
AcDbLine
 10
601.50350996760346
 20
427.88448886714423
 30
0.0
 11
602.68013347674071
 21
426.70786535800721
 31
0.0
  0
LINE
  5
231
100
AcDbEntity
  8
0
  6
Continuous
 62
               6
100
AcDbLine
 10
601.02832986113174
 20
419.88448886714423
 30
0.0
 11
602.68013347674071
 21
421.5362924827532
 31
0.0
  0
LINE
  5
232
100
AcDbEntity
  8
0
  6
Continuous
 62
               6
100
AcDbLine
 10
602.55448149807501
 20
418.58221337934106
 30
0.0
 11
602.68013347674071
 21
418.70786535800698
 31
0.0
  0
LINE
  5
233
100
AcDbEntity
  8
0
  6
Continuous
 62
               6
100
AcDbLine
 10
589.68013347674071
 20
489.88448886714411
 30
0.0
 11
591.88013347674053
 21
489.88448886714411
 31
0.0
  0
LINE
  5
234
100
AcDbEntity
  8
0
  6
Continuous
 62
               6
100
AcDbLine
 10
589.68013347674071
 20
451.88448886714411
 30
0.0
 11
595.18013347674071
 21
451.88448886714411
 31
0.0
  0
LINE
  5
235
100
AcDbEntity
  8
0
  6
Continuous
 62
               6
100
AcDbLine
 10
709.68013347674071
 20
451.88448886714411
 30
0.0
 11
709.68013347674071
 21
489.88448886714411
 31
0.0
  0
LINE
  5
236
100
AcDbEntity
  8
0
  6
Continuous
 62
               6
100
AcDbLine
 10
589.68013347674071
 20
489.88448886714411
 30
0.0
 11
589.68013347674071
 21
451.88448886714411
 31
0.0
  0
LINE
  5
237
100
AcDbEntity
  8
0
  6
Continuous
 62
               6
100
AcDbLine
 10
615.48013347674066
 20
489.88448886714411
 30
0.0
 11
622.68013347674071
 21
489.88448886714411
 31
0.0
  0
LINE
  5
238
100
AcDbEntity
  8
0
  6
Continuous
 62
               6
100
AcDbLine
 10
707.48013347674066
 20
489.88448886714411
 30
0.0
 11
709.68013347674071
 21
489.88448886714411
 31
0.0
  0
LINE
  5
239
100
AcDbEntity
  8
0
  6
DOT
 62
               6
100
AcDbLine
 10
591.88013347674053
 20
489.88448886714411
 30
0.0
 11
615.48013347674066
 21
489.88448886714411
 31
0.0
  0
LINE
  5
23A
100
AcDbEntity
  8
0
  6
DOT
 62
               6
100
AcDbLine
 10
707.48013347674066
 20
489.88448886714411
 30
0.0
 11
683.88013347674053
 21
489.88448886714411
 31
0.0
  0
LINE
  5
23B
100
AcDbEntity
  8
0
  6
DASHED
 62
               6
100
AcDbLine
 10
615.48013347674066
 20
488.48448886714425
 30
0.0
 11
622.68013347674071
 21
488.48448886714425
 31
0.0
  0
LINE
  5
23C
100
AcDbEntity
  8
0
  6
DASHED
 62
               6
100
AcDbLine
 10
589.68013347674071
 20
453.2844888671442
 30
0.0
 11
591.88013347674053
 21
453.2844888671442
 31
0.0
  0
LINE
  5
23D
100
AcDbEntity
  8
0
  6
DASHED
 62
               6
100
AcDbLine
 10
707.48013347674066
 20
488.48448886714425
 30
0.0
 11
709.68013347674071
 21
488.48448886714425
 31
0.0
  0
LINE
  5
23E
100
AcDbEntity
  8
0
  6
DASHED
 62
               6
100
AcDbLine
 10
589.68013347674071
 20
488.48448886714425
 30
0.0
 11
591.88013347674053
 21
488.48448886714425
 31
0.0
  0
LINE
  5
23F
100
AcDbEntity
  8
0
  6
DASHED
 62
               6
100
AcDbLine
 10
615.48013347674066
 20
453.2844888671442
 30
0.0
 11
622.68013347674071
 21
453.2844888671442
 31
0.0
  0
LINE
  5
240
100
AcDbEntity
  8
0
  6
DASHED
 62
               6
100
AcDbLine
 10
707.48013347674066
 20
453.2844888671442
 30
0.0
 11
709.68013347674071
 21
453.2844888671442
 31
0.0
  0
LINE
  5
241
100
AcDbEntity
  8
0
  6
Continuous
 62
               4
100
AcDbLine
 10
640.68013347674071
 20
432.88448886714411
 30
0.0
 11
677.68013347674071
 21
432.88448886714411
 31
0.0
  0
LINE
  5
242
100
AcDbEntity
  8
0
  6
Continuous
 62
               4
100
AcDbLine
 10
642.68013347674071
 20
417.88448886714411
 30
0.0
 11
642.68013347674071
 21
432.88448886714411
 31
0.0
  0
LINE
  5
243
100
AcDbEntity
  8
0
  6
Continuous
 62
               4
100
AcDbLine
 10
642.68013347674071
 20
432.88448886714411
 30
0.0
 11
642.68013347674071
 21
451.88448886714411
 31
0.0
  0
LINE
  5
244
100
AcDbEntity
  8
0
  6
Continuous
 62
               4
100
AcDbLine
 10
642.68013347674071
 20
451.88448886714411
 30
0.0
 11
642.68013347674071
 21
489.88448886714411
 31
0.0
  0
LINE
  5
245
100
AcDbEntity
  8
0
  6
Continuous
 62
               4
100
AcDbLine
 10
640.68013347674071
 20
501.88448886714411
 30
0.0
 11
755.68013347674071
 21
501.88448886714411
 31
0.0
  0
LINE
  5
246
100
AcDbEntity
  8
0
  6
Continuous
 62
               4
100
AcDbLine
 10
642.68013347674071
 20
489.88448886714411
 30
0.0
 11
642.68013347674071
 21
501.88448886714411
 31
0.0
  0
LINE
  5
247
100
AcDbEntity
  8
0
  6
Continuous
 62
               4
100
AcDbLine
 10
642.68013347674071
 20
501.88448886714411
 30
0.0
 11
642.68013347674071
 21
572.88448886714423
 31
0.0
  0
LINE
  5
248
100
AcDbEntity
  8
0
  6
Continuous
 62
               4
100
AcDbLine
 10
602.68013347674071
 20
381.88448886714411
 30
0.0
 11
602.68013347674071
 21
413.88448886714411
 31
0.0
  0
LINE
  5
249
100
AcDbEntity
  8
0
  6
Continuous
 62
               4
100
AcDbLine
 10
582.68013347674071
 20
383.88448886714411
 30
0.0
 11
602.68013347674071
 21
383.88448886714411
 31
0.0
  0
LINE
  5
24A
100
AcDbEntity
  8
0
  6
Continuous
 62
               4
100
AcDbLine
 10
689.68013347674071
 20
381.88448886714411
 30
0.0
 11
689.68013347674071
 21
413.88448886714411
 31
0.0
  0
LINE
  5
24B
100
AcDbEntity
  8
0
  6
Continuous
 62
               4
100
AcDbLine
 10
602.68013347674071
 20
383.88448886714411
 30
0.0
 11
689.68013347674071
 21
383.88448886714411
 31
0.0
  0
LINE
  5
24C
100
AcDbEntity
  8
0
  6
Continuous
 62
               7
100
AcDbLine
 10
709.68013347674071
 20
272.88448886714411
 30
0.0
 11
709.68013347674071
 21
472.88448886714411
 31
0.0
  0
LINE
  5
24D
100
AcDbEntity
  8
0
  6
Continuous
 62
               4
100
AcDbLine
 10
689.68013347674071
 20
383.88448886714411
 30
0.0
 11
709.68013347674071
 21
383.88448886714411
 31
0.0
  0
LINE
  5
24E
100
AcDbEntity
  8
0
  6
Continuous
 62
               4
100
AcDbLine
 10
582.68013347674071
 20
369.88448886714411
 30
0.0
 11
709.68013347674071
 21
369.88448886714411
 31
0.0
  0
LINE
  5
24F
100
AcDbEntity
  8
0
  6
Continuous
 62
               7
100
AcDbLine
 10
734.68013347674071
 20
472.88448886714411
 30
0.0
 11
759.68013347674071
 21
472.88448886714411
 31
0.0
  0
LINE
  5
250
100
AcDbEntity
  8
0
  6
Continuous
 62
               6
100
AcDbLine
 10
694.68013347674071
 20
566.88448886714423
 30
0.0
 11
589.68013347674071
 21
566.88448886714423
 31
0.0
  0
LINE
  5
251
100
AcDbEntity
  8
0
  6
Continuous
 62
               6
100
AcDbLine
 10
694.68013347674071
 20
536.88448886714411
 30
0.0
 11
647.68013347674071
 21
536.88448886714411
 31
0.0
  0
LINE
  5
252
100
AcDbEntity
  8
0
  6
Continuous
 62
               6
100
AcDbLine
 10
694.68013347674071
 20
566.88448886714423
 30
0.0
 11
694.68013347674071
 21
536.88448886714411
 31
0.0
  0
LINE
  5
253
100
AcDbEntity
  8
0
  6
Continuous
 62
               6
100
AcDbLine
 10
589.68013347674071
 20
566.88448886714423
 30
0.0
 11
589.68013347674071
 21
536.88448886714411
 31
0.0
  0
LINE
  5
254
100
AcDbEntity
  8
0
  6
Continuous
 62
               6
100
AcDbLine
 10
694.68013347674071
 20
563.88448886714423
 30
0.0
 11
589.68013347674071
 21
563.88448886714423
 31
0.0
  0
LINE
  5
255
100
AcDbEntity
  8
0
  6
Continuous
 62
               7
100
AcDbLine
 10
622.68013347674071
 20
448.88448886714411
 30
0.0
 11
622.68013347674071
 21
554.88448886714411
 31
0.0
  0
LINE
  5
256
100
AcDbEntity
  8
0
  6
Continuous
 62
               7
100
AcDbLine
 10
647.68013347674071
 20
448.88448886714411
 30
0.0
 11
647.68013347674071
 21
554.88448886714411
 31
0.0
  0
LINE
  5
257
100
AcDbEntity
  8
0
  6
Continuous
 62
               7
100
AcDbLine
 10
622.68013347674071
 20
448.88448886714411
 30
0.0
 11
647.68013347674071
 21
448.88448886714411
 31
0.0
  0
LINE
  5
258
100
AcDbEntity
  8
0
  6
Continuous
 62
               6
100
AcDbLine
 10
647.68013347674071
 20
451.88448886714411
 30
0.0
 11
687.18013347674071
 21
451.88448886714411
 31
0.0
  0
LINE
  5
259
100
AcDbEntity
  8
0
  6
Continuous
 62
               6
100
AcDbLine
 10
647.68013347674071
 20
489.88448886714411
 30
0.0
 11
683.88013347674053
 21
489.88448886714411
 31
0.0
  0
LINE
  5
25A
100
AcDbEntity
  8
0
  6
DASHED
 62
               6
100
AcDbLine
 10
647.68013347674071
 20
488.48448886714425
 30
0.0
 11
683.88013347674053
 21
488.48448886714425
 31
0.0
  0
LINE
  5
25B
100
AcDbEntity
  8
0
  6
DASHED
 62
               6
100
AcDbLine
 10
647.68013347674071
 20
453.2844888671442
 30
0.0
 11
683.88013347674053
 21
453.2844888671442
 31
0.0
  0
LINE
  5
25C
100
AcDbEntity
  8
0
  6
DOT
 62
               7
100
AcDbLine
 10
622.68013347674071
 20
451.88448886714411
 30
0.0
 11
647.68013347674071
 21
451.88448886714411
 31
0.0
  0
LINE
  5
25D
100
AcDbEntity
  8
0
  6
DOT
 62
               7
100
AcDbLine
 10
622.68013347674071
 20
489.88448886714411
 30
0.0
 11
647.68013347674071
 21
489.88448886714411
 31
0.0
  0
LINE
  5
25E
100
AcDbEntity
  8
0
  6
Continuous
 62
               7
100
AcDbLine
 10
634.68013347674071
 20
484.88448886714411
 30
0.0
 11
634.68013347674071
 21
494.88448886714411
 31
0.0
  0
LINE
  5
25F
100
AcDbEntity
  8
0
  6
Continuous
 62
               7
100
AcDbLine
 10
635.68013347674071
 20
484.88448886714411
 30
0.0
 11
635.68013347674071
 21
494.88448886714411
 31
0.0
  0
LINE
  5
260
100
AcDbEntity
  8
0
  6
Continuous
 62
               7
100
AcDbLine
 10
634.68013347674071
 20
494.88448886714411
 30
0.0
 11
635.68013347674071
 21
494.88448886714411
 31
0.0
  0
LINE
  5
261
100
AcDbEntity
  8
0
  6
Continuous
 62
               7
100
AcDbLine
 10
634.68013347674071
 20
484.88448886714411
 30
0.0
 11
635.68013347674071
 21
484.88448886714411
 31
0.0
  0
LINE
  5
262
100
AcDbEntity
  8
0
  6
Continuous
 62
               7
100
AcDbLine
 10
622.68013347674071
 20
499.88448886714411
 30
0.0
 11
647.68013347674071
 21
499.88448886714411
 31
0.0
  0
LINE
  5
263
100
AcDbEntity
  8
0
  6
Continuous
 62
               7
100
AcDbLine
 10
622.68013347674071
 20
554.88448886714411
 30
0.0
 11
647.68013347674071
 21
554.88448886714411
 31
0.0
  0
LINE
  5
264
100
AcDbEntity
  8
0
  6
Continuous
 62
               6
100
AcDbLine
 10
622.68013347674071
 20
536.88448886714411
 30
0.0
 11
589.68013347674071
 21
536.88448886714411
 31
0.0
  0
LINE
  5
265
100
AcDbEntity
  8
0
  6
DASHDOT
 62
               7
100
AcDbLine
 10
699.68013347674071
 20
449.88448886714411
 30
0.0
 11
699.68013347674071
 21
426.88448886714411
 31
0.0
  0
LINE
  5
266
100
AcDbEntity
  8
0
  6
Continuous
 62
               6
100
AcDbLine
 10
704.18013347674071
 20
451.88448886714411
 30
0.0
 11
709.68013347674071
 21
451.88448886714411
 31
0.0
  0
LINE
  5
267
100
AcDbEntity
  8
0
  6
Continuous
 62
               6
100
AcDbLine
 10
612.18013347674071
 20
451.88448886714411
 30
0.0
 11
622.68013347674071
 21
451.88448886714411
 31
0.0
  0
LINE
  5
268
100
AcDbEntity
  8
0
  6
DOT
 62
               6
100
AcDbLine
 10
595.18013347674071
 20
451.88448886714411
 30
0.0
 11
612.18013347674071
 21
451.88448886714411
 31
0.0
  0
LINE
  5
269
100
AcDbEntity
  8
0
  6
DOT
 62
               6
100
AcDbLine
 10
687.18013347674071
 20
451.88448886714411
 30
0.0
 11
704.68013347674071
 21
451.88448886714411
 31
0.0
  0
LINE
  5
26A
100
AcDbEntity
  8
0
  6
Continuous
 62
               4
100
AcDbLine
 10
582.68013347674071
 20
407.88448886714434
 30
0.0
 11
556.69937136320743
 21
362.88448886714411
 31
0.0
  0
LINE
  5
26B
100
AcDbEntity
  8
0
  6
Continuous
 62
               4
100
AcDbLine
 10
582.68013347674071
 20
407.88448886714434
 30
0.0
 11
581.12721920612569
 21
402.08893390940989
 31
0.0
  0
LINE
  5
26C
100
AcDbEntity
  8
0
  6
Continuous
 62
               4
100
AcDbLine
 10
582.68013347674071
 20
407.88448886714434
 30
0.0
 11
578.43749278962139
 21
403.64184818002491
 31
0.0
  0
LINE
  5
26D
100
AcDbEntity
  8
0
  6
Continuous
 62
               4
100
AcDbLine
 10
556.69937136320743
 20
362.88448886714411
 30
0.0
 11
492.1044692096483
 21
362.88448886714411
 31
0.0
  0
LINE
  5
26E
100
AcDbEntity
  8
0
  6
Continuous
 62
               4
100
AcDbLine
 10
722.18013347674071
 20
286.88448886714411
 30
0.0
 11
693.88997028644883
 21
237.88448886714411
 31
0.0
  0
LINE
  5
26F
100
AcDbEntity
  8
0
  6
Continuous
 62
               4
100
AcDbLine
 10
722.18013347674071
 20
286.88448886714411
 30
0.0
 11
720.62721920612569
 21
281.08893390940972
 31
0.0
  0
LINE
  5
270
100
AcDbEntity
  8
0
  6
Continuous
 62
               4
100
AcDbLine
 10
722.18013347674071
 20
286.88448886714411
 30
0.0
 11
717.93749278962139
 21
282.64184818002491
 31
0.0
  0
LINE
  5
271
100
AcDbEntity
  8
0
  6
Continuous
 62
               4
100
AcDbLine
 10
693.88997028644883
 20
237.88448886714411
 30
0.0
 11
562.52817846572657
 21
237.88448886714411
 31
0.0
  0
LINE
  5
272
100
AcDbEntity
  8
0
  6
Continuous
 62
               4
100
AcDbLine
 10
747.18013347674071
 20
370.88448886714411
 30
0.0
 11
776.62499720541166
 21
421.88448886714423
 31
0.0
  0
LINE
  5
273
100
AcDbEntity
  8
0
  6
Continuous
 62
               4
100
AcDbLine
 10
747.18013347674071
 20
370.88448886714411
 30
0.0
 11
748.73304774735573
 21
376.68004382487857
 31
0.0
  0
LINE
  5
274
100
AcDbEntity
  8
0
  6
Continuous
 62
               4
100
AcDbLine
 10
747.18013347674071
 20
370.88448886714411
 30
0.0
 11
751.4227741638598
 21
375.12712955426343
 31
0.0
  0
LINE
  5
275
100
AcDbEntity
  8
0
  6
Continuous
 62
               4
100
AcDbLine
 10
776.62499720541166
 20
421.88448886714423
 30
0.0
 11
871.74124496055504
 21
421.88448886714423
 31
0.0
  0
LINE
  5
276
100
AcDbEntity
  8
0
  6
Continuous
 62
               4
100
AcDbLine
 10
603.68013347674071
 20
434.08448886714427
 30
0.0
 11
573.19603926352841
 21
486.88448886714411
 31
0.0
  0
LINE
  5
277
100
AcDbEntity
  8
0
  6
Continuous
 62
               4
100
AcDbLine
 10
603.68013347674071
 20
434.08448886714427
 30
0.0
 11
599.43749278962139
 21
438.32712955426359
 31
0.0
  0
LINE
  5
278
100
AcDbEntity
  8
0
  6
Continuous
 62
               4
100
AcDbLine
 10
603.68013347674071
 20
434.08448886714427
 30
0.0
 11
602.12721920612569
 21
439.88004382487861
 31
0.0
  0
LINE
  5
279
100
AcDbEntity
  8
0
  6
Continuous
 62
               4
100
AcDbLine
 10
573.19603926352841
 20
486.88448886714411
 30
0.0
 11
496.12007660635436
 21
486.88448886714411
 31
0.0
  0
LINE
  5
27A
100
AcDbEntity
  8
0
  6
Continuous
 62
               7
100
AcDbLine
 10
697.18013347674071
 20
446.38448886714411
 30
0.0
 11
697.18013347674071
 21
431.88448886714411
 31
0.0
  0
LINE
  5
27B
100
AcDbEntity
  8
0
  6
Continuous
 62
               7
100
AcDbLine
 10
694.68013347674071
 20
431.88448886714411
 30
0.0
 11
694.68013347674071
 21
430.88448886714411
 31
0.0
  0
LINE
  5
27C
100
AcDbEntity
  8
0
  6
Continuous
 62
               7
100
AcDbLine
 10
702.18013347674071
 20
446.38448886714411
 30
0.0
 11
702.18013347674071
 21
431.88448886714411
 31
0.0
  0
LINE
  5
27D
100
AcDbEntity
  8
0
  6
Continuous
 62
               7
100
AcDbLine
 10
704.68013347674071
 20
431.88448886714411
 30
0.0
 11
704.68013347674071
 21
430.88448886714411
 31
0.0
  0
LINE
  5
27E
100
AcDbEntity
  8
0
  6
Continuous
 62
               7
100
AcDbLine
 10
697.18013347674071
 20
446.38448886714411
 30
0.0
 11
699.68013347674071
 21
447.88448886714411
 31
0.0
  0
LINE
  5
27F
100
AcDbEntity
  8
0
  6
Continuous
 62
               7
100
AcDbLine
 10
702.18013347674071
 20
446.38448886714411
 30
0.0
 11
699.68013347674071
 21
447.88448886714411
 31
0.0
  0
LINE
  5
280
100
AcDbEntity
  8
0
  6
Continuous
 62
               7
100
AcDbLine
 10
694.68013347674071
 20
431.88448886714411
 30
0.0
 11
704.68013347674071
 21
431.88448886714411
 31
0.0
  0
LINE
  5
281
100
AcDbEntity
  8
0
  6
DOT
 62
               7
100
AcDbLine
 10
697.68013347674071
 20
429.165808934761
 30
0.0
 11
699.68013347674071
 21
431.88448886714411
 31
0.0
  0
LINE
  5
282
100
AcDbEntity
  8
0
  6
DOT
 62
               7
100
AcDbLine
 10
699.68013347674071
 20
431.88448886714411
 30
0.0
 11
701.68013347674071
 21
429.165808934761
 31
0.0
  0
LINE
  5
283
100
AcDbEntity
  8
0
  6
Continuous
 62
               7
100
AcDbLine
 10
697.18013347674071
 20
434.88448886714411
 30
0.0
 11
702.18013347674071
 21
436.88448886714411
 31
0.0
  0
LINE
  5
284
100
AcDbEntity
  8
0
  6
Continuous
 62
               7
100
AcDbLine
 10
697.18013347674071
 20
436.88448886714411
 30
0.0
 11
702.18013347674071
 21
438.88448886714411
 31
0.0
  0
LINE
  5
285
100
AcDbEntity
  8
0
  6
Continuous
 62
               7
100
AcDbLine
 10
697.18013347674071
 20
438.88448886714411
 30
0.0
 11
702.18013347674071
 21
440.88448886714411
 31
0.0
  0
LINE
  5
286
100
AcDbEntity
  8
0
  6
Continuous
 62
               7
100
AcDbLine
 10
697.18013347674071
 20
440.88448886714411
 30
0.0
 11
702.18013347674071
 21
442.88448886714411
 31
0.0
  0
LINE
  5
287
100
AcDbEntity
  8
0
  6
Continuous
 62
               7
100
AcDbLine
 10
697.18013347674071
 20
442.88448886714411
 30
0.0
 11
697.68013347674071
 21
443.08448886714427
 31
0.0
  0
LINE
  5
288
100
AcDbEntity
  8
0
  6
Continuous
 62
               7
100
AcDbLine
 10
697.68013347674071
 20
445.88448886714423
 30
0.0
 11
697.68013347674071
 21
443.08448886714427
 31
0.0
  0
LINE
  5
289
100
AcDbEntity
  8
0
  6
Continuous
 62
               7
100
AcDbLine
 10
699.18013347674071
 20
446.58448886714427
 30
0.0
 11
699.18013347674071
 21
443.68448886714418
 31
0.0
  0
LINE
  5
28A
100
AcDbEntity
  8
0
  6
Continuous
 62
               7
100
AcDbLine
 10
697.18013347674071
 20
446.38448886714423
 30
0.0
 11
697.68013347674071
 21
445.88448886714423
 31
0.0
  0
LINE
  5
28B
100
AcDbEntity
  8
0
  6
Continuous
 62
               7
100
AcDbLine
 10
699.18013347674071
 20
443.68448886714418
 30
0.0
 11
698.13013347674053
 21
442.63448886714423
 31
0.0
  0
LINE
  5
28C
100
AcDbEntity
  8
0
  6
Continuous
 62
               7
100
AcDbLine
 10
697.68013347674071
 20
443.08448886714427
 30
0.0
 11
698.13013347674053
 21
442.63448886714423
 31
0.0
  0
LINE
  5
28D
100
AcDbEntity
  8
0
  6
Continuous
 62
               7
100
AcDbLine
 10
699.18013347674071
 20
443.68448886714418
 30
0.0
 11
702.18013347674071
 21
444.88448886714411
 31
0.0
  0
LINE
  5
28E
100
AcDbEntity
  8
0
  6
DASHDOT
 62
               7
100
AcDbLine
 10
595.18013347674071
 20
448.38448886714411
 30
0.0
 11
595.18013347674071
 21
425.38448886714411
 31
0.0
  0
LINE
  5
28F
100
AcDbEntity
  8
0
  6
Continuous
 62
               7
100
AcDbLine
 10
592.68013347674071
 20
444.88448886714411
 30
0.0
 11
592.68013347674071
 21
430.38448886714411
 31
0.0
  0
LINE
  5
290
100
AcDbEntity
  8
0
  6
Continuous
 62
               7
100
AcDbLine
 10
590.18013347674071
 20
430.38448886714411
 30
0.0
 11
590.18013347674071
 21
429.38448886714411
 31
0.0
  0
LINE
  5
291
100
AcDbEntity
  8
0
  6
Continuous
 62
               7
100
AcDbLine
 10
597.68013347674071
 20
444.88448886714411
 30
0.0
 11
597.68013347674071
 21
430.38448886714411
 31
0.0
  0
LINE
  5
292
100
AcDbEntity
  8
0
  6
Continuous
 62
               7
100
AcDbLine
 10
600.18013347674071
 20
430.38448886714411
 30
0.0
 11
600.18013347674071
 21
429.38448886714411
 31
0.0
  0
LINE
  5
293
100
AcDbEntity
  8
0
  6
Continuous
 62
               7
100
AcDbLine
 10
592.68013347674071
 20
444.88448886714411
 30
0.0
 11
595.18013347674071
 21
446.38448886714411
 31
0.0
  0
LINE
  5
294
100
AcDbEntity
  8
0
  6
Continuous
 62
               7
100
AcDbLine
 10
597.68013347674071
 20
444.88448886714411
 30
0.0
 11
595.18013347674071
 21
446.38448886714411
 31
0.0
  0
LINE
  5
295
100
AcDbEntity
  8
0
  6
Continuous
 62
               7
100
AcDbLine
 10
590.18013347674071
 20
430.38448886714411
 30
0.0
 11
600.18013347674071
 21
430.38448886714411
 31
0.0
  0
LINE
  5
296
100
AcDbEntity
  8
0
  6
DOT
 62
               7
100
AcDbLine
 10
593.18013347674071
 20
427.665808934761
 30
0.0
 11
595.18013347674071
 21
430.38448886714411
 31
0.0
  0
LINE
  5
297
100
AcDbEntity
  8
0
  6
DOT
 62
               7
100
AcDbLine
 10
595.18013347674071
 20
430.38448886714411
 30
0.0
 11
597.18013347674071
 21
427.665808934761
 31
0.0
  0
LINE
  5
298
100
AcDbEntity
  8
0
  6
Continuous
 62
               7
100
AcDbLine
 10
592.68013347674071
 20
433.38448886714411
 30
0.0
 11
597.68013347674071
 21
435.38448886714411
 31
0.0
  0
LINE
  5
299
100
AcDbEntity
  8
0
  6
Continuous
 62
               7
100
AcDbLine
 10
592.68013347674071
 20
435.38448886714411
 30
0.0
 11
597.68013347674071
 21
437.38448886714411
 31
0.0
  0
LINE
  5
29A
100
AcDbEntity
  8
0
  6
Continuous
 62
               7
100
AcDbLine
 10
592.68013347674071
 20
437.38448886714411
 30
0.0
 11
597.68013347674071
 21
439.38448886714411
 31
0.0
  0
LINE
  5
29B
100
AcDbEntity
  8
0
  6
Continuous
 62
               7
100
AcDbLine
 10
592.68013347674071
 20
439.38448886714411
 30
0.0
 11
597.68013347674071
 21
441.38448886714411
 31
0.0
  0
LINE
  5
29C
100
AcDbEntity
  8
0
  6
Continuous
 62
               7
100
AcDbLine
 10
592.68013347674071
 20
441.38448886714411
 30
0.0
 11
593.18013347674071
 21
441.58448886714427
 31
0.0
  0
LINE
  5
29D
100
AcDbEntity
  8
0
  6
Continuous
 62
               7
100
AcDbLine
 10
593.18013347674071
 20
444.38448886714423
 30
0.0
 11
593.18013347674071
 21
441.58448886714427
 31
0.0
  0
LINE
  5
29E
100
AcDbEntity
  8
0
  6
Continuous
 62
               7
100
AcDbLine
 10
594.68013347674071
 20
445.08448886714427
 30
0.0
 11
594.68013347674071
 21
442.18448886714418
 31
0.0
  0
LINE
  5
29F
100
AcDbEntity
  8
0
  6
Continuous
 62
               7
100
AcDbLine
 10
592.68013347674071
 20
444.88448886714423
 30
0.0
 11
593.18013347674071
 21
444.38448886714423
 31
0.0
  0
LINE
  5
2A0
100
AcDbEntity
  8
0
  6
Continuous
 62
               7
100
AcDbLine
 10
594.68013347674071
 20
442.18448886714418
 30
0.0
 11
593.63013347674053
 21
441.13448886714423
 31
0.0
  0
LINE
  5
2A1
100
AcDbEntity
  8
0
  6
Continuous
 62
               7
100
AcDbLine
 10
593.18013347674071
 20
441.58448886714427
 30
0.0
 11
593.63013347674053
 21
441.13448886714423
 31
0.0
  0
LINE
  5
2A2
100
AcDbEntity
  8
0
  6
Continuous
 62
               7
100
AcDbLine
 10
594.68013347674071
 20
442.18448886714418
 30
0.0
 11
597.68013347674071
 21
443.38448886714411
 31
0.0
  0
LINE
  5
2A3
100
AcDbEntity
  8
0
  6
Continuous
 62
               6
100
AcDbLine
 10
1199.3890324334866
 20
387.17773061462253
 30
0.0
 11
1389.3890324334866
 21
387.17773061462253
 31
0.0
  0
LINE
  5
2A4
100
AcDbEntity
  8
0
  6
Continuous
 62
               6
100
AcDbLine
 10
1199.3890324334866
 20
406.17773061462265
 30
0.0
 11
1389.3890324334866
 21
406.17773061462265
 31
0.0
  0
LINE
  5
2A5
100
AcDbEntity
  8
0
  6
DASHED
 62
               6
100
AcDbLine
 10
1199.3890324334866
 20
387.97773061462249
 30
0.0
 11
1389.3890324334866
 21
387.97773061462249
 31
0.0
  0
LINE
  5
2A6
100
AcDbEntity
  8
0
  6
DASHED
 62
               6
100
AcDbLine
 10
1199.3890324334866
 20
405.37773061462258
 30
0.0
 11
1389.3890324334866
 21
405.37773061462258
 31
0.0
  0
LINE
  5
2A7
100
AcDbEntity
  8
0
  6
Continuous
 62
               7
100
AcDbLine
 10
1328.3890324334866
 20
444.17773061462242
 30
0.0
 11
1340.3890324334866
 21
444.17773061462242
 31
0.0
  0
LINE
  5
2A8
100
AcDbEntity
  8
0
  6
Continuous
 62
               7
100
AcDbLine
 10
1328.3890324334866
 20
444.17773061462242
 30
0.0
 11
1328.3890324334866
 21
406.17773061462265
 31
0.0
  0
LINE
  5
2A9
100
AcDbEntity
  8
0
  6
Continuous
 62
               7
100
AcDbLine
 10
1340.3890324334866
 20
444.17773061462242
 30
0.0
 11
1340.3890324334866
 21
442.77773061462256
 31
0.0
  0
LINE
  5
2AA
100
AcDbEntity
  8
0
  6
Continuous
 62
               7
100
AcDbLine
 10
1328.3890324334866
 20
406.17773061462253
 30
0.0
 11
1340.3890324334866
 21
406.17773061462253
 31
0.0
  0
LINE
  5
2AB
100
AcDbEntity
  8
0
  6
Continuous
 62
               7
100
AcDbLine
 10
1340.3890324334866
 20
442.77773061462256
 30
0.0
 11
1329.7890324334867
 21
442.77773061462256
 31
0.0
  0
LINE
  5
2AC
100
AcDbEntity
  8
0
  6
Continuous
 62
               7
100
AcDbLine
 10
1329.7890324334867
 20
442.77773061462256
 30
0.0
 11
1329.7890324334867
 21
407.57773061462251
 31
0.0
  0
LINE
  5
2AD
100
AcDbEntity
  8
0
  6
Continuous
 62
               7
100
AcDbLine
 10
1329.7890324334867
 20
407.57773061462251
 30
0.0
 11
1340.3890324334866
 21
407.57773061462251
 31
0.0
  0
LINE
  5
2AE
100
AcDbEntity
  8
0
  6
Continuous
 62
               7
100
AcDbLine
 10
1340.3890324334866
 20
407.57773061462251
 30
0.0
 11
1340.3890324334866
 21
406.17773061462253
 31
0.0
  0
LINE
  5
2AF
100
AcDbEntity
  8
0
  6
Continuous
 62
               4
100
AcDbLine
 10
1464.3890324334866
 20
396.67773061462253
 30
0.0
 11
1477.9567637594423
 21
420.17773061462242
 31
0.0
  0
LINE
  5
2B0
100
AcDbEntity
  8
0
  6
Continuous
 62
               4
100
AcDbLine
 10
1464.3890324334866
 20
396.67773061462253
 30
0.0
 11
1465.9419467041016
 21
402.47328557235687
 31
0.0
  0
LINE
  5
2B1
100
AcDbEntity
  8
0
  6
Continuous
 62
               4
100
AcDbLine
 10
1464.3890324334866
 20
396.67773061462253
 30
0.0
 11
1468.6316731206057
 21
400.92037130174185
 31
0.0
  0
LINE
  5
2B2
100
AcDbEntity
  8
0
  6
Continuous
 62
               4
100
AcDbLine
 10
1477.9567637594423
 20
420.17773061462242
 30
0.0
 11
1548.9528053074587
 21
420.17773061462253
 31
0.0
  0
LINE
  5
2B3
100
AcDbEntity
  8
0
  6
Continuous
 62
               4
100
AcDbLine
 10
1335.0890324334864
 20
407.57773061462251
 30
0.0
 11
1350.4465495939303
 21
434.17773061462242
 31
0.0
  0
LINE
  5
2B4
100
AcDbEntity
  8
0
  6
Continuous
 62
               4
100
AcDbLine
 10
1335.0890324334864
 20
407.57773061462251
 30
0.0
 11
1336.6419467041014
 21
413.37328557235696
 31
0.0
  0
LINE
  5
2B5
100
AcDbEntity
  8
0
  6
Continuous
 62
               4
100
AcDbLine
 10
1335.0890324334864
 20
407.57773061462251
 30
0.0
 11
1339.3316731206055
 21
411.82037130174183
 31
0.0
  0
LINE
  5
2B6
100
AcDbEntity
  8
0
  6
Continuous
 62
               4
100
AcDbLine
 10
1350.4465495939303
 20
434.17773061462242
 30
0.0
 11
1437.1154691454317
 21
434.17773061462265
 31
0.0
  0
LINE
  5
2B7
100
AcDbEntity
  8
0
  6
Continuous
 62
               4
100
AcDbLine
 10
1581.8890324334866
 20
325.17773061462231
 30
0.0
 11
1573.8890324334866
 21
327.32132415407136
 31
0.0
  0
LINE
  5
2B8
100
AcDbEntity
  8
0
  6
Continuous
 62
               4
100
AcDbLine
 10
1571.8890324334866
 20
321.17773061462231
 30
0.0
 11
1573.8890324334866
 21
327.32132415407136
 31
0.0
  0
LINE
  5
2B9
100
AcDbEntity
  8
0
  6
Continuous
 62
               4
100
AcDbLine
 10
1258.8890324334866
 20
387.17773061462253
 30
0.0
 11
1258.8890324334866
 21
406.17773061462265
 31
0.0
  0
LINE
  5
2BA
100
AcDbEntity
  8
0
  6
Continuous
 62
               4
100
AcDbLine
 10
1256.8890324334866
 20
444.17773061462242
 30
0.0
 11
1321.8890324334866
 21
444.17773061462242
 31
0.0
  0
LINE
  5
2BB
100
AcDbEntity
  8
0
  6
Continuous
 62
               4
100
AcDbLine
 10
1258.8890324334866
 20
406.17773061462265
 30
0.0
 11
1258.8890324334866
 21
444.17773061462242
 31
0.0
  0
LINE
  5
2BC
100
AcDbEntity
  8
0
  6
Continuous
 62
               2
100
AcDbLine
 10
1499.3890324334866
 20
283.17773061462242
 30
0.0
 11
1299.3890324334866
 21
283.17773061462242
 31
0.0
  0
LINE
  5
2BD
100
AcDbEntity
  8
0
  6
Continuous
 62
               2
100
AcDbLine
 10
1499.3890324334866
 20
263.17773061462242
 30
0.0
 11
1299.3890324334866
 21
263.17773061462242
 31
0.0
  0
LINE
  5
2BE
100
AcDbEntity
  8
0
  6
Continuous
 62
               2
100
AcDbLine
 10
1499.3890324334866
 20
283.17773061462242
 30
0.0
 11
1499.3890324334866
 21
263.17773061462242
 31
0.0
  0
LINE
  5
2BF
100
AcDbEntity
  8
0
  6
Continuous
 62
               2
100
AcDbLine
 10
1299.3890324334866
 20
283.17773061462242
 30
0.0
 11
1299.3890324334866
 21
263.17773061462242
 31
0.0
  0
LINE
  5
2C0
100
AcDbEntity
  8
0
  6
DASHDOT
 62
               4
100
AcDbLine
 10
1286.8890324334866
 20
323.17773061462231
 30
0.0
 11
1286.8890324334866
 21
406.17773061462265
 31
0.0
  0
LINE
  5
2C1
100
AcDbEntity
  8
0
  6
Continuous
 62
               4
100
AcDbLine
 10
1216.8890324334866
 20
325.17773061462231
 30
0.0
 11
1286.8890324334866
 21
325.17773061462231
 31
0.0
  0
LINE
  5
2C2
100
AcDbEntity
  8
0
  6
DASHDOT
 62
               4
100
AcDbLine
 10
1511.8890324334866
 20
323.17773061462231
 30
0.0
 11
1511.8890324334866
 21
406.17773061462253
 31
0.0
  0
LINE
  5
2C3
100
AcDbEntity
  8
0
  6
Continuous
 62
               4
100
AcDbLine
 10
1286.8890324334866
 20
325.17773061462231
 30
0.0
 11
1511.8890324334866
 21
325.17773061462231
 31
0.0
  0
LINE
  5
2C4
100
AcDbEntity
  8
0
  6
Continuous
 62
               4
100
AcDbLine
 10
1511.8890324334866
 20
325.17773061462231
 30
0.0
 11
1581.8890324334866
 21
325.17773061462231
 31
0.0
  0
LINE
  5
2C5
100
AcDbEntity
  8
0
  6
Continuous
 62
               4
100
AcDbLine
 10
1216.8890324334866
 20
325.17773061462231
 30
0.0
 11
1224.8890324334866
 21
327.32132415407136
 31
0.0
  0
LINE
  5
2C6
100
AcDbEntity
  8
0
  6
Continuous
 62
               4
100
AcDbLine
 10
1226.8890324334866
 20
321.17773061462231
 30
0.0
 11
1224.8890324334866
 21
327.32132415407136
 31
0.0
  0
LINE
  5
2C7
100
AcDbEntity
  8
0
  6
Continuous
 62
               6
100
AcDbLine
 10
1409.3890324334866
 20
387.17773061462253
 30
0.0
 11
1599.3890324334866
 21
387.17773061462242
 31
0.0
  0
LINE
  5
2C8
100
AcDbEntity
  8
0
  6
Continuous
 62
               6
100
AcDbLine
 10
1409.3890324334866
 20
406.17773061462265
 30
0.0
 11
1599.3890324334866
 21
406.17773061462242
 31
0.0
  0
LINE
  5
2C9
100
AcDbEntity
  8
0
  6
DASHED
 62
               6
100
AcDbLine
 10
1409.3890324334866
 20
387.97773061462249
 30
0.0
 11
1599.3890324334866
 21
387.97773061462249
 31
0.0
  0
LINE
  5
2CA
100
AcDbEntity
  8
0
  6
DASHED
 62
               6
100
AcDbLine
 10
1409.3890324334866
 20
405.37773061462258
 30
0.0
 11
1599.3890324334866
 21
405.37773061462235
 31
0.0
  0
LINE
  5
2CB
100
AcDbEntity
  8
0
  6
Continuous
 62
               2
100
AcDbLine
 10
1199.3890324334866
 20
370.17773061462253
 30
0.0
 11
1276.8890324334866
 21
370.17773061462253
 31
0.0
  0
LINE
  5
2CC
100
AcDbEntity
  8
0
  6
Continuous
 62
               2
100
AcDbLine
 10
1296.8890324334866
 20
370.17773061462253
 30
0.0
 11
1389.3890324334866
 21
370.17773061462253
 31
0.0
  0
LINE
  5
2CD
100
AcDbEntity
  8
0
  6
Continuous
 62
               2
100
AcDbLine
 10
1501.8890324334866
 20
370.17773061462253
 30
0.0
 11
1501.8890324334866
 21
384.17773061462242
 31
0.0
  0
LINE
  5
2CE
100
AcDbEntity
  8
0
  6
Continuous
 62
               2
100
AcDbLine
 10
1521.8890324334866
 20
370.17773061462253
 30
0.0
 11
1521.8890324334866
 21
385.67773061462242
 31
0.0
  0
LINE
  5
2CF
100
AcDbEntity
  8
0
  6
Continuous
 62
               2
100
AcDbLine
 10
1521.8890324334866
 20
370.17773061462253
 30
0.0
 11
1599.3890324334866
 21
370.17773061462242
 31
0.0
  0
LINE
  5
2D0
100
AcDbEntity
  8
0
  6
Continuous
 62
               2
100
AcDbLine
 10
1501.8890324334866
 20
385.67773061462242
 30
0.0
 11
1521.8890324334866
 21
385.67773061462242
 31
0.0
  0
LINE
  5
2D1
100
AcDbEntity
  8
0
  6
Continuous
 62
               2
100
AcDbLine
 10
1501.8890324334866
 20
384.17773061462242
 30
0.0
 11
1519.8890324334866
 21
384.17773061462242
 31
0.0
  0
LINE
  5
2D2
100
AcDbEntity
  8
0
  6
Continuous
 62
               2
100
AcDbLine
 10
1276.8890324334866
 20
370.17773061462253
 30
0.0
 11
1276.8890324334866
 21
384.17773061462242
 31
0.0
  0
LINE
  5
2D3
100
AcDbEntity
  8
0
  6
Continuous
 62
               2
100
AcDbLine
 10
1296.8890324334866
 20
370.17773061462253
 30
0.0
 11
1296.8890324334866
 21
385.67773061462242
 31
0.0
  0
LINE
  5
2D4
100
AcDbEntity
  8
0
  6
Continuous
 62
               2
100
AcDbLine
 10
1276.8890324334866
 20
385.67773061462242
 30
0.0
 11
1296.8890324334866
 21
385.67773061462242
 31
0.0
  0
LINE
  5
2D5
100
AcDbEntity
  8
0
  6
Continuous
 62
               2
100
AcDbLine
 10
1276.8890324334866
 20
384.17773061462242
 30
0.0
 11
1294.8890324334866
 21
384.17773061462242
 31
0.0
  0
LINE
  5
2D6
100
AcDbEntity
  8
0
  6
Continuous
 62
               4
100
AcDbLine
 10
1258.8890324334866
 20
387.17773061462242
 30
0.0
 11
1258.8890324334866
 21
370.17773061462253
 31
0.0
  0
LINE
  5
2D7
100
AcDbEntity
  8
0
  6
Continuous
 62
               4
100
AcDbLine
 10
1276.8890324334866
 20
337.17773061462242
 30
0.0
 11
1276.8890324334866
 21
366.17773061462253
 31
0.0
  0
LINE
  5
2D8
100
AcDbEntity
  8
0
  6
Continuous
 62
               4
100
AcDbLine
 10
1296.8890324334866
 20
337.17773061462242
 30
0.0
 11
1296.8890324334866
 21
366.17773061462253
 31
0.0
  0
LINE
  5
2D9
100
AcDbEntity
  8
0
  6
Continuous
 62
               4
100
AcDbLine
 10
1276.8890324334866
 20
339.17773061462242
 30
0.0
 11
1296.8890324334866
 21
339.17773061462242
 31
0.0
  0
LINE
  5
2DA
100
AcDbEntity
  8
0
  6
Continuous
 62
               4
100
AcDbLine
 10
1501.8890324334866
 20
337.17773061462242
 30
0.0
 11
1501.8890324334866
 21
366.17773061462253
 31
0.0
  0
LINE
  5
2DB
100
AcDbEntity
  8
0
  6
Continuous
 62
               4
100
AcDbLine
 10
1521.8890324334866
 20
337.17773061462242
 30
0.0
 11
1521.8890324334866
 21
366.17773061462253
 31
0.0
  0
LINE
  5
2DC
100
AcDbEntity
  8
0
  6
Continuous
 62
               4
100
AcDbLine
 10
1501.8890324334866
 20
339.17773061462242
 30
0.0
 11
1521.8890324334866
 21
339.17773061462242
 31
0.0
  0
LINE
  5
2DD
100
AcDbEntity
  8
0
  6
Continuous
 62
               2
100
AcDbLine
 10
1409.3890324334866
 20
370.17773061462253
 30
0.0
 11
1501.8890324334866
 21
370.17773061462253
 31
0.0
  0
LINE
  5
2DE
100
AcDbEntity
  8
0
  6
DASHDOT
 62
               4
100
AcDbLine
 10
1286.8890324334866
 20
402.17773061462242
 30
0.0
 11
1286.8890324334866
 21
379.17773061462242
 31
0.0
  0
LINE
  5
2DF
100
AcDbEntity
  8
0
  6
Continuous
 62
               7
100
AcDbLine
 10
1284.3890324334866
 20
398.67773061462242
 30
0.0
 11
1284.3890324334866
 21
384.17773061462242
 31
0.0
  0
LINE
  5
2E0
100
AcDbEntity
  8
0
  6
Continuous
 62
               7
100
AcDbLine
 10
1281.8890324334866
 20
384.17773061462242
 30
0.0
 11
1281.8890324334866
 21
383.17773061462242
 31
0.0
  0
LINE
  5
2E1
100
AcDbEntity
  8
0
  6
Continuous
 62
               7
100
AcDbLine
 10
1289.3890324334866
 20
398.67773061462242
 30
0.0
 11
1289.3890324334866
 21
384.17773061462242
 31
0.0
  0
LINE
  5
2E2
100
AcDbEntity
  8
0
  6
Continuous
 62
               7
100
AcDbLine
 10
1291.8890324334866
 20
384.17773061462242
 30
0.0
 11
1291.8890324334866
 21
383.17773061462242
 31
0.0
  0
LINE
  5
2E3
100
AcDbEntity
  8
0
  6
Continuous
 62
               7
100
AcDbLine
 10
1281.8890324334866
 20
384.17773061462242
 30
0.0
 11
1291.8890324334866
 21
384.17773061462242
 31
0.0
  0
LINE
  5
2E4
100
AcDbEntity
  8
0
  6
Continuous
 62
               7
100
AcDbLine
 10
1284.3890324334866
 20
398.67773061462242
 30
0.0
 11
1286.8890324334866
 21
400.17773061462242
 31
0.0
  0
LINE
  5
2E5
100
AcDbEntity
  8
0
  6
Continuous
 62
               7
100
AcDbLine
 10
1289.3890324334866
 20
398.67773061462242
 30
0.0
 11
1286.8890324334866
 21
400.17773061462242
 31
0.0
  0
LINE
  5
2E6
100
AcDbEntity
  8
0
  6
Continuous
 62
               7
100
AcDbLine
 10
1284.3890324334866
 20
387.17773061462242
 30
0.0
 11
1289.3890324334866
 21
389.17773061462242
 31
0.0
  0
LINE
  5
2E7
100
AcDbEntity
  8
0
  6
Continuous
 62
               7
100
AcDbLine
 10
1284.3890324334866
 20
389.17773061462242
 30
0.0
 11
1289.3890324334866
 21
391.17773061462242
 31
0.0
  0
LINE
  5
2E8
100
AcDbEntity
  8
0
  6
Continuous
 62
               7
100
AcDbLine
 10
1284.3890324334866
 20
391.17773061462242
 30
0.0
 11
1289.3890324334866
 21
393.17773061462242
 31
0.0
  0
LINE
  5
2E9
100
AcDbEntity
  8
0
  6
Continuous
 62
               7
100
AcDbLine
 10
1289.3890324334866
 20
395.17773061462242
 30
0.0
 11
1284.3890324334866
 21
393.17773061462242
 31
0.0
  0
LINE
  5
2EA
100
AcDbEntity
  8
0
  6
Continuous
 62
               7
100
AcDbLine
 10
1289.3890324334866
 20
397.17773061462242
 30
0.0
 11
1286.3890324334866
 21
395.97773061462249
 31
0.0
  0
LINE
  5
2EB
100
AcDbEntity
  8
0
  6
Continuous
 62
               7
100
AcDbLine
 10
1284.8890324334866
 20
398.17773061462242
 30
0.0
 11
1284.8890324334866
 21
395.37773061462235
 31
0.0
  0
LINE
  5
2EC
100
AcDbEntity
  8
0
  6
Continuous
 62
               7
100
AcDbLine
 10
1286.3890324334866
 20
398.87773061462235
 30
0.0
 11
1286.3890324334866
 21
395.97773061462249
 31
0.0
  0
LINE
  5
2ED
100
AcDbEntity
  8
0
  6
Continuous
 62
               7
100
AcDbLine
 10
1284.3890324334866
 20
398.67773061462242
 30
0.0
 11
1284.8890324334866
 21
398.17773061462242
 31
0.0
  0
LINE
  5
2EE
100
AcDbEntity
  8
0
  6
Continuous
 62
               7
100
AcDbLine
 10
1286.3890324334866
 20
395.97773061462249
 30
0.0
 11
1285.3390324334864
 21
394.92773061462242
 31
0.0
  0
LINE
  5
2EF
100
AcDbEntity
  8
0
  6
Continuous
 62
               7
100
AcDbLine
 10
1284.8890324334866
 20
395.37773061462235
 30
0.0
 11
1285.3390324334864
 21
394.92773061462242
 31
0.0
  0
LINE
  5
2F0
100
AcDbEntity
  8
0
  6
Continuous
 62
               7
100
AcDbLine
 10
1284.8890324334866
 20
395.37773061462235
 30
0.0
 11
1284.3890324334866
 21
395.17773061462242
 31
0.0
  0
LINE
  5
2F1
100
AcDbEntity
  8
0
  6
DOT
 62
               7
100
AcDbLine
 10
1285.3890324334866
 20
381.33460013506681
 30
0.0
 11
1286.8890324334866
 21
384.17773061462242
 31
0.0
  0
LINE
  5
2F2
100
AcDbEntity
  8
0
  6
DOT
 62
               7
100
AcDbLine
 10
1286.8890324334866
 20
384.17773061462242
 30
0.0
 11
1288.3890324334866
 21
381.33460013506681
 31
0.0
  0
LINE
  5
2F3
100
AcDbEntity
  8
0
  6
DASHDOT
 62
               4
100
AcDbLine
 10
1511.8890324334866
 20
402.17773061462242
 30
0.0
 11
1511.8890324334866
 21
379.17773061462242
 31
0.0
  0
LINE
  5
2F4
100
AcDbEntity
  8
0
  6
Continuous
 62
               7
100
AcDbLine
 10
1509.3890324334866
 20
398.67773061462242
 30
0.0
 11
1509.3890324334866
 21
384.17773061462242
 31
0.0
  0
LINE
  5
2F5
100
AcDbEntity
  8
0
  6
Continuous
 62
               7
100
AcDbLine
 10
1506.8890324334866
 20
384.17773061462242
 30
0.0
 11
1506.8890324334866
 21
383.17773061462242
 31
0.0
  0
LINE
  5
2F6
100
AcDbEntity
  8
0
  6
Continuous
 62
               7
100
AcDbLine
 10
1514.3890324334866
 20
398.67773061462242
 30
0.0
 11
1514.3890324334866
 21
384.17773061462242
 31
0.0
  0
LINE
  5
2F7
100
AcDbEntity
  8
0
  6
Continuous
 62
               7
100
AcDbLine
 10
1516.8890324334866
 20
384.17773061462242
 30
0.0
 11
1516.8890324334866
 21
383.17773061462242
 31
0.0
  0
LINE
  5
2F8
100
AcDbEntity
  8
0
  6
Continuous
 62
               7
100
AcDbLine
 10
1506.8890324334866
 20
384.17773061462242
 30
0.0
 11
1516.8890324334866
 21
384.17773061462242
 31
0.0
  0
LINE
  5
2F9
100
AcDbEntity
  8
0
  6
Continuous
 62
               7
100
AcDbLine
 10
1509.3890324334866
 20
398.67773061462242
 30
0.0
 11
1511.8890324334866
 21
400.17773061462242
 31
0.0
  0
LINE
  5
2FA
100
AcDbEntity
  8
0
  6
Continuous
 62
               7
100
AcDbLine
 10
1514.3890324334866
 20
398.67773061462242
 30
0.0
 11
1511.8890324334866
 21
400.17773061462242
 31
0.0
  0
LINE
  5
2FB
100
AcDbEntity
  8
0
  6
Continuous
 62
               7
100
AcDbLine
 10
1509.3890324334866
 20
387.17773061462242
 30
0.0
 11
1514.3890324334866
 21
389.17773061462242
 31
0.0
  0
LINE
  5
2FC
100
AcDbEntity
  8
0
  6
Continuous
 62
               7
100
AcDbLine
 10
1509.3890324334866
 20
389.17773061462242
 30
0.0
 11
1514.3890324334866
 21
391.17773061462242
 31
0.0
  0
LINE
  5
2FD
100
AcDbEntity
  8
0
  6
Continuous
 62
               7
100
AcDbLine
 10
1509.3890324334866
 20
391.17773061462242
 30
0.0
 11
1514.3890324334866
 21
393.17773061462242
 31
0.0
  0
LINE
  5
2FE
100
AcDbEntity
  8
0
  6
Continuous
 62
               7
100
AcDbLine
 10
1514.3890324334866
 20
395.17773061462242
 30
0.0
 11
1509.3890324334866
 21
393.17773061462242
 31
0.0
  0
LINE
  5
2FF
100
AcDbEntity
  8
0
  6
Continuous
 62
               7
100
AcDbLine
 10
1514.3890324334866
 20
397.17773061462242
 30
0.0
 11
1511.3890324334866
 21
395.97773061462249
 31
0.0
  0
LINE
  5
300
100
AcDbEntity
  8
0
  6
Continuous
 62
               7
100
AcDbLine
 10
1509.8890324334866
 20
398.17773061462242
 30
0.0
 11
1509.8890324334866
 21
395.37773061462235
 31
0.0
  0
LINE
  5
301
100
AcDbEntity
  8
0
  6
Continuous
 62
               7
100
AcDbLine
 10
1511.3890324334866
 20
398.87773061462258
 30
0.0
 11
1511.3890324334866
 21
395.97773061462249
 31
0.0
  0
LINE
  5
302
100
AcDbEntity
  8
0
  6
Continuous
 62
               7
100
AcDbLine
 10
1509.3890324334866
 20
398.67773061462242
 30
0.0
 11
1509.8890324334866
 21
398.17773061462242
 31
0.0
  0
LINE
  5
303
100
AcDbEntity
  8
0
  6
Continuous
 62
               7
100
AcDbLine
 10
1511.3890324334866
 20
395.97773061462249
 30
0.0
 11
1510.3390324334864
 21
394.92773061462242
 31
0.0
  0
LINE
  5
304
100
AcDbEntity
  8
0
  6
Continuous
 62
               7
100
AcDbLine
 10
1509.8890324334866
 20
395.37773061462235
 30
0.0
 11
1510.3390324334864
 21
394.92773061462242
 31
0.0
  0
LINE
  5
305
100
AcDbEntity
  8
0
  6
Continuous
 62
               7
100
AcDbLine
 10
1509.8890324334866
 20
395.37773061462235
 30
0.0
 11
1509.3890324334866
 21
395.17773061462242
 31
0.0
  0
LINE
  5
306
100
AcDbEntity
  8
0
  6
DOT
 62
               7
100
AcDbLine
 10
1510.3890324334866
 20
381.33460013506681
 30
0.0
 11
1511.8890324334866
 21
384.17773061462242
 31
0.0
  0
LINE
  5
307
100
AcDbEntity
  8
0
  6
DOT
 62
               7
100
AcDbLine
 10
1511.8890324334866
 20
384.17773061462242
 30
0.0
 11
1513.3890324334866
 21
381.33460013506681
 31
0.0
  0
LINE
  5
308
100
AcDbEntity
  8
0
  6
Continuous
 62
               3
100
AcDbLine
 10
676.18150333975439
 20
407.98038004404566
 30
0.0
 11
676.18150333975439
 21
509.98037965696005
 31
0.0
  0
LINE
  5
309
100
AcDbEntity
  8
0
  6
Continuous
 62
               3
100
AcDbLine
 10
676.18150333975439
 20
407.98038004404566
 30
0.0
 11
646.18150333975439
 21
407.98038010965342
 31
0.0
  0
LINE
  5
30A
100
AcDbEntity
  8
0
  6
Continuous
 62
               3
100
AcDbLine
 10
676.18150333975439
 20
509.98037965696005
 30
0.0
 11
646.18150333975439
 21
509.98037965696005
 31
0.0
  0
LINE
  5
30B
100
AcDbEntity
  8
0
  6
Continuous
 62
               3
100
AcDbLine
 10
656.18150333975439
 20
512.6598715812712
 30
0.0
 11
646.18150333975439
 21
509.98037965696005
 31
0.0
  0
LINE
  5
30C
100
AcDbEntity
  8
0
  6
Continuous
 62
               3
100
AcDbLine
 10
656.18150333975439
 20
509.98037965696005
 30
0.0
 11
656.18150333975439
 21
512.6598715812712
 31
0.0
  0
LINE
  5
30D
100
AcDbEntity
  8
0
  6
Continuous
 62
               3
100
AcDbLine
 10
656.18150333975439
 20
405.30088818534227
 30
0.0
 11
646.18150333975439
 21
407.98038010965354
 31
0.0
  0
LINE
  5
30E
100
AcDbEntity
  8
0
  6
Continuous
 62
               3
100
AcDbLine
 10
656.18150333975439
 20
407.98038010965354
 30
0.0
 11
656.18150333975439
 21
405.30088818534227
 31
0.0
  0
LINE
  5
30F
100
AcDbEntity
  8
0
  6
DASHED
 62
               6
100
AcDbLine
 10
581.68013347674071
 20
431.88448886714411
 30
0.0
 11
581.68013347674071
 21
398.48448886714425
 31
0.0
  0
LINE
  5
310
100
AcDbEntity
  8
0
  6
DASHED
 62
               6
100
AcDbLine
 10
581.68013347674071
 20
431.88448886714411
 30
0.0
 11
582.68013347674071
 21
435.88448886714411
 31
0.0
  0
LINE
  5
311
100
AcDbEntity
  8
0
  6
Continuous
 62
               4
100
AcDbLine
 10
699.68013347674071
 20
419.88448886714411
 30
0.0
 11
650.6053605956223
 21
334.88448886714411
 31
0.0
  0
LINE
  5
312
100
AcDbEntity
  8
0
  6
Continuous
 62
               4
100
AcDbLine
 10
650.6053605956223
 20
334.88448886714411
 30
0.0
 11
551.7631423850479
 21
334.88448886714411
 31
0.0
  0
LINE
  5
313
100
AcDbEntity
  8
0
  6
Continuous
 62
               4
100
AcDbLine
 10
699.68013347674071
 20
419.88448886714411
 30
0.0
 11
698.12721920612546
 21
414.08893390940966
 31
0.0
  0
LINE
  5
314
100
AcDbEntity
  8
0
  6
Continuous
 62
               4
100
AcDbLine
 10
699.68013347674071
 20
419.88448886714411
 30
0.0
 11
695.43749278962139
 21
415.64184818002491
 31
0.0
  0
LINE
  5
315
100
AcDbEntity
  8
0
  6
DIVIDE
 62
               7
100
AcDbLine
 10
602.68013347674071
 20
431.88448886714411
 30
0.0
 11
689.68013347674071
 21
431.88448886714411
 31
0.0
  0
CIRCLE
  5
316
100
AcDbEntity
  8
0
  6
Continuous
 62
               4
100
AcDbCircle
 10
1059.6801334767406
 20
320.88448886714411
 30
0.0
 40
1.0
  0
CIRCLE
  5
317
100
AcDbEntity
  8
0
  6
Continuous
 62
               4
100
AcDbCircle
 10
759.68013347674071
 20
320.88448886714411
 30
0.0
 40
1.0
  0
CIRCLE
  5
318
100
AcDbEntity
  8
0
  6
Continuous
 62
               4
100
AcDbCircle
 10
759.68013347674071
 20
306.88448886714411
 30
0.0
 40
1.0
  0
CIRCLE
  5
319
100
AcDbEntity
  8
0
  6
Continuous
 62
               4
100
AcDbCircle
 10
659.68013347674071
 20
306.88448886714411
 30
0.0
 40
1.0
  0
CIRCLE
  5
31A
100
AcDbEntity
  8
0
  6
Continuous
 62
               4
100
AcDbCircle
 10
759.68013347674071
 20
306.88448886714411
 30
0.0
 40
1.0
  0
CIRCLE
  5
31B
100
AcDbEntity
  8
0
  6
Continuous
 62
               4
100
AcDbCircle
 10
909.68013347674071
 20
306.88448886714411
 30
0.0
 40
1.0
  0
CIRCLE
  5
31C
100
AcDbEntity
  8
0
  6
Continuous
 62
               4
100
AcDbCircle
 10
909.68013347674071
 20
306.88448886714411
 30
0.0
 40
1.0
  0
CIRCLE
  5
31D
100
AcDbEntity
  8
0
  6
Continuous
 62
               4
100
AcDbCircle
 10
1059.6801334767406
 20
306.88448886714411
 30
0.0
 40
1.0
  0
CIRCLE
  5
31E
100
AcDbEntity
  8
0
  6
Continuous
 62
               4
100
AcDbCircle
 10
909.68013347674071
 20
216.88448886714411
 30
0.0
 40
1.0
  0
CIRCLE
  5
31F
100
AcDbEntity
  8
0
  6
Continuous
 62
               4
100
AcDbCircle
 10
659.68013347674071
 20
216.88448886714411
 30
0.0
 40
1.0
  0
CIRCLE
  5
320
100
AcDbEntity
  8
0
  6
Continuous
 62
               4
100
AcDbCircle
 10
1012.6801334767407
 20
872.88448886714423
 30
0.0
 40
1.0
  0
CIRCLE
  5
321
100
AcDbEntity
  8
0
  6
Continuous
 62
               4
100
AcDbCircle
 10
1012.6801334767407
 20
772.88448886714423
 30
0.0
 40
1.0
  0
CIRCLE
  5
322
100
AcDbEntity
  8
0
  6
Continuous
 62
               4
100
AcDbCircle
 10
1124.6801334767406
 20
647.88448886714423
 30
0.0
 40
1.0
  0
CIRCLE
  5
323
100
AcDbEntity
  8
0
  6
Continuous
 62
               4
100
AcDbCircle
 10
1124.6801334767406
 20
847.88448886714423
 30
0.0
 40
1.0
  0
CIRCLE
  5
324
100
AcDbEntity
  8
0
  6
Continuous
 62
               4
100
AcDbCircle
 10
1124.6801334767406
 20
847.88448886714423
 30
0.0
 40
1.0
  0
CIRCLE
  5
325
100
AcDbEntity
  8
0
  6
Continuous
 62
               4
100
AcDbCircle
 10
1124.6801334767406
 20
872.88448886714423
 30
0.0
 40
1.0
  0
CIRCLE
  5
326
100
AcDbEntity
  8
0
  6
Continuous
 62
               4
100
AcDbCircle
 10
1110.6801334767406
 20
647.88448886714423
 30
0.0
 40
1.0
  0
CIRCLE
  5
327
100
AcDbEntity
  8
0
  6
Continuous
 62
               4
100
AcDbCircle
 10
1110.6801334767406
 20
872.88448886714423
 30
0.0
 40
1.0
  0
CIRCLE
  5
328
100
AcDbEntity
  8
0
  6
Continuous
 62
               4
100
AcDbCircle
 10
709.68013347674071
 20
645.88448886714423
 30
0.0
 40
1.0
  0
CIRCLE
  5
329
100
AcDbEntity
  8
0
  6
Continuous
 62
               4
100
AcDbCircle
 10
729.68013347674071
 20
645.88448886714423
 30
0.0
 40
1.0
  0
CIRCLE
  5
32A
100
AcDbEntity
  8
0
  6
Continuous
 62
               4
100
AcDbCircle
 10
729.68013347674071
 20
645.88448886714423
 30
0.0
 40
1.0
  0
CIRCLE
  5
32B
100
AcDbEntity
  8
0
  6
Continuous
 62
               4
100
AcDbCircle
 10
759.68013347674071
 20
645.88448886714423
 30
0.0
 40
1.0
  0
CIRCLE
  5
32C
100
AcDbEntity
  8
0
  6
Continuous
 62
               4
100
AcDbCircle
 10
709.68013347674071
 20
659.88448886714423
 30
0.0
 40
1.0
  0
CIRCLE
  5
32D
100
AcDbEntity
  8
0
  6
Continuous
 62
               4
100
AcDbCircle
 10
759.68013347674071
 20
659.88448886714423
 30
0.0
 40
1.0
  0
CIRCLE
  5
32E
100
AcDbEntity
  8
0
  6
Continuous
 62
               4
100
AcDbCircle
 10
759.68013347674071
 20
998.88448886714423
 30
0.0
 40
1.0
  0
CIRCLE
  5
32F
100
AcDbEntity
  8
0
  6
Continuous
 62
               4
100
AcDbCircle
 10
734.68013347674071
 20
998.88448886714423
 30
0.0
 40
1.0
  0
CIRCLE
  5
330
100
AcDbEntity
  8
0
  6
Continuous
 62
               4
100
AcDbCircle
 10
734.68013347674071
 20
998.88448886714423
 30
0.0
 40
1.0
  0
CIRCLE
  5
331
100
AcDbEntity
  8
0
  6
Continuous
 62
               4
100
AcDbCircle
 10
709.68013347674071
 20
998.88448886714423
 30
0.0
 40
1.0
  0
CIRCLE
  5
332
100
AcDbEntity
  8
0
  6
Continuous
 62
               4
100
AcDbCircle
 10
709.68013347674071
 20
998.88448886714423
 30
0.0
 40
1.0
  0
CIRCLE
  5
333
100
AcDbEntity
  8
0
  6
Continuous
 62
               4
100
AcDbCircle
 10
659.68013347674071
 20
998.88448886714423
 30
0.0
 40
1.0
  0
CIRCLE
  5
334
100
AcDbEntity
  8
0
  6
Continuous
 62
               4
100
AcDbCircle
 10
659.68013347674071
 20
998.88448886714423
 30
0.0
 40
1.0
  0
CIRCLE
  5
335
100
AcDbEntity
  8
0
  6
Continuous
 62
               4
100
AcDbCircle
 10
609.68013347674071
 20
998.88448886714423
 30
0.0
 40
1.0
  0
CIRCLE
  5
336
100
AcDbEntity
  8
0
  6
Continuous
 62
               4
100
AcDbCircle
 10
609.68013347674071
 20
998.88448886714423
 30
0.0
 40
1.0
  0
CIRCLE
  5
337
100
AcDbEntity
  8
0
  6
Continuous
 62
               4
100
AcDbCircle
 10
589.68013347674071
 20
998.88448886714423
 30
0.0
 40
1.0
  0
CIRCLE
  5
338
100
AcDbEntity
  8
0
  6
Continuous
 62
               4
100
AcDbCircle
 10
589.68013347674071
 20
998.88448886714423
 30
0.0
 40
1.0
  0
CIRCLE
  5
339
100
AcDbEntity
  8
0
  6
Continuous
 62
               4
100
AcDbCircle
 10
583.68013347674071
 20
998.88448886714423
 30
0.0
 40
1.0
  0
CIRCLE
  5
33A
100
AcDbEntity
  8
0
  6
Continuous
 62
               4
100
AcDbCircle
 10
580.68013347674071
 20
1012.8844888671442
 30
0.0
 40
1.0
  0
CIRCLE
  5
33B
100
AcDbEntity
  8
0
  6
Continuous
 62
               4
100
AcDbCircle
 10
609.68013347674071
 20
1012.8844888671442
 30
0.0
 40
1.0
  0
CIRCLE
  5
33C
100
AcDbEntity
  8
0
  6
Continuous
 62
               4
100
AcDbCircle
 10
609.68013347674071
 20
1012.8844888671442
 30
0.0
 40
1.0
  0
CIRCLE
  5
33D
100
AcDbEntity
  8
0
  6
Continuous
 62
               4
100
AcDbCircle
 10
709.68013347674071
 20
1012.8844888671442
 30
0.0
 40
1.0
  0
CIRCLE
  5
33E
100
AcDbEntity
  8
0
  6
Continuous
 62
               4
100
AcDbCircle
 10
709.68013347674071
 20
1012.8844888671442
 30
0.0
 40
1.0
  0
CIRCLE
  5
33F
100
AcDbEntity
  8
0
  6
Continuous
 62
               4
100
AcDbCircle
 10
909.68013347674071
 20
1012.8844888671442
 30
0.0
 40
1.0
  0
CIRCLE
  5
340
100
AcDbEntity
  8
0
  6
Continuous
 62
               4
100
AcDbCircle
 10
457.68013347674071
 20
572.88448886714423
 30
0.0
 40
1.0
  0
CIRCLE
  5
341
100
AcDbEntity
  8
0
  6
Continuous
 62
               4
100
AcDbCircle
 10
457.68013347674071
 20
872.88448886714423
 30
0.0
 40
1.0
  0
CIRCLE
  5
342
100
AcDbEntity
  8
0
  6
Continuous
 62
               4
100
AcDbCircle
 10
586.68013347674071
 20
1094.8844888671442
 30
0.0
 40
1.0
  0
CIRCLE
  5
343
100
AcDbEntity
  8
0
  6
Continuous
 62
               4
100
AcDbCircle
 10
599.68013347674071
 20
1094.8844888671442
 30
0.0
 40
1.0
  0
CIRCLE
  5
344
100
AcDbEntity
  8
0
  6
Continuous
 62
               4
100
AcDbCircle
 10
659.68013347674071
 20
216.88448886714411
 30
0.0
 40
1.0
  0
CIRCLE
  5
345
100
AcDbEntity
  8
0
  6
Continuous
 62
               4
100
AcDbCircle
 10
582.68013347674071
 20
216.88448886714411
 30
0.0
 40
1.0
  0
CIRCLE
  5
346
100
AcDbEntity
  8
0
  6
Continuous
 62
               4
100
AcDbCircle
 10
580.68013347674071
 20
1012.8844888671442
 30
0.0
 40
1.0
  0
CIRCLE
  5
347
100
AcDbEntity
  8
0
  6
Continuous
 62
               4
100
AcDbCircle
 10
560.68013347674071
 20
1012.8844888671442
 30
0.0
 40
1.0
  0
CIRCLE
  5
348
100
AcDbEntity
  8
0
  6
Continuous
 62
               4
100
AcDbCircle
 10
457.68013347674071
 20
397.88448886714411
 30
0.0
 40
1.0
  0
CIRCLE
  5
349
100
AcDbEntity
  8
0
  6
Continuous
 62
               4
100
AcDbCircle
 10
457.68013347674071
 20
417.88448886714411
 30
0.0
 40
1.0
  0
CIRCLE
  5
34A
100
AcDbEntity
  8
0
  6
Continuous
 62
               4
100
AcDbCircle
 10
582.68013347674071
 20
1094.8844888671442
 30
0.0
 40
1.0
  0
CIRCLE
  5
34B
100
AcDbEntity
  8
0
  6
Continuous
 62
               4
100
AcDbCircle
 10
580.68013347674071
 20
1094.8844888671442
 30
0.0
 40
1.0
  0
CIRCLE
  5
34C
100
AcDbEntity
  8
0
  6
Continuous
 62
               4
100
AcDbCircle
 10
457.68013347674071
 20
572.88448886714423
 30
0.0
 40
1.0
  0
CIRCLE
  5
34D
100
AcDbEntity
  8
0
  6
Continuous
 62
               4
100
AcDbCircle
 10
457.68013347674071
 20
417.88448886714411
 30
0.0
 40
1.0
  0
CIRCLE
  5
34E
100
AcDbEntity
  8
0
  6
Continuous
 62
               4
100
AcDbCircle
 10
471.68013347674071
 20
572.88448886714423
 30
0.0
 40
1.0
  0
CIRCLE
  5
34F
100
AcDbEntity
  8
0
  6
Continuous
 62
               4
100
AcDbCircle
 10
471.68013347674071
 20
472.88448886714411
 30
0.0
 40
1.0
  0
CIRCLE
  5
350
100
AcDbEntity
  8
0
  6
Continuous
 62
               4
100
AcDbCircle
 10
443.68013347674071
 20
417.88448886714411
 30
0.0
 40
1.0
  0
CIRCLE
  5
351
100
AcDbEntity
  8
0
  6
Continuous
 62
               4
100
AcDbCircle
 10
443.68013347674071
 20
872.88448886714423
 30
0.0
 40
1.0
  0
CIRCLE
  5
352
100
AcDbEntity
  8
0
  6
Continuous
 62
               4
100
AcDbCircle
 10
471.68013347674071
 20
472.88448886714411
 30
0.0
 40
1.0
  0
CIRCLE
  5
353
100
AcDbEntity
  8
0
  6
Continuous
 62
               4
100
AcDbCircle
 10
471.68013347674071
 20
417.88448886714411
 30
0.0
 40
1.0
  0
CIRCLE
  5
354
100
AcDbEntity
  8
0
  6
Continuous
 62
               4
100
AcDbCircle
 10
659.68013347674071
 20
320.88448886714411
 30
0.0
 40
1.0
  0
CIRCLE
  5
355
100
AcDbEntity
  8
0
  6
Continuous
 62
               4
100
AcDbCircle
 10
709.68013347674071
 20
320.88448886714411
 30
0.0
 40
1.0
  0
CIRCLE
  5
356
100
AcDbEntity
  8
0
  6
Continuous
 62
               4
100
AcDbCircle
 10
709.68013347674071
 20
320.88448886714411
 30
0.0
 40
1.0
  0
CIRCLE
  5
357
100
AcDbEntity
  8
0
  6
Continuous
 62
               4
100
AcDbCircle
 10
734.68013347674071
 20
320.88448886714411
 30
0.0
 40
1.0
  0
CIRCLE
  5
358
100
AcDbEntity
  8
0
  6
Continuous
 62
               4
100
AcDbCircle
 10
734.68013347674071
 20
320.88448886714411
 30
0.0
 40
1.0
  0
CIRCLE
  5
359
100
AcDbEntity
  8
0
  6
Continuous
 62
               4
100
AcDbCircle
 10
759.68013347674071
 20
320.88448886714411
 30
0.0
 40
1.0
  0
CIRCLE
  5
35A
100
AcDbEntity
  8
0
  6
Continuous
 62
               4
100
AcDbCircle
 10
909.68013347674071
 20
202.88448886714411
 30
0.0
 40
1.0
  0
CIRCLE
  5
35B
100
AcDbEntity
  8
0
  6
Continuous
 62
               4
100
AcDbCircle
 10
582.68013347674071
 20
202.88448886714411
 30
0.0
 40
1.0
  0
CIRCLE
  5
35C
100
AcDbEntity
  8
0
  6
Continuous
 62
               4
100
AcDbCircle
 10
909.68013347674071
 20
181.88448886714411
 30
0.0
 40
14.0
  0
CIRCLE
  5
35D
100
AcDbEntity
  8
0
  6
Continuous
 62
               4
100
AcDbCircle
 10
642.68013347674071
 20
417.88448886714411
 30
0.0
 40
1.0
  0
CIRCLE
  5
35E
100
AcDbEntity
  8
0
  6
Continuous
 62
               4
100
AcDbCircle
 10
642.68013347674071
 20
432.88448886714411
 30
0.0
 40
1.0
  0
CIRCLE
  5
35F
100
AcDbEntity
  8
0
  6
Continuous
 62
               4
100
AcDbCircle
 10
642.68013347674071
 20
432.88448886714411
 30
0.0
 40
1.0
  0
CIRCLE
  5
360
100
AcDbEntity
  8
0
  6
Continuous
 62
               4
100
AcDbCircle
 10
642.68013347674071
 20
451.88448886714411
 30
0.0
 40
1.0
  0
CIRCLE
  5
361
100
AcDbEntity
  8
0
  6
Continuous
 62
               4
100
AcDbCircle
 10
642.68013347674071
 20
451.88448886714411
 30
0.0
 40
1.0
  0
CIRCLE
  5
362
100
AcDbEntity
  8
0
  6
Continuous
 62
               4
100
AcDbCircle
 10
642.68013347674071
 20
489.88448886714411
 30
0.0
 40
1.0
  0
CIRCLE
  5
363
100
AcDbEntity
  8
0
  6
Continuous
 62
               4
100
AcDbCircle
 10
642.68013347674071
 20
489.88448886714411
 30
0.0
 40
1.0
  0
CIRCLE
  5
364
100
AcDbEntity
  8
0
  6
Continuous
 62
               4
100
AcDbCircle
 10
642.68013347674071
 20
501.88448886714411
 30
0.0
 40
1.0
  0
CIRCLE
  5
365
100
AcDbEntity
  8
0
  6
Continuous
 62
               4
100
AcDbCircle
 10
642.68013347674071
 20
501.88448886714411
 30
0.0
 40
1.0
  0
CIRCLE
  5
366
100
AcDbEntity
  8
0
  6
Continuous
 62
               4
100
AcDbCircle
 10
642.68013347674071
 20
572.88448886714423
 30
0.0
 40
1.0
  0
CIRCLE
  5
367
100
AcDbEntity
  8
0
  6
Continuous
 62
               4
100
AcDbCircle
 10
582.68013347674071
 20
383.88448886714411
 30
0.0
 40
1.0
  0
CIRCLE
  5
368
100
AcDbEntity
  8
0
  6
Continuous
 62
               4
100
AcDbCircle
 10
602.68013347674071
 20
383.88448886714411
 30
0.0
 40
1.0
  0
CIRCLE
  5
369
100
AcDbEntity
  8
0
  6
Continuous
 62
               4
100
AcDbCircle
 10
602.68013347674071
 20
383.88448886714411
 30
0.0
 40
1.0
  0
CIRCLE
  5
36A
100
AcDbEntity
  8
0
  6
Continuous
 62
               4
100
AcDbCircle
 10
689.68013347674071
 20
383.88448886714411
 30
0.0
 40
1.0
  0
CIRCLE
  5
36B
100
AcDbEntity
  8
0
  6
Continuous
 62
               4
100
AcDbCircle
 10
689.68013347674071
 20
383.88448886714411
 30
0.0
 40
1.0
  0
CIRCLE
  5
36C
100
AcDbEntity
  8
0
  6
Continuous
 62
               4
100
AcDbCircle
 10
709.68013347674071
 20
383.88448886714411
 30
0.0
 40
1.0
  0
CIRCLE
  5
36D
100
AcDbEntity
  8
0
  6
Continuous
 62
               4
100
AcDbCircle
 10
582.68013347674071
 20
369.88448886714411
 30
0.0
 40
1.0
  0
CIRCLE
  5
36E
100
AcDbEntity
  8
0
  6
Continuous
 62
               4
100
AcDbCircle
 10
709.68013347674071
 20
369.88448886714411
 30
0.0
 40
1.0
  0
CIRCLE
  5
36F
100
AcDbEntity
  8
0
  6
Continuous
 62
               4
100
AcDbCircle
 10
1258.8890324334866
 20
387.17773061462253
 30
0.0
 40
1.0
  0
CIRCLE
  5
370
100
AcDbEntity
  8
0
  6
Continuous
 62
               4
100
AcDbCircle
 10
1258.8890324334866
 20
406.17773061462265
 30
0.0
 40
1.0
  0
CIRCLE
  5
371
100
AcDbEntity
  8
0
  6
Continuous
 62
               4
100
AcDbCircle
 10
1258.8890324334866
 20
406.17773061462265
 30
0.0
 40
1.0
  0
CIRCLE
  5
372
100
AcDbEntity
  8
0
  6
Continuous
 62
               4
100
AcDbCircle
 10
1258.8890324334866
 20
444.17773061462242
 30
0.0
 40
1.0
  0
CIRCLE
  5
373
100
AcDbEntity
  8
0
  6
Continuous
 62
               4
100
AcDbCircle
 10
1286.8890324334866
 20
325.17773061462231
 30
0.0
 40
1.0
  0
CIRCLE
  5
374
100
AcDbEntity
  8
0
  6
Continuous
 62
               4
100
AcDbCircle
 10
1286.8890324334866
 20
325.17773061462231
 30
0.0
 40
1.0
  0
CIRCLE
  5
375
100
AcDbEntity
  8
0
  6
Continuous
 62
               4
100
AcDbCircle
 10
1511.8890324334866
 20
325.17773061462231
 30
0.0
 40
1.0
  0
CIRCLE
  5
376
100
AcDbEntity
  8
0
  6
Continuous
 62
               4
100
AcDbCircle
 10
1511.8890324334866
 20
325.17773061462231
 30
0.0
 40
1.0
  0
CIRCLE
  5
377
100
AcDbEntity
  8
0
  6
Continuous
 62
               4
100
AcDbCircle
 10
1258.8890324334866
 20
387.17773061462242
 30
0.0
 40
1.0
  0
CIRCLE
  5
378
100
AcDbEntity
  8
0
  6
Continuous
 62
               4
100
AcDbCircle
 10
1258.8890324334866
 20
370.17773061462253
 30
0.0
 40
1.0
  0
CIRCLE
  5
379
100
AcDbEntity
  8
0
  6
Continuous
 62
               4
100
AcDbCircle
 10
1276.8890324334866
 20
339.17773061462242
 30
0.0
 40
1.0
  0
CIRCLE
  5
37A
100
AcDbEntity
  8
0
  6
Continuous
 62
               4
100
AcDbCircle
 10
1296.8890324334866
 20
339.17773061462242
 30
0.0
 40
1.0
  0
CIRCLE
  5
37B
100
AcDbEntity
  8
0
  6
Continuous
 62
               4
100
AcDbCircle
 10
1501.8890324334866
 20
339.17773061462242
 30
0.0
 40
1.0
  0
CIRCLE
  5
37C
100
AcDbEntity
  8
0
  6
Continuous
 62
               4
100
AcDbCircle
 10
1521.8890324334866
 20
339.17773061462242
 30
0.0
 40
1.0
  0
ARC
  5
37D
100
AcDbEntity
  8
0
  6
Continuous
 62
               6
100
AcDbCircle
 10
895.93013347674071
 20
591.88448886714423
 30
0.0
 40
11.0
100
AcDbArc
 50
270.0
 51
0.0
  0
ARC
  5
37E
100
AcDbEntity
  8
0
  6
Continuous
 62
               6
100
AcDbCircle
 10
923.43013347674071
 20
591.88448886714423
 30
0.0
 40
11.0
100
AcDbArc
 50
180.0
 51
270.0
  0
ARC
  5
37F
100
AcDbEntity
  8
0
  6
Continuous
 62
               6
100
AcDbCircle
 10
895.93013347674071
 20
753.88448886714423
 30
0.0
 40
11.0
100
AcDbArc
 50
0.0
 51
90.000000000000028
  0
ARC
  5
380
100
AcDbEntity
  8
0
  6
Continuous
 62
               6
100
AcDbCircle
 10
923.43013347674071
 20
753.88448886714423
 30
0.0
 40
11.0
100
AcDbArc
 50
90.000000000000028
 51
180.0
  0
ARC
  5
381
100
AcDbEntity
  8
0
  6
DASHED
 62
               4
100
AcDbCircle
 10
774.18013347674071
 20
833.38448886714423
 30
0.0
 40
8.5
100
AcDbArc
 50
90.000000000000028
 51
180.0
  0
ARC
  5
382
100
AcDbEntity
  8
0
  6
DASHED
 62
               4
100
AcDbCircle
 10
830.68013347674071
 20
845.88448886714446
 30
0.0
 40
4.0
100
AcDbArc
 50
270.0
 51
0.0
  0
ARC
  5
383
100
AcDbEntity
  8
0
  6
DASHED
 62
               4
100
AcDbCircle
 10
761.68013347674071
 20
776.88448886714423
 30
0.0
 40
4.0
100
AcDbArc
 50
270.0
 51
0.0
  0
ARC
  5
384
100
AcDbEntity
  8
0
  6
Continuous
 62
               6
100
AcDbCircle
 10
668.68013347674071
 20
568.88448886714423
 30
0.0
 40
4.0
100
AcDbArc
 50
90.000000000000028
 51
180.0
  0
ARC
  5
385
100
AcDbEntity
  8
0
  6
Continuous
 62
               6
100
AcDbCircle
 10
727.68013347674071
 20
627.88448886714423
 30
0.0
 40
4.0
100
AcDbArc
 50
90.000000000000028
 51
180.0
  0
ARC
  5
386
100
AcDbEntity
  8
0
  6
Continuous
 62
               6
100
AcDbCircle
 10
715.18013347674071
 20
581.38448886714423
 30
0.0
 40
8.5
100
AcDbArc
 50
270.0
 51
0.0
  0
ARC
  5
387
100
AcDbEntity
  8
0
  6
Continuous
 62
               6
100
AcDbCircle
 10
698.68013347674071
 20
564.88448886714423
 30
0.0
 40
4.0
100
AcDbArc
 50
180.0
 51
270.0
  0
ARC
  5
388
100
AcDbEntity
  8
0
  6
Continuous
 62
               6
100
AcDbCircle
 10
757.68013347674071
 20
505.88448886714411
 30
0.0
 40
4.0
100
AcDbArc
 50
180.0
 51
270.0
  0
ARC
  5
389
100
AcDbEntity
  8
0
  6
Continuous
 62
               6
100
AcDbCircle
 10
745.18013347674071
 20
552.38448886714411
 30
0.0
 40
8.5
100
AcDbArc
 50
0.0
 51
89.999999999999957
  0
ARC
  5
38A
100
AcDbEntity
  8
0
  6
Continuous
 62
               6
100
AcDbCircle
 10
795.68013347674071
 20
851.88448886714423
 30
0.0
 40
4.0
100
AcDbArc
 50
270.0
 51
0.0
  0
ARC
  5
38B
100
AcDbEntity
  8
0
  6
Continuous
 62
               6
100
AcDbCircle
 10
736.68013347674071
 20
792.88448886714423
 30
0.0
 40
4.0
100
AcDbArc
 50
270.0
 51
0.0
  0
ARC
  5
38C
100
AcDbEntity
  8
0
  6
Continuous
 62
               6
100
AcDbCircle
 10
749.18013347674071
 20
839.38448886714423
 30
0.0
 40
8.5
100
AcDbArc
 50
90.000000000000028
 51
180.0
  0
ARC
  5
38D
100
AcDbEntity
  8
0
  6
Continuous
 62
               6
100
AcDbCircle
 10
722.18013347674071
 20
866.38448886714423
 30
0.0
 40
6.5
100
AcDbArc
 50
180.0
 51
270.0
  0
ARC
  5
38E
100
AcDbEntity
  8
0
  6
Continuous
 62
               6
100
AcDbCircle
 10
711.18013347674071
 20
909.38448886714423
 30
0.0
 40
4.5
100
AcDbArc
 50
0.0
 51
90.000000000000028
  0
ARC
  5
38F
100
AcDbEntity
  8
0
  6
Continuous
 62
               6
100
AcDbCircle
 10
765.18013347674071
 20
855.38448886714423
 30
0.0
 40
4.5
100
AcDbArc
 50
0.0
 51
90.000000000000028
  0
ARC
  5
390
100
AcDbEntity
  8
0
  6
Continuous
 62
               7
100
AcDbCircle
 10
634.68013347674071
 20
920.38448886714423
 30
0.0
 40
10.0
100
AcDbArc
 50
143.13010235415592
 51
216.86989764584399
  0
ARC
  5
391
100
AcDbEntity
  8
0
  6
Continuous
 62
               7
100
AcDbCircle
 10
627.93013347674071
 20
911.38448886714423
 30
0.0
 40
3.25
100
AcDbArc
 50
112.61986494804019
 51
180.0
  0
ARC
  5
392
100
AcDbEntity
  8
0
  6
Continuous
 62
               7
100
AcDbCircle
 10
627.93013347674071
 20
929.38448886714423
 30
0.0
 40
3.25
100
AcDbArc
 50
180.0
 51
247.38013505195971
  0
ARC
  5
393
100
AcDbEntity
  8
0
  6
Continuous
 62
               7
100
AcDbCircle
 10
711.68013347674071
 20
909.38448886714423
 30
0.0
 40
5.0
100
AcDbArc
 50
0.0
 51
90.000000000000028
  0
ARC
  5
394
100
AcDbEntity
  8
0
  6
Continuous
 62
               7
100
AcDbCircle
 10
711.68013347674071
 20
909.38448886714423
 30
0.0
 40
17.0
100
AcDbArc
 50
0.0
 51
90.000000000000028
  0
ARC
  5
395
100
AcDbEntity
  8
0
  6
Continuous
 62
               6
100
AcDbCircle
 10
715.68013347674071
 20
880.38448886714423
 30
0.0
 40
3.0
100
AcDbArc
 50
270.0
 51
90.0
  0
ARC
  5
396
100
AcDbEntity
  8
0
  6
Continuous
 62
               6
100
AcDbCircle
 10
715.68013347674071
 20
884.38448886714423
 30
0.0
 40
3.0
100
AcDbArc
 50
318.18968510422252
 51
90.0
  0
ARC
  5
397
100
AcDbEntity
  8
0
  6
Continuous
 62
               6
100
AcDbCircle
 10
715.68013347674071
 20
888.38448886714423
 30
0.0
 40
3.0
100
AcDbArc
 50
318.18968510422252
 51
90.0
  0
ARC
  5
398
100
AcDbEntity
  8
0
  6
Continuous
 62
               6
100
AcDbCircle
 10
715.68013347674071
 20
892.38448886714423
 30
0.0
 40
3.0
100
AcDbArc
 50
318.18968510422252
 51
90.0
  0
ARC
  5
399
100
AcDbEntity
  8
0
  6
Continuous
 62
               6
100
AcDbCircle
 10
715.68013347674071
 20
896.38448886714423
 30
0.0
 40
3.0
100
AcDbArc
 50
318.18968510422252
 51
90.0
  0
ARC
  5
39A
100
AcDbEntity
  8
0
  6
Continuous
 62
               6
100
AcDbCircle
 10
715.68013347674071
 20
900.38448886714423
 30
0.0
 40
3.0
100
AcDbArc
 50
318.18968510422252
 51
90.0
  0
ARC
  5
39B
100
AcDbEntity
  8
0
  6
Continuous
 62
               6
100
AcDbCircle
 10
715.68013347674071
 20
904.38448886714423
 30
0.0
 40
3.0
100
AcDbArc
 50
318.18968510422252
 51
90.0
  0
ARC
  5
39C
100
AcDbEntity
  8
0
  6
Continuous
 62
               2
100
AcDbCircle
 10
582.18013347674071
 20
398.38448886714411
 30
0.0
 40
1.5
100
AcDbArc
 50
180.0
 51
0.0
  0
ARC
  5
39D
100
AcDbEntity
  8
0
  6
Continuous
 62
               6
100
AcDbCircle
 10
707.68013347674071
 20
417.88448886714411
 30
0.0
 40
2.0
100
AcDbArc
 50
0.0
 51
90.000000000000028
  0
ARC
  5
39E
100
AcDbEntity
  8
0
  6
Continuous
 62
               6
100
AcDbCircle
 10
691.68013347674071
 20
417.88448886714411
 30
0.0
 40
2.0
100
AcDbArc
 50
90.000000000000028
 51
180.0
  0
ARC
  5
39F
100
AcDbEntity
  8
0
  6
Continuous
 62
               6
100
AcDbCircle
 10
584.68013347674071
 20
417.88448886714411
 30
0.0
 40
2.0
100
AcDbArc
 50
90.000000000000028
 51
180.0
  0
ARC
  5
3A0
100
AcDbEntity
  8
0
  6
Continuous
 62
               6
100
AcDbCircle
 10
600.68013347674071
 20
417.88448886714411
 30
0.0
 40
2.0
100
AcDbArc
 50
0.0
 51
90.000000000000028
  0
ARC
  5
3A1
100
AcDbEntity
  8
0
  6
Continuous
 62
               7
100
AcDbCircle
 10
699.68013347674071
 20
436.13448886714411
 30
0.0
 40
7.25
100
AcDbArc
 50
226.39718102729637
 51
313.60281897270357
  0
ARC
  5
3A2
100
AcDbEntity
  8
0
  6
Continuous
 62
               7
100
AcDbCircle
 10
700.18013347674071
 20
446.58448886714427
 30
0.0
 40
1.0
100
AcDbArc
 50
90.000000000000028
 51
180.0
  0
ARC
  5
3A3
100
AcDbEntity
  8
0
  6
Continuous
 62
               7
100
AcDbCircle
 10
595.18013347674071
 20
434.63448886714411
 30
0.0
 40
7.25
100
AcDbArc
 50
226.39718102729637
 51
313.60281897270357
  0
ARC
  5
3A4
100
AcDbEntity
  8
0
  6
Continuous
 62
               7
100
AcDbCircle
 10
595.68013347674071
 20
445.08448886714427
 30
0.0
 40
1.0
100
AcDbArc
 50
90.000000000000028
 51
180.0
  0
ARC
  5
3A5
100
AcDbEntity
  8
0
  6
Continuous
 62
               7
100
AcDbCircle
 10
1286.8890324334866
 20
388.42773061462242
 30
0.0
 40
7.25
100
AcDbArc
 50
226.39718102729637
 51
313.60281897270357
  0
ARC
  5
3A6
100
AcDbEntity
  8
0
  6
Continuous
 62
               7
100
AcDbCircle
 10
1287.3890324334866
 20
398.87773061462235
 30
0.0
 40
1.0
100
AcDbArc
 50
90.000000000000028
 51
180.0
  0
ARC
  5
3A7
100
AcDbEntity
  8
0
  6
Continuous
 62
               7
100
AcDbCircle
 10
1511.8890324334866
 20
388.42773061462242
 30
0.0
 40
7.25
100
AcDbArc
 50
226.39718102729637
 51
313.60281897270357
  0
ARC
  5
3A8
100
AcDbEntity
  8
0
  6
Continuous
 62
               7
100
AcDbCircle
 10
1512.3890324334866
 20
398.87773061462258
 30
0.0
 40
1.0
100
AcDbArc
 50
90.000000000000028
 51
180.0
  0
TEXT
  5
3A9
100
AcDbEntity
  8
0
 62
               7
100
AcDbText
 10
903.67946603838448
 20
321.88462634659618
 30
0.0
 40
8.0
  1
300
 41
0.7695
  7
FontTableH_0
 72
               5
 11
912.67946603838448
 21
321.88462634659618
 31
0.0
100
AcDbText
  0
TEXT
  5
3AA
100
AcDbEntity
  8
0
 62
               7
100
AcDbText
 10
703.67946603838448
 20
307.88462634659618
 30
0.0
 40
8.0
  1
100
 41
0.7695
  7
FontTableH_0
 72
               5
 11
712.67946603838448
 21
307.88462634659618
 31
0.0
100
AcDbText
  0
TEXT
  5
3AB
100
AcDbEntity
  8
0
 62
               7
100
AcDbText
 10
828.67946603838448
 20
307.88462634659618
 30
0.0
 40
8.0
  1
150
 41
0.7695
  7
FontTableH_0
 72
               5
 11
837.67946603838448
 21
307.88462634659618
 31
0.0
100
AcDbText
  0
TEXT
  5
3AC
100
AcDbEntity
  8
0
 62
               7
100
AcDbText
 10
978.67983203838446
 20
307.88462634659618
 30
0.0
 40
8.0
  1
150
 41
0.7695
  7
FontTableH_0
 72
               5
 11
987.67983203838446
 21
307.88462634659618
 31
0.0
100
AcDbText
  0
TEXT
  5
3AD
100
AcDbEntity
  8
0
 62
               7
100
AcDbText
 10
778.67946603838448
 20
217.88451934659622
 30
0.0
 40
8.0
  1
250
 41
0.7695
  7
FontTableH_0
 72
               5
 11
787.67946603838448
 21
217.88451934659622
 31
0.0
100
AcDbText
  0
TEXT
  5
3AE
100
AcDbEntity
  8
0
 62
               7
100
AcDbText
 10
1011.6803200383844
 20
816.88450434659626
 30
0.0
 40
7.9999999999999716
  1
100
 50
89.999981276032244
 41
0.7695
  7
FontTableH_0
 72
               5
 11
1011.6803229795383
 21
825.8845043465958
 31
0.0
100
AcDbText
  0
TEXT
  5
3AF
100
AcDbEntity
  8
0
 62
               7
100
AcDbText
 10
1123.6802590383845
 20
741.88450434659626
 30
0.0
 40
7.9999999999999716
  1
200
 50
89.999981276032244
 41
0.7695
  7
FontTableH_0
 72
               5
 11
1123.6802619795385
 21
750.8845043465958
 31
0.0
100
AcDbText
  0
TEXT
  5
3B0
100
AcDbEntity
  8
0
 62
               7
100
AcDbText
 10
1123.6802590383845
 20
856.38450434659626
 30
0.0
 40
7.9999999999999716
  1
25
 50
89.999981276033665
 41
0.7695
  7
FontTableH_0
 72
               5
 11
1123.6802609991537
 21
862.38450434659603
 31
0.0
100
AcDbText
  0
TEXT
  5
3B1
100
AcDbEntity
  8
0
 62
               7
100
AcDbText
 10
1109.6802590383845
 20
754.38450434659626
 30
0.0
 40
7.9999999999999716
  1
225
 50
89.999981276032244
 41
0.7695
  7
FontTableH_0
 72
               5
 11
1109.6802619795385
 21
763.3845043465958
 31
0.0
100
AcDbText
  0
TEXT
  5
3B2
100
AcDbEntity
  8
0
 62
               7
100
AcDbText
 10
715.67946603838448
 20
646.88474834659633
 30
0.0
 40
8.0
  1
20
 41
0.7695
  7
FontTableH_0
 72
               5
 11
721.67946603838448
 21
646.88474834659633
 31
0.0
100
AcDbText
  0
TEXT
  5
3B3
100
AcDbEntity
  8
0
 62
               7
100
AcDbText
 10
740.67946603838448
 20
646.88474834659633
 30
0.0
 40
8.0
  1
30
 41
0.7695
  7
FontTableH_0
 72
               5
 11
746.67946603838448
 21
646.88474834659633
 31
0.0
100
AcDbText
  0
TEXT
  5
3B4
100
AcDbEntity
  8
0
 62
               7
100
AcDbText
 10
730.67946603838448
 20
660.88468734659614
 30
0.0
 40
8.0
  1
50
 41
0.7695
  7
FontTableH_0
 72
               5
 11
736.67946603838448
 21
660.88468734659614
 31
0.0
100
AcDbText
  0
TEXT
  5
3B5
100
AcDbEntity
  8
0
 62
               7
100
AcDbText
 10
743.17946603838448
 20
999.88450434659626
 30
0.0
 40
8.0
  1
25
 41
0.7695
  7
FontTableH_0
 72
               5
 11
749.17946603838448
 21
999.88450434659626
 31
0.0
100
AcDbText
  0
TEXT
  5
3B6
100
AcDbEntity
  8
0
 62
               7
100
AcDbText
 10
718.17946603838448
 20
999.88450434659626
 30
0.0
 40
8.0
  1
25
 41
0.7695
  7
FontTableH_0
 72
               5
 11
724.17946603838448
 21
999.88450434659626
 31
0.0
100
AcDbText
  0
TEXT
  5
3B7
100
AcDbEntity
  8
0
 62
               7
100
AcDbText
 10
680.67946603838448
 20
999.88450434659626
 30
0.0
 40
8.0
  1
50
 41
0.7695
  7
FontTableH_0
 72
               5
 11
686.67946603838448
 21
999.88450434659626
 31
0.0
100
AcDbText
  0
TEXT
  5
3B8
100
AcDbEntity
  8
0
 62
               7
100
AcDbText
 10
630.67946603838448
 20
999.88450434659626
 30
0.0
 40
8.0
  1
50
 41
0.7695
  7
FontTableH_0
 72
               5
 11
636.67946603838448
 21
999.88450434659626
 31
0.0
100
AcDbText
  0
TEXT
  5
3B9
100
AcDbEntity
  8
0
 62
               7
100
AcDbText
 10
595.67946603838448
 20
999.88450434659626
 30
0.0
 40
8.0
  1
20
 41
0.7695
  7
FontTableH_0
 72
               5
 11
601.67946603838448
 21
999.88450434659626
 31
0.0
100
AcDbText
  0
TEXT
  5
3BA
100
AcDbEntity
  8
0
 62
               7
100
AcDbText
 10
584.67946603838448
 20
999.88450434659626
 30
0.0
 40
8.0
  1
6
 41
0.7695
  7
FontTableH_0
 72
               5
 11
587.67946603838448
 21
999.88450434659626
 31
0.0
100
AcDbText
  0
TEXT
  5
3BB
100
AcDbEntity
  8
0
 62
               7
100
AcDbText
 10
591.18007603838453
 20
1013.8845043465963
 30
0.0
 40
8.0
  1
27
 41
0.7695
  7
FontTableH_0
 72
               5
 11
597.18007603838453
 21
1013.8845043465963
 31
0.0
100
AcDbText
  0
TEXT
  5
3BC
100
AcDbEntity
  8
0
 62
               7
100
AcDbText
 10
653.67946603838448
 20
1013.8845043465963
 30
0.0
 40
8.0000000000002274
  1
100
 41
0.7695
  7
FontTableH_0
 72
               5
 11
662.67946603838448
 21
1013.8845043465963
 31
0.0
100
AcDbText
  0
TEXT
  5
3BD
100
AcDbEntity
  8
0
 62
               7
100
AcDbText
 10
803.67983203838446
 20
1013.8845043465963
 30
0.0
 40
8.0000000000002274
  1
200
 41
0.7695
  7
FontTableH_0
 72
               5
 11
812.67983203838446
 21
1013.8845043465963
 31
0.0
100
AcDbText
  0
TEXT
  5
3BE
100
AcDbEntity
  8
0
 62
               7
100
AcDbText
 10
456.67952703838444
 20
716.88450434659626
 30
0.0
 40
8.0000000000000853
  1
300
 50
89.999981276031491
 41
0.7695
  7
FontTableH_0
 72
               5
 11
456.67952997953853
 21
725.8845043465958
 31
0.0
100
AcDbText
  0
TEXT
  5
3BF
100
AcDbEntity
  8
0
 62
               7
100
AcDbText
 10
373.67943503838444
 20
873.88450434659626
 30
0.0
 40
8.0
  1
▽２ＦＬ
 41
0.7695
  7
FontTableH_0
 72
               5
 11
405.67943503838444
 21
873.88450434659626
 31
0.0
100
AcDbText
  0
TEXT
  5
3C0
100
AcDbEntity
  8
0
 62
               7
100
AcDbText
 10
847.69649503838457
 20
887.88450434659626
 30
0.0
 40
8.0
  1
埋込金物：Ｌ－75×75×6 ＠900（別途工事）
 41
0.7695
  7
FontTableH_0
 72
               5
 11
1006.3828936542217
 21
887.88450434659626
 31
0.0
100
AcDbText
  0
TEXT
  5
3C1
100
AcDbEntity
  8
0
 62
               7
100
AcDbText
 10
819.8152690383846
 20
901.88450434659626
 30
0.0
 40
8.0
  1
Ｌ－65×65×6 ＠900（別途工事）
 41
0.7695
  7
FontTableH_0
 72
               5
 11
937.53776541680634
 21
901.88450434659626
 31
0.0
100
AcDbText
  0
TEXT
  5
3C2
100
AcDbEntity
  8
0
 62
               7
100
AcDbText
 10
783.43410403838436
 20
915.88450434659626
 30
0.0
 40
8.0
  1
Ｌ－65×65×6 通シ（別途工事）
 41
0.7695
  7
FontTableH_0
 72
               5
 11
900.10076792350094
 21
915.88450434659626
 31
0.0
100
AcDbText
  0
TEXT
  5
3C3
100
AcDbEntity
  8
0
 62
               7
100
AcDbText
 10
308.6798620383845
 20
1095.8851143465961
 30
0.0
 40
8.0
  1
外壁材：立ハゼ葺(W=225） フッ素ステンレス t0.4
 41
0.7695
  7
FontTableH_0
 72
               5
 11
484.80352617086442
 21
1095.8851143465961
 31
0.0
100
AcDbText
  0
TEXT
  5
3C4
100
AcDbEntity
  8
0
 62
               7
100
AcDbText
 10
308.6798620383845
 20
1081.8851143465961
 30
0.0
 40
8.0
  1
下葺材：ゴムアスファルトル－フィング t1.0
 41
0.7695
  7
FontTableH_0
 72
               5
 11
470.74224860297102
 21
1081.8851143465961
 31
0.0
100
AcDbText
  0
TEXT
  5
3C5
100
AcDbEntity
  8
0
 62
               7
100
AcDbText
 10
308.6798620383845
 20
1067.8850533465961
 30
0.0
 40
8.0
  1
フレキシブルボ－ド t6（別途工事）
 41
0.7695
  7
FontTableH_0
 72
               5
 11
439.76319821287257
 21
1067.8850533465961
 31
0.0
100
AcDbText
  0
TEXT
  5
3C6
100
AcDbEntity
  8
0
 62
               7
100
AcDbText
 10
308.6798620383845
 20
1053.8850533465961
 30
0.0
 40
8.0
  1
ネオマフォ－ム t20（別途工事）
 41
0.7695
  7
FontTableH_0
 72
               5
 11
427.01896332487991
 21
1053.8850533465961
 31
0.0
100
AcDbText
  0
TEXT
  5
3C7
100
AcDbEntity
  8
0
 62
               7
100
AcDbText
 10
308.6798620383845
 20
1039.8849313465962
 30
0.0
 40
8.0
  1
ＡＬＣ板 t100（別途工事）
 41
0.7695
  7
FontTableH_0
 72
               5
 11
405.90208194264835
 21
1039.8849313465962
 31
0.0
100
AcDbText
  0
TEXT
  5
3C8
100
AcDbEntity
  8
0
 62
               7
100
AcDbText
 10
617.17928303838437
 20
217.88447334659622
 30
0.0
 40
8.0
  1
77
 41
0.7695
  7
FontTableH_0
 72
               5
 11
623.17928303838437
 21
217.88447334659622
 31
0.0
100
AcDbText
  0
TEXT
  5
3C9
100
AcDbEntity
  8
0
 62
               7
100
AcDbText
 10
566.68007603838453
 20
1013.8848703465962
 30
0.0
 40
8.0000000000002274
  1
20
 41
0.7695
  7
FontTableH_0
 72
               5
 11
572.68007603838453
 21
1013.8848703465962
 31
0.0
100
AcDbText
  0
TEXT
  5
3CA
100
AcDbEntity
  8
0
 62
               7
100
AcDbText
 10
456.68001503838445
 20
403.88471734659629
 30
0.0
 40
7.9999999999999716
  1
20
 50
89.999981276031491
 41
0.7695
  7
FontTableH_0
 72
               5
 11
456.68001699915385
 21
409.88471734659595
 31
0.0
100
AcDbText
  0
TEXT
  5
3CB
100
AcDbEntity
  8
0
 62
               7
100
AcDbText
 10
532.34291803838448
 20
349.88490034659617
 30
0.0
 40
8.0
  1
軒天：外壁同材
 41
0.7695
  7
FontTableH_0
 72
               5
 11
588.34291803838448
 21
349.88490034659617
 31
0.0
100
AcDbText
  0
TEXT
  5
3CC
100
AcDbEntity
  8
0
 62
               7
100
AcDbText
 10
756.44393103838445
 20
632.88468734659614
 30
0.0
 40
8.0
  1
自重受：Ｌ－65×65×6 通シ（別途工事）
 41
0.7695
  7
FontTableH_0
 72
               5
 11
905.61748662927414
 21
632.88468734659614
 31
0.0
100
AcDbText
  0
TEXT
  5
3CD
100
AcDbEntity
  8
0
 62
               7
100
AcDbText
 10
774.04201503838442
 20
604.88462634659618
 30
0.0
 40
8.0
  1
Ｌ－65×65×6 ＠900（別途工事）
 41
0.7695
  7
FontTableH_0
 72
               5
 11
891.76451141680616
 21
604.88462634659618
 31
0.0
100
AcDbText
  0
TEXT
  5
3CE
100
AcDbEntity
  8
0
 62
               7
100
AcDbText
 10
797.64009803838451
 20
548.88465634659622
 30
0.0
 40
8.0
  1
埋込金物：PL-6×120 ＠900（別途工事）
 41
0.7695
  7
FontTableH_0
 72
               5
 11
937.86752497958071
 21
548.88465634659622
 31
0.0
100
AcDbText
  0
TEXT
  5
3CF
100
AcDbEntity
  8
0
 62
               7
100
AcDbText
 10
456.68001503838445
 20
489.38459534659614
 30
0.0
 40
8.0000000000000853
  1
155
 50
89.999981276031491
 41
0.7695
  7
FontTableH_0
 72
               5
 11
456.68001797953855
 21
498.38459534659569
 31
0.0
100
AcDbText
  0
TEXT
  5
3D0
100
AcDbEntity
  8
0
 62
               7
100
AcDbText
 10
470.68001503838445
 20
516.88447334659622
 30
0.0
 40
7.9999999999999716
  1
100
 50
89.999981276031491
 41
0.7695
  7
FontTableH_0
 72
               5
 11
470.68001797953855
 21
525.88447334659577
 31
0.0
100
AcDbText
  0
TEXT
  5
3D1
100
AcDbEntity
  8
0
 62
               7
100
AcDbText
 10
373.68001503838445
 20
418.88459534659614
 30
0.0
 40
8.0
  1
▽1FL＋2,620
 41
0.7695
  7
FontTableH_0
 72
               5
 11
414.00001664055731
 21
418.88459534659614
 31
0.0
100
AcDbText
  0
TEXT
  5
3D2
100
AcDbEntity
  8
0
 62
               7
100
AcDbText
 10
369.67943503838444
 20
863.88450434659626
 30
0.0
 40
8.0
  1
(△１ＦＬ＋3,075)
 41
0.7695
  7
FontTableH_0
 72
               5
 11
431.89471107107067
 21
863.88450434659626
 31
0.0
100
AcDbText
  0
TEXT
  5
3D3
100
AcDbEntity
  8
0
 62
               7
100
AcDbText
 10
442.68001503838445
 20
639.38468734659614
 30
0.0
 40
7.9999999999999716
  1
455
 50
89.999981276031491
 41
0.7695
  7
FontTableH_0
 72
               5
 11
442.68001797953855
 21
648.38468734659568
 31
0.0
100
AcDbText
  0
TEXT
  5
3D4
100
AcDbEntity
  8
0
 62
               7
100
AcDbText
 10
470.68007603838453
 20
441.38447334659622
 30
0.0
 40
8.0000000000000853
  1
55
 50
89.999981276031491
 41
0.7695
  7
FontTableH_0
 72
               5
 11
470.68007799915392
 21
447.38447334659588
 31
0.0
100
AcDbText
  0
TEXT
  5
3D5
100
AcDbEntity
  8
0
 62
               7
100
AcDbText
 10
680.68007603838453
 20
321.88447334659622
 30
0.0
 40
8.0
  1
50
 41
0.7695
  7
FontTableH_0
 72
               5
 11
686.68007603838453
 21
321.88447334659622
 31
0.0
100
AcDbText
  0
TEXT
  5
3D6
100
AcDbEntity
  8
0
 62
               7
100
AcDbText
 10
718.18007603838453
 20
321.88447334659622
 30
0.0
 40
8.0
  1
25
 41
0.7695
  7
FontTableH_0
 72
               5
 11
724.18007603838453
 21
321.88447334659622
 31
0.0
100
AcDbText
  0
TEXT
  5
3D7
100
AcDbEntity
  8
0
 62
               7
100
AcDbText
 10
743.18007603838453
 20
321.88447334659622
 30
0.0
 40
8.0
  1
25
 41
0.7695
  7
FontTableH_0
 72
               5
 11
749.18007603838453
 21
321.88447334659622
 31
0.0
100
AcDbText
  0
TEXT
  5
3D8
100
AcDbEntity
  8
0
 62
               7
100
AcDbText
 10
740.18007603838453
 20
203.88447334659622
 30
0.0
 40
8.0
  1
327
 41
0.7695
  7
FontTableH_0
 72
               5
 11
749.18007603838453
 21
203.88447334659622
 31
0.0
100
AcDbText
  0
TEXT
  5
3D9
100
AcDbEntity
  8
0
 62
               7
100
AcDbText
 10
641.68007603838453
 20
421.38447334659622
 30
0.0
 40
7.9999999999999716
  1
15
 50
89.999981276031491
 41
0.7695
  7
FontTableH_0
 72
               5
 11
641.68007799915392
 21
427.38447334659588
 31
0.0
100
AcDbText
  0
TEXT
  5
3DA
100
AcDbEntity
  8
0
 62
               7
100
AcDbText
 10
641.68007603838453
 20
438.38447334659622
 30
0.0
 40
7.9999999999999716
  1
19
 50
89.999981276031491
 41
0.7695
  7
FontTableH_0
 72
               5
 11
641.68007799915392
 21
444.38447334659588
 31
0.0
100
AcDbText
  0
TEXT
  5
3DB
100
AcDbEntity
  8
0
 62
               7
100
AcDbText
 10
641.68007603838453
 20
466.88447334659622
 30
0.0
 40
7.9999999999999716
  1
38
 50
89.999981276031491
 41
0.7695
  7
FontTableH_0
 72
               5
 11
641.68007799915392
 21
472.88447334659588
 31
0.0
100
AcDbText
  0
TEXT
  5
3DC
100
AcDbEntity
  8
0
 62
               7
100
AcDbText
 10
641.68007603838453
 20
491.88447334659622
 30
0.0
 40
7.9999999999999716
  1
12
 50
89.999981276031491
 41
0.7695
  7
FontTableH_0
 72
               5
 11
641.68007799915392
 21
497.88447334659588
 31
0.0
100
AcDbText
  0
TEXT
  5
3DD
100
AcDbEntity
  8
0
 62
               7
100
AcDbText
 10
641.68007603838453
 20
533.38447334659622
 30
0.0
 40
7.9999999999999716
  1
71
 50
89.999981276031491
 41
0.7695
  7
FontTableH_0
 72
               5
 11
641.68007799915392
 21
539.384473346596
 31
0.0
100
AcDbText
  0
TEXT
  5
3DE
100
AcDbEntity
  8
0
 62
               7
100
AcDbText
 10
588.68007603838453
 20
384.88447334659622
 30
0.0
 40
8.0
  1
20
 41
0.7695
  7
FontTableH_0
 72
               5
 11
594.68007603838453
 21
384.88447334659622
 31
0.0
100
AcDbText
  0
TEXT
  5
3DF
100
AcDbEntity
  8
0
 62
               7
100
AcDbText
 10
642.18007603838453
 20
384.88447334659622
 30
0.0
 40
8.0
  1
87
 41
0.7695
  7
FontTableH_0
 72
               5
 11
648.18007603838453
 21
384.88447334659622
 31
0.0
100
AcDbText
  0
TEXT
  5
3E0
100
AcDbEntity
  8
0
 62
               7
100
AcDbText
 10
695.68007603838453
 20
384.88447334659622
 30
0.0
 40
8.0
  1
20
 41
0.7695
  7
FontTableH_0
 72
               5
 11
701.68007603838453
 21
384.88447334659622
 31
0.0
100
AcDbText
  0
TEXT
  5
3E1
100
AcDbEntity
  8
0
 62
               7
100
AcDbText
 10
640.18007603838453
 20
370.88447334659622
 30
0.0
 40
8.0
  1
127
 41
0.7695
  7
FontTableH_0
 72
               5
 11
649.18007603838453
 21
370.88447334659622
 31
0.0
100
AcDbText
  0
TEXT
  5
3E2
100
AcDbEntity
  8
0
 62
               7
100
AcDbText
 10
495.77114103838449
 20
363.88447334659622
 30
0.0
 40
8.0
  1
力板：外壁同材
 41
0.7695
  7
FontTableH_0
 72
               5
 11
551.77114103838449
 21
363.88447334659622
 31
0.0
100
AcDbText
  0
TEXT
  5
3E3
100
AcDbEntity
  8
0
 62
               7
100
AcDbText
 10
565.8899150383844
 20
238.88445834659626
 30
0.0
 40
8.0
  1
アキレスボ－ド t25（別途工事）
 41
0.7695
  7
FontTableH_0
 72
               5
 11
684.22901632487981
 21
238.88445834659626
 31
0.0
100
AcDbText
  0
TEXT
  5
3E4
100
AcDbEntity
  8
0
 62
               7
100
AcDbText
 10
784.62496103838441
 20
422.88447334659622
 30
0.0
 40
8.0
  1
断熱材 t25（別途工事）
 41
0.7695
  7
FontTableH_0
 72
               5
 11
870.54212173280018
 21
422.88447334659622
 31
0.0
100
AcDbText
  0
TEXT
  5
3E5
100
AcDbEntity
  8
0
 62
               7
100
AcDbText
 10
897.68007603838453
 20
177.88445834659626
 30
0.0
 40
8.0
  1
通リ芯
 41
0.7695
  7
FontTableH_0
 72
               5
 11
921.68007603838453
 21
177.88445834659626
 31
0.0
100
AcDbText
  0
TEXT
  5
3E6
100
AcDbEntity
  8
0
 62
               7
100
AcDbText
 10
501.19600603838455
 20
487.88447334659622
 30
0.0
 40
8.0
  1
野縁（別途工事）
 41
0.7695
  7
FontTableH_0
 72
               5
 11
565.19600603838455
 21
487.88447334659622
 31
0.0
100
AcDbText
  0
TEXT
  5
3E7
100
AcDbEntity
  8
0
 62
               7
100
AcDbText
 10
1485.9555280383843
 20
421.17835734659616
 30
0.0
 40
8.0
  1
野縁（別途工事）
 41
0.7695
  7
FontTableH_0
 72
               5
 11
1549.9555280383843
 21
421.17835734659616
 31
0.0
100
AcDbText
  0
TEXT
  5
3E8
100
AcDbEntity
  8
0
 62
               7
100
AcDbText
 10
1358.4453960383844
 20
435.17835734659616
 30
0.0
 40
7.9999999999998863
  1
野縁受ケ（別途工事）
 41
0.7695
  7
FontTableH_0
 72
               5
 11
1438.4453960383844
 21
435.17835734659616
 31
0.0
100
AcDbText
  0
TEXT
  5
3E9
100
AcDbEntity
  8
0
 62
               7
100
AcDbText
 10
1257.8868020383843
 20
392.67780834659629
 30
0.0
 40
7.9999999999999716
  1
19
 50
89.999981276033665
 41
0.7695
  7
FontTableH_0
 72
               5
 11
1257.8868039991535
 21
398.67780834659595
 31
0.0
100
AcDbText
  0
TEXT
  5
3EA
100
AcDbEntity
  8
0
 62
               7
100
AcDbText
 10
1257.8868020383843
 20
421.17780834659629
 30
0.0
 40
7.9999999999999716
  1
38
 50
89.999981276033665
 41
0.7695
  7
FontTableH_0
 72
               5
 11
1257.8868039991535
 21
427.17780834659595
 31
0.0
100
AcDbText
  0
TEXT
  5
3EB
100
AcDbEntity
  8
0
 62
               7
100
AcDbText
 10
1324.3871680383845
 20
267.17785434659623
 30
0.0
 40
12.0
  1
A-A 軒天断面図  ［S=1/2］
 41
0.7695
  7
FontTableH_0
 72
               5
 11
1460.3825332209431
 21
267.17785434659623
 31
0.0
100
AcDbText
  0
TEXT
  5
3EC
100
AcDbEntity
  8
0
 62
               7
100
AcDbText
 10
1369.3886330383843
 20
326.17780834659629
 30
0.0
 40
8.0
  1
＠675(＠225×3)
 41
0.7695
  7
FontTableH_0
 72
               5
 11
1420.9511330383843
 21
326.17780834659629
 31
0.0
100
AcDbText
  0
TEXT
  5
3ED
100
AcDbEntity
  8
0
 62
               7
100
AcDbText
 10
1536.8886330383843
 20
326.17780834659629
 30
0.0
 40
8.0
  1
＠675
 41
0.7695
  7
FontTableH_0
 72
               5
 11
1554.0761330383843
 21
326.17780834659629
 31
0.0
100
AcDbText
  0
TEXT
  5
3EE
100
AcDbEntity
  8
0
 62
               7
100
AcDbText
 10
1241.8883890383845
 20
326.17780834659629
 30
0.0
 40
8.0
  1
＠675
 41
0.7695
  7
FontTableH_0
 72
               5
 11
1259.0758890383845
 21
326.17780834659629
 31
0.0
100
AcDbText
  0
TEXT
  5
3EF
100
AcDbEntity
  8
0
 62
               7
100
AcDbText
 10
1257.8886330383843
 20
374.67780834659629
 30
0.0
 40
7.9999999999999716
  1
15
 50
89.999981276033665
 41
0.7695
  7
FontTableH_0
 72
               5
 11
1257.8886349991535
 21
380.67780834659595
 31
0.0
100
AcDbText
  0
TEXT
  5
3F0
100
AcDbEntity
  8
0
 62
               7
100
AcDbText
 10
1282.8886330383843
 20
340.17783934659622
 30
0.0
 40
8.0
  1
20
 41
0.7695
  7
FontTableH_0
 72
               5
 11
1288.8886330383843
 21
340.17783934659622
 31
0.0
100
AcDbText
  0
TEXT
  5
3F1
100
AcDbEntity
  8
0
 62
               7
100
AcDbText
 10
1507.8886330383843
 20
340.17783934659622
 30
0.0
 40
8.0
  1
20
 41
0.7695
  7
FontTableH_0
 72
               5
 11
1513.8886330383843
 21
340.17783934659622
 31
0.0
100
AcDbText
  0
TEXT
  5
3F2
100
AcDbEntity
  8
0
 62
               7
100
AcDbText
 10
650.18141903838443
 20
513.98063434659616
 30
0.0
 40
8.0
  1
Ａ
 41
0.7695
  7
FontTableH_0
 72
               5
 11
658.18141903838443
 21
513.98063434659616
 31
0.0
100
AcDbText
  0
TEXT
  5
3F3
100
AcDbEntity
  8
0
 62
               7
100
AcDbText
 10
650.18141903838443
 20
395.98063434659616
 30
0.0
 40
8.0
  1
Ａ
 41
0.7695
  7
FontTableH_0
 72
               5
 11
658.18141903838443
 21
395.98063434659616
 31
0.0
100
AcDbText
  0
TEXT
  5
3F4
100
AcDbEntity
  8
0
 62
               7
100
AcDbText
 10
554.60530803838446
 20
335.88447334659622
 30
0.0
 40
8.0
  1
コ－キング（別途工事）
 41
0.7695
  7
FontTableH_0
 72
               5
 11
642.60530803838446
 21
335.88447334659622
 31
0.0
100
AcDbText
  0
TEXT
  5
3F5
100
AcDbEntity
  8
14
 62
               7
100
AcDbText
 10
521.58300003838451
 20
66.329709346596246
 30
0.0
 40
6.0
  1
下ガリ壁部詳細図(1)
 41
0.7695
  7
FontTableH_0
 72
               5
 11
577.52308338496812
 21
66.329709346596246
 31
0.0
100
AcDbText
  0
TEXT
  5
3F6
100
AcDbEntity
  8
14
 62
               7
100
AcDbText
 10
633.79476103838454
 20
64.329698346596217
 30
0.0
 40
5.0
  1
1/2
 41
0.7695
  7
FontTableH_0
 72
               5
 11
639.41976103838454
 21
64.329698346596217
 31
0.0
100
AcDbText
  0
ENDSEC
  0
SECTION
  2
OBJECTS
  0
DICTIONARY
  5
19
100
AcDbDictionary
  3
ACAD_GROUP
350
1A
  3
ACAD_MLINESTYLE
350
1B
  3
DWGPROPS
350
3F7
  0
DICTIONARY
  5
1A
102
{ACAD_REACTORS
330
19
102
}
100
AcDbDictionary
  0
DICTIONARY
  5
1B
102
{ACAD_REACTORS
330
19
102
}
100
AcDbDictionary
  3
STANDARD
350
1C
  0
MLINESTYLE
  5
1C
102
{ACAD_REACTORS
330
1B
102
}
100
AcDbMlineStyle
  2
Standard
 70
               0
  3

 62
               0
 51
90.0
 52
90.0
 71
               2
 49
0.5
 62
             256
  6
ByLayer
 49
-0.5
 62
             256
  6
ByLayer
  0
XRECORD
  5
3F7
100
AcDbXrecord
  1
DWGPROPS COOKIE
  2

  3

  4

  6

  7

  0
ENDSEC
  0
EOF
