  0
SECTION
  2
HEADER
  9
$ACADVER
  1
AC1014
  9
$ACADMAINTVER
 70
               0
  9
$DWGCODEPAGE
  3
ANSI_932
  9
$INSBASE
 10
0.0
 20
0.0
 30
0.0
  9
$EXTMIN
 10
0.0
 20
0.0
 30
0.0
  9
$EXTMAX
 10
1682.0
 20
1188.0
 30
0.0
  9
$LIMMIN
 10
0.0
 20
0.0
  9
$LIMMAX
 10
1682.0
 20
1188.0
  9
$ORTHOMODE
 70
               0
  9
$REGENMODE
 70
               1
  9
$FILLMODE
 70
               1
  9
$QTEXTMODE
 70
               0
  9
$MIRRTEXT
 70
               1
  9
$DRAGMODE
 70
               2
  9
$LTSCALE
 40
2.0
  9
$OSMODE
 70
               0
  9
$ATTMODE
 70
               1
  9
$TEXTSIZE
 40
0.2
  9
$TRACEWID
 40
0.05
  9
$TEXTSTYLE
  7
Standard
  9
$CLAYER
  8
0
  9
$CELTYPE
  6
Continuous
  9
$CECOLOR
 62
             256
  9
$CELTSCALE
 40
1.0
  9
$DELOBJ
 70
               1
  9
$DISPSILH
 70
               0
  9
$DIMSCALE
 40
1.0
  9
$DIMASZ
 40
0.18
  9
$DIMEXO
 40
0.0625
  9
$DIMDLI
 40
0.38
  9
$DIMRND
 40
0.0
  9
$DIMDLE
 40
0.0
  9
$DIMEXE
 40
0.18
  9
$DIMTP
 40
0.0
  9
$DIMTM
 40
0.0
  9
$DIMTXT
 40
0.18
  9
$DIMCEN
 40
0.09
  9
$DIMTSZ
 40
0.0
  9
$DIMTOL
 70
               0
  9
$DIMLIM
 70
               0
  9
$DIMTIH
 70
               1
  9
$DIMTOH
 70
               1
  9
$DIMSE1
 70
               0
  9
$DIMSE2
 70
               0
  9
$DIMTAD
 70
               0
  9
$DIMZIN
 70
               0
  9
$DIMBLK
  1

  9
$DIMASO
 70
               1
  9
$DIMSHO
 70
               1
  9
$DIMPOST
  1

  9
$DIMAPOST
  1

  9
$DIMALT
 70
               0
  9
$DIMALTD
 70
               2
  9
$DIMALTF
 40
25.399999999999999
  9
$DIMLFAC
 40
1.0
  9
$DIMTOFL
 70
               0
  9
$DIMTVP
 40
0.0
  9
$DIMTIX
 70
               0
  9
$DIMSOXD
 70
               0
  9
$DIMSAH
 70
               0
  9
$DIMBLK1
  1

  9
$DIMBLK2
  1

  9
$DIMSTYLE
  2
Standard
  9
$DIMCLRD
 70
               0
  9
$DIMCLRE
 70
               0
  9
$DIMCLRT
 70
               0
  9
$DIMTFAC
 40
1.0
  9
$DIMGAP
 40
0.09
  9
$DIMJUST
 70
               0
  9
$DIMSD1
 70
               0
  9
$DIMSD2
 70
               0
  9
$DIMTOLJ
 70
               1
  9
$DIMTZIN
 70
               0
  9
$DIMALTZ
 70
               0
  9
$DIMALTTZ
 70
               0
  9
$DIMFIT
 70
               3
  9
$DIMUPT
 70
               0
  9
$DIMUNIT
 70
               2
  9
$DIMDEC
 70
               4
  9
$DIMTDEC
 70
               4
  9
$DIMALTU
 70
               2
  9
$DIMALTTD
 70
               2
  9
$DIMTXSTY
  7
Standard
  9
$DIMAUNIT
 70
               0
  9
$LUNITS
 70
               2
  9
$LUPREC
 70
               4
  9
$SKETCHINC
 40
0.1
  9
$FILLETRAD
 40
0.0
  9
$AUNITS
 70
               0
  9
$AUPREC
 70
               0
  9
$MENU
  1
acad
  9
$ELEVATION
 40
0.0
  9
$PELEVATION
 40
0.0
  9
$THICKNESS
 40
0.0
  9
$LIMCHECK
 70
               0
  9
$BLIPMODE
 70
               1
  9
$CHAMFERA
 40
0.0
  9
$CHAMFERB
 40
0.0
  9
$CHAMFERC
 40
0.0
  9
$CHAMFERD
 40
0.0
  9
$SKPOLY
 70
               0
  9
$TDCREATE
 40
0.000000000
  9
$TDUPDATE
 40
0.000000000
  9
$TDINDWG
 40
0.0000000000
  9
$TDUSRTIMER
 40
0.0000000000
  9
$USRTIMER
 70
               1
  9
$ANGBASE
 50
0.0
  9
$ANGDIR
 70
               0
  9
$PDMODE
 70
               0
  9
$PDSIZE
 40
0.0
  9
$PLINEWID
 40
0.0
  9
$COORDS
 70
               0
  9
$SPLFRAME
 70
               0
  9
$SPLINETYPE
 70
               6
  9
$SPLINESEGS
 70
               8
  9
$ATTDIA
 70
               0
  9
$ATTREQ
 70
               1
  9
$HANDLING
 70
               1
  9
$HANDSEED
  5
66F
  9
$SURFTAB1
 70
               6
  9
$SURFTAB2
 70
               6
  9
$SURFTYPE
 70
               6
  9
$SURFU
 70
               6
  9
$SURFV
 70
               6
  9
$UCSNAME
  2

  9
$UCSORG
 10
0.0
 20
0.0
 30
0.0
  9
$UCSXDIR
 10
1.0
 20
0.0
 30
0.0
  9
$UCSYDIR
 10
0.0
 20
1.0
 30
0.0
  9
$PUCSNAME
  2

  9
$PUCSORG
 10
0.0
 20
0.0
 30
0.0
  9
$PUCSXDIR
 10
1.0
 20
0.0
 30
0.0
  9
$PUCSYDIR
 10
0.0
 20
1.0
 30
0.0
  9
$USERI1
 70
               0
  9
$USERI2
 70
               0
  9
$USERI3
 70
               0
  9
$USERI4
 70
               0
  9
$USERI5
 70
               0
  9
$USERR1
 40
0.0
  9
$USERR2
 40
0.0
  9
$USERR3
 40
0.0
  9
$USERR4
 40
0.0
  9
$USERR5
 40
0.0
  9
$WORLDVIEW
 70
               1
  9
$SHADEDGE
 70
               3
  9
$SHADEDIF
 70
              70
  9
$TILEMODE
 70
               1
  9
$MAXACTVP
 70
              16
  9
$PINSBASE
 10
0.0
 20
0.0
 30
0.0
  9
$PLIMCHECK
 70
               0
  9
$PEXTMIN
 10
1.0000000000000000E+20
 20
1.0000000000000000E+20
 30
1.0000000000000000E+20
  9
$PEXTMAX
 10
-1.0000000000000000E+20
 20
-1.0000000000000000E+20
 30
-1.0000000000000000E+20
  9
$PLIMMIN
 10
0.0
 20
0.0
  9
$PLIMMAX
 10
12.0
 20
9.0
  9
$UNITMODE
 70
               0
  9
$VISRETAIN
 70
               0
  9
$PLINEGEN
 70
               1
  9
$PSLTSCALE
 70
               0
  9
$TREEDEPTH
 70
            3020
  9
$PICKSTYLE
 70
               1
  9
$CMLSTYLE
  2
Standard
  9
$CMLJUST
 70
               0
  9
$CMLSCALE
 40
1.0
  9
$PROXYGRAPHICS
 70
               0
  9
$MEASUREMENT
 70
               0
  0
ENDSEC
  0
SECTION
  2
CLASSES
  0
CLASS
  1
LWPOLYLINE
  2
AcDbPolyline
  3
"AutoCAD"
 90
        0
280
               0
281
               1
  0
CLASS
  1
IMAGE
  2
AcDbRasterImage
  3
ISM
 90
      127
280
               0
281
               1
  0
CLASS
  1
OLE2FRAME
  2
AcDbOle2Frame
  3
""
 90
        0
280
               0
281
               1
  0
CLASS
  1
HATCH
  2
AcDbHatch
  3
"ACAD_SEDONA"
 90
        0
280
               0
281
               1
  0
CLASS
  1
DICTIONARYVAR
  2
AcDbDictionaryVar
  3
"AutoCAD"
 90
        0
280
               0
281
               0
  0
CLASS
  1
RASTERVARIABLES
  2
AcDbRasterVariables
  3
ISM
 90
        0
280
               0
281
               0
  0
CLASS
  1
IMAGEDEF
  2
AcDbRasterImageDef
  3
ISM
 90
        0
280
               0
281
               0
  0
CLASS
  1
IMAGEDEF_REACTOR
  2
AcDbRasterImageDefReactor
  3
ISM
 90
        1
280
               0
281
               0
  0
CLASS
  1
IDBUFFER
  2
AcDbIdBuffer
  3
"Acad"
 90
        0
280
               0
281
               0
  0
CLASS
  1
SPATIAL_FILTER
  2
AcDbSpatialFilter
  3
"Acad"
 90
        0
280
               0
281
               0
  0
CLASS
  1
XRECORD
  2
AcDbXrecord
  3
"<Built In>"
 90
        0
280
               0
281
               0
  0
CLASS
  1
SORTENTSTABLE
  2
AcDbSortentsTable
  3
"AutoCAD"
 90
        0
280
               0
281
               0
  0
CLASS
  1
LAYER_INDEX
  2
AcDbLayerIndex
  3
"Acad"
 90
        0
280
               0
281
               0
  0
CLASS
  1
SPATIAL_INDEX
  2
AcDbSpatialIndex
  3
"Acad"
 90
        0
280
               0
281
               0
  0
CLASS
  1
OBJECT_PTR
  2
CAseDLPNTableRecord
  3
"ASE-LPNTableRecord"
 90
        1
280
               0
281
               0
  0
CLASS
  1
LAYOUT
  2
AcDbLayout
  3
"AutoCAD 2000"
 90
        0
280
               0
281
               0
  0
CLASS
  1
PLOTSETTINGS
  2
AcDbPlotSettings
  3
"AutoCAD 2000"
 90
        0
280
               0
281
               0
  0
CLASS
  1
ACDBDICTIONARYWDFLT
  2
AcDbDictionaryWithDefault
  3
"AutoCAD 2000"
 90
        0
280
               0
281
               0
  0
CLASS
  1
ACDBPLACEHOLDER
  2
AcDbPlaceHolder
  3
"AutoCAD 2000"
 90
        0
280
               0
281
               0
  0
CLASS
  1
VBA_PROJECT
  2
AcDbVbaProject
  3
"acadvba"
 90
        0
280
               0
281
               0
  0
CLASS
  1
WIPEOUT
  2
AcDbWipeout
  3
WipeOut|AutoCAD Express Tool|expresstools@autodesk.com
 90
      127
280
               0
281
               1
  0
CLASS
  1
WIPEOUTVARIABLES
  2
AcDbWipeoutVariables
  3
WipeOut|AutoCAD Express Tool|expresstools@autodesk.com
 90
        0
280
               0
281
               0
  0
CLASS
  1
RTEXT
  2
RText
  3
RText|AutoCAD Express Tool|expresstools@autodesk.com
 90
        0
280
               0
281
               1
  0
CLASS
  1
ARCALIGNEDTEXT
  2
AcDbArcAlignedText
  3
ATEXT|AutoCAD Express Tool|expresstools@autodesk.com
 90
        0
280
               0
281
               1
  0
ENDSEC
  0
SECTION
  2
TABLES
  0
TABLE
  2
VPORT
  5
7
100
AcDbSymbolTable
 70
               1
  0
VPORT
  5
15
100
AcDbSymbolTableRecord
100
AcDbViewportTableRecord
  2
*ACTIVE
 70
               0
 10
0.0
 20
0.0
 11
1.0
 21
1.0
 12
841.0
 22
594.0
 13
0.0
 23
0.0
 14
10.0
 24
10.0
 15
10.0
 25
10.0
 16
0.0
 26
0.0
 36
1.0
 17
0.0
 27
0.0
 37
0.0
 40
1188.0
 41
1.4158249158249159
 42
50.0
 43
0.0
 44
0.0
 50
0.0
 51
0.0
 71
               0
 72
             100
 73
               1
 74
               1
 75
               0
 76
               0
 77
               0
 78
               0
  0
ENDTAB
  0
TABLE
  2
LTYPE
  5
4
100
AcDbSymbolTable
 70
              24
  0
LTYPE
  5
11
100
AcDbSymbolTableRecord
100
AcDbLinetypeTableRecord
  2
ByBlock
 70
              64
  3

 72
              65
 73
               0
 40
0.0
  0
LTYPE
  5
12
100
AcDbSymbolTableRecord
100
AcDbLinetypeTableRecord
  2
ByLayer
 70
              64
  3

 72
              65
 73
               0
 40
0.0
  0
LTYPE
  5
13
100
AcDbSymbolTableRecord
100
AcDbLinetypeTableRecord
  2
Continuous
 70
              64
  3
Solid line
 72
              65
 73
               0
 40
0.0
  0
LTYPE
  5
1D
100
AcDbSymbolTableRecord
100
AcDbLinetypeTableRecord
  2
DOT
 70
              64
  3
Dot . . . . . . . . . . . . . . . . . . . . . .
 72
              65
 73
               2
 40
6.3499999999999996
 49
0.35
 74
               0
 49
-6.0
 74
               0
  0
LTYPE
  5
1E
100
AcDbSymbolTableRecord
100
AcDbLinetypeTableRecord
  2
DASHED
 70
              64
  3
Dashed __ __ __ __ __ __ __ __ __ __ __ __ __ _
 72
              65
 73
               2
 40
12.699999999999999
 49
6.3499999999999996
 74
               0
 49
-6.3499999999999996
 74
               0
  0
LTYPE
  5
1F
100
AcDbSymbolTableRecord
100
AcDbLinetypeTableRecord
  2
DASHDOT
 70
              64
  3
Dash dot __ . __ . __ . __ . __ . __ . __ . __
 72
              65
 73
               4
 40
25.399999999999999
 49
12.699999999999999
 74
               0
 49
-6.0
 74
               0
 49
0.7
 74
               0
 49
-6.0
 74
               0
  0
LTYPE
  5
20
100
AcDbSymbolTableRecord
100
AcDbLinetypeTableRecord
  2
DIVIDE
 70
              64
  3
Divide ____ . . ____ . . ____ . . ____ . . ____
 72
              65
 73
               6
 40
31.75
 49
12.699999999999999
 74
               0
 49
-6.0
 74
               0
 49
0.875
 74
               0
 49
-6.0
 74
               0
 49
0.875
 74
               0
 49
-6.0
 74
               0
  0
LTYPE
  5
21
100
AcDbSymbolTableRecord
100
AcDbLinetypeTableRecord
  2
HIDDEN
 70
              64
  3
Hidden __ __ __ __ __ __ __ __ __ __ __ __ __ _
 72
              65
 73
               2
 40
9.5250000000000004
 49
6.3499999999999996
 74
               0
 49
-3.1749999999999998
 74
               0
  0
LTYPE
  5
22
100
AcDbSymbolTableRecord
100
AcDbLinetypeTableRecord
  2
CENTER
 70
              64
  3
Center ____ _ ____ _ ____ _ ____ _ ____ _ ____
 72
              65
 73
               4
 40
50.799999999999997
 49
31.75
 74
               0
 49
-6.3499999999999996
 74
               0
 49
6.3499999999999996
 74
               0
 49
-6.3499999999999996
 74
               0
  0
LTYPE
  5
23
100
AcDbSymbolTableRecord
100
AcDbLinetypeTableRecord
  2
PHANTOM
 70
              64
  3
Phantom ______  __  __  ______  __  __  ______
 72
              65
 73
               6
 40
63.5
 49
31.75
 74
               0
 49
-6.3499999999999996
 74
               0
 49
6.3499999999999996
 74
               0
 49
-6.3499999999999996
 74
               0
 49
6.3499999999999996
 74
               0
 49
-6.3499999999999996
 74
               0
  0
LTYPE
  5
24
100
AcDbSymbolTableRecord
100
AcDbLinetypeTableRecord
  2
ACAD_ISO02W100
 70
              64
  3
ISO dash __ __ __ __ __ __ __ __ __ __ __ __ __
 72
              65
 73
               2
 40
15.0
 49
12.0
 74
               0
 49
-3.0
 74
               0
  0
LTYPE
  5
25
100
AcDbSymbolTableRecord
100
AcDbLinetypeTableRecord
  2
ACAD_ISO03W100
 70
              64
  3
ISO dash space __ __ __ __ __ __ __ __ __ __ __ __ __ __
 72
              65
 73
               2
 40
30.0
 49
12.0
 74
               0
 49
-18.0
 74
               0
  0
LTYPE
  5
26
100
AcDbSymbolTableRecord
100
AcDbLinetypeTableRecord
  2
ACAD_ISO04W100
 70
              64
  3
ISO long-dash dot ____ . ____ . ____ . ____ . _
 72
              65
 73
               4
 40
30.0
 49
24.0
 74
               0
 49
-3.0
 74
               0
 49
0.0
 74
               0
 49
-3.0
 74
               0
  0
LTYPE
  5
27
100
AcDbSymbolTableRecord
100
AcDbLinetypeTableRecord
  2
ACAD_ISO05W100
 70
              64
  3
ISO long-dash double-dot ____ .. ____ .. ____ .
 72
              65
 73
               6
 40
33.0
 49
24.0
 74
               0
 49
-3.0
 74
               0
 49
0.0
 74
               0
 49
-3.0
 74
               0
 49
0.0
 74
               0
 49
-3.0
 74
               0
  0
LTYPE
  5
28
100
AcDbSymbolTableRecord
100
AcDbLinetypeTableRecord
  2
ACAD_ISO06W100
 70
              64
  3
ISO long-dash triple-dot ____ ... ____ ... ____
 72
              65
 73
               8
 40
36.0
 49
24.0
 74
               0
 49
-3.0
 74
               0
 49
0.0
 74
               0
 49
-3.0
 74
               0
 49
0.0
 74
               0
 49
-3.0
 74
               0
 49
0.0
 74
               0
 49
-3.0
 74
               0
  0
LTYPE
  5
29
100
AcDbSymbolTableRecord
100
AcDbLinetypeTableRecord
  2
ACAD_ISO07W100
 70
              64
  3
ISO dot . . . . . . . . . . . . . . . . . . . .
 72
              65
 73
               2
 40
3.0
 49
0.0
 74
               0
 49
-3.0
 74
               0
  0
LTYPE
  5
2A
100
AcDbSymbolTableRecord
100
AcDbLinetypeTableRecord
  2
ACAD_ISO08W100
 70
              64
  3
ISO long-dash short-dash ____ __ ____ __ ____ _
 72
              65
 73
               4
 40
36.0
 49
24.0
 74
               0
 49
-3.0
 74
               0
 49
6.0
 74
               0
 49
-3.0
 74
               0
  0
LTYPE
  5
2B
100
AcDbSymbolTableRecord
100
AcDbLinetypeTableRecord
  2
ACAD_ISO09W100
 70
              64
  3
ISO long-dash double-short-dash ____ __ __ ____
 72
              65
 73
               6
 40
45.0
 49
24.0
 74
               0
 49
-3.0
 74
               0
 49
6.0
 74
               0
 49
-3.0
 74
               0
 49
6.0
 74
               0
 49
-3.0
 74
               0
  0
LTYPE
  5
2C
100
AcDbSymbolTableRecord
100
AcDbLinetypeTableRecord
  2
ACAD_ISO10W100
 70
              64
  3
ISO dash dot __ . __ . __ . __ . __ . __ . __ .
 72
              65
 73
               4
 40
18.0
 49
12.0
 74
               0
 49
-3.0
 74
               0
 49
0.0
 74
               0
 49
-3.0
 74
               0
  0
LTYPE
  5
2D
100
AcDbSymbolTableRecord
100
AcDbLinetypeTableRecord
  2
ACAD_ISO11W100
 70
              64
  3
ISO double-dash dot __ __ . __ __ . __ __ . __ 
 72
              65
 73
               6
 40
33.0
 49
12.0
 74
               0
 49
-3.0
 74
               0
 49
12.0
 74
               0
 49
-3.0
 74
               0
 49
0.0
 74
               0
 49
-3.0
 74
               0
  0
LTYPE
  5
2E
100
AcDbSymbolTableRecord
100
AcDbLinetypeTableRecord
  2
ACAD_ISO12W100
 70
              64
  3
ISO dash double-dot __ . . __ . . __ . . __ . .
 72
              65
 73
               6
 40
21.0
 49
12.0
 74
               0
 49
-3.0
 74
               0
 49
0.0
 74
               0
 49
-3.0
 74
               0
 49
0.0
 74
               0
 49
-3.0
 74
               0
  0
LTYPE
  5
2F
100
AcDbSymbolTableRecord
100
AcDbLinetypeTableRecord
  2
ACAD_ISO13W100
 70
              64
  3
ISO double-dash double-dot __ __ . . __ __ . . 
 72
              65
 73
               8
 40
36.0
 49
12.0
 74
               0
 49
-3.0
 74
               0
 49
12.0
 74
               0
 49
-3.0
 74
               0
 49
0.0
 74
               0
 49
-3.0
 74
               0
 49
0.0
 74
               0
 49
-3.0
 74
               0
  0
LTYPE
  5
30
100
AcDbSymbolTableRecord
100
AcDbLinetypeTableRecord
  2
ACAD_ISO14W100
 70
              64
  3
ISO dash triple-dot __ . . . __ . . . __ . . . 
 72
              65
 73
               8
 40
24.0
 49
12.0
 74
               0
 49
-3.0
 74
               0
 49
0.0
 74
               0
 49
-3.0
 74
               0
 49
0.0
 74
               0
 49
-3.0
 74
               0
 49
0.0
 74
               0
 49
-3.0
 74
               0
  0
LTYPE
  5
31
100
AcDbSymbolTableRecord
100
AcDbLinetypeTableRecord
  2
ACAD_ISO15W100
 70
              64
  3
ISO double-dash double-dot __ __ . . __ __ . . 
 72
              65
 73
              10
 40
39.0
 49
12.0
 74
               0
 49
-3.0
 74
               0
 49
12.0
 74
               0
 49
-3.0
 74
               0
 49
0.0
 74
               0
 49
-3.0
 74
               0
 49
0.0
 74
               0
 49
-3.0
 74
               0
 49
0.0
 74
               0
 49
-3.0
 74
               0
  0
ENDTAB
  0
TABLE
  2
LAYER
  5
2
100
AcDbSymbolTable
 70
              17
  0
LAYER
  5
14
100
AcDbSymbolTableRecord
100
AcDbLayerTableRecord
  2
0
 70
               0
 62
               7
  6
Continuous
  0
LAYER
  5
35
100
AcDbSymbolTableRecord
100
AcDbLayerTableRecord
  2
1
 70
               0
 62
               7
  6
Continuous
  0
LAYER
  5
36
100
AcDbSymbolTableRecord
100
AcDbLayerTableRecord
  2
2
 70
               0
 62
               7
  6
Continuous
  0
LAYER
  5
37
100
AcDbSymbolTableRecord
100
AcDbLayerTableRecord
  2
3
 70
               0
 62
               7
  6
Continuous
  0
LAYER
  5
38
100
AcDbSymbolTableRecord
100
AcDbLayerTableRecord
  2
4
 70
               0
 62
               7
  6
Continuous
  0
LAYER
  5
39
100
AcDbSymbolTableRecord
100
AcDbLayerTableRecord
  2
5
 70
               0
 62
               7
  6
Continuous
  0
LAYER
  5
3A
100
AcDbSymbolTableRecord
100
AcDbLayerTableRecord
  2
6
 70
               0
 62
               7
  6
Continuous
  0
LAYER
  5
3B
100
AcDbSymbolTableRecord
100
AcDbLayerTableRecord
  2
7
 70
               0
 62
               7
  6
Continuous
  0
LAYER
  5
3C
100
AcDbSymbolTableRecord
100
AcDbLayerTableRecord
  2
8
 70
               0
 62
               7
  6
Continuous
  0
LAYER
  5
3D
100
AcDbSymbolTableRecord
100
AcDbLayerTableRecord
  2
9
 70
               0
 62
               7
  6
Continuous
  0
LAYER
  5
3E
100
AcDbSymbolTableRecord
100
AcDbLayerTableRecord
  2
10
 70
               0
 62
               7
  6
Continuous
  0
LAYER
  5
3F
100
AcDbSymbolTableRecord
100
AcDbLayerTableRecord
  2
11
 70
               0
 62
               7
  6
Continuous
  0
LAYER
  5
40
100
AcDbSymbolTableRecord
100
AcDbLayerTableRecord
  2
12
 70
               0
 62
               7
  6
Continuous
  0
LAYER
  5
41
100
AcDbSymbolTableRecord
100
AcDbLayerTableRecord
  2
13
 70
               0
 62
               7
  6
Continuous
  0
LAYER
  5
42
100
AcDbSymbolTableRecord
100
AcDbLayerTableRecord
  2
14
 70
               0
 62
               7
  6
Continuous
  0
LAYER
  5
43
100
AcDbSymbolTableRecord
100
AcDbLayerTableRecord
  2
15
 70
               0
 62
               7
  6
Continuous
  0
LAYER
  5
44
100
AcDbSymbolTableRecord
100
AcDbLayerTableRecord
  2
HOZYOTEN
 70
               0
 62
               7
  6
Continuous
  0
ENDTAB
  0
TABLE
  2
STYLE
  5
3
100
AcDbSymbolTable
 70
               4
  0
STYLE
  5
17
100
AcDbSymbolTableRecord
100
AcDbTextStyleTableRecord
  2
Standard
 70
               0
 40
0.0
 41
1.0
 50
0.0
 71
               0
 42
0.0
  3
txt.shx
  4
bigfont.shx
  0
STYLE
  5
32
100
AcDbSymbolTableRecord
100
AcDbTextStyleTableRecord
  2
STANDARD_T
 70
               4
 40
0.0
 41
1.0
 50
0.0
 71
               0
 42
0.0
  3
txt.shx
  4
bigfont.shx
  0
STYLE
  5
33
100
AcDbSymbolTableRecord
100
AcDbTextStyleTableRecord
  2
FontTableH_0
 70
               0
 40
0.0
 41
1.0
 50
0.0
 71
               0
 42
0.0
  3
MS Gothic.ttf
  4

1001
ACAD
1000
MS Gothic
1071
    32817
  0
STYLE
  5
34
100
AcDbSymbolTableRecord
100
AcDbTextStyleTableRecord
  2
FontTableV_0
 70
               0
 40
0.0
 41
1.0
 50
0.0
 71
               0
 42
0.0
  3
@MS Gothic.ttf
  4

1001
ACAD
1000
@MS Gothic
1071
    32817
  0
ENDTAB
  0
TABLE
  2
VIEW
  5
5
100
AcDbSymbolTable
 70
               0
  0
ENDTAB
  0
TABLE
  2
UCS
  5
6
100
AcDbSymbolTable
 70
               0
  0
ENDTAB
  0
TABLE
  2
APPID
  5
8
100
AcDbSymbolTable
 70
               1
  0
APPID
  5
16
100
AcDbSymbolTableRecord
100
AcDbRegAppTableRecord
  2
ACAD
 70
               0
  0
ENDTAB
  0
TABLE
  2
DIMSTYLE
  5
9
100
AcDbSymbolTable
 70
               1
  0
DIMSTYLE
105
18
100
AcDbSymbolTableRecord
100
AcDbDimStyleTableRecord
  2
Standard
 70
               0
  3

  4

  5

  6

  7

 40
1.0
 41
0.18
 42
0.0625
 43
0.38
 44
0.18
 45
0.0
 46
0.0
 47
0.0
 48
0.0
 71
               0
 72
               0
 73
               1
 74
               1
 75
               0
 76
               0
 77
               0
 78
               0
140
0.18
141
0.09
142
0.0
143
25.399999999999999
144
1.0
145
0.0
146
1.0
147
0.09
170
               0
171
               2
172
               0
173
               0
174
               0
175
               0
176
               0
177
               0
178
               0
270
               2
271
               4
272
               4
273
               2
274
               2
275
               0
280
               0
281
               0
282
               0
283
               1
284
               0
285
               0
286
               0
287
               0
288
               0
340
17
  0
ENDTAB
  0
TABLE
  2
BLOCK_RECORD
  5
1
100
AcDbSymbolTable
 70
               0
  0
BLOCK_RECORD
  5
A
100
AcDbSymbolTableRecord
100
AcDbBlockTableRecord
  2
*MODEL_SPACE
  0
BLOCK_RECORD
  5
B
100
AcDbSymbolTableRecord
100
AcDbBlockTableRecord
  2
*PAPER_SPACE
  0
ENDTAB
  0
ENDSEC
  0
SECTION
  2
BLOCKS
  0
BLOCK
  5
D
100
AcDbEntity
  8
0
100
AcDbBlockBegin
  2
*MODEL_SPACE
 70
               0
 10
0.0
 20
0.0
 30
0.0
  3
*MODEL_SPACE
  1

  0
ENDBLK
  5
E
100
AcDbEntity
  8
0
100
AcDbBlockEnd
  0
BLOCK
  5
F
100
AcDbEntity
 67
               1
  8
0
100
AcDbBlockBegin
  2
*PAPER_SPACE
 70
               0
 10
0.0
 20
0.0
 30
0.0
  3
*PAPER_SPACE
  1

  0
ENDBLK
  5
10
100
AcDbEntity
 67
               1
  8
0
100
AcDbBlockEnd
  0
ENDSEC
  0
SECTION
  2
ENTITIES
  0
LINE
  5
45
100
AcDbEntity
  8
0
  6
DASHDOT
 62
               4
100
AcDbLine
 10
309.14746436972462
 20
200.8888544769851
 30
0.0
 11
309.14746436972462
 21
1112.8888542963884
 31
0.0
  0
LINE
  5
46
100
AcDbEntity
  8
0
  6
DASHDOT
 62
               4
100
AcDbLine
 10
759.14746436972462
 20
200.8888544769851
 30
0.0
 11
759.14746436972462
 21
1112.8888542963884
 31
0.0
  0
LINE
  5
47
100
AcDbEntity
  8
0
  6
DASHDOT
 62
               4
100
AcDbLine
 10
109.1474643697245
 20
594.88885447698499
 30
0.0
 11
709.14746436972462
 21
594.88885447698499
 31
0.0
  0
LINE
  5
48
100
AcDbEntity
  8
0
  6
Continuous
 62
               6
100
AcDbLine
 10
109.1474643697245
 20
669.88884015103167
 30
0.0
 11
429.14746436972462
 21
669.88885447698499
 31
0.0
  0
LINE
  5
49
100
AcDbEntity
  8
0
  6
Continuous
 62
               6
100
AcDbLine
 10
109.1474643697245
 20
469.88885447698505
 30
0.0
 11
305.89746436972462
 21
469.88885447698505
 31
0.0
  0
LINE
  5
4A
100
AcDbEntity
  8
0
  6
Continuous
 62
               6
100
AcDbLine
 10
234.1474643697245
 20
594.88885447698499
 30
0.0
 11
384.14746436972462
 21
594.88885447698499
 31
0.0
  0
LINE
  5
4B
100
AcDbEntity
  8
0
  6
Continuous
 62
               6
100
AcDbLine
 10
384.14746436972462
 20
594.88885447698499
 30
0.0
 11
384.14746436972462
 21
585.88885447698499
 31
0.0
  0
LINE
  5
4C
100
AcDbEntity
  8
0
  6
Continuous
 62
               6
100
AcDbLine
 10
384.14746436972462
 20
294.88885447698505
 30
0.0
 11
234.1474643697245
 21
294.88885447698505
 31
0.0
  0
LINE
  5
4D
100
AcDbEntity
  8
0
  6
Continuous
 62
               6
100
AcDbLine
 10
234.1474643697245
 20
294.88885447698505
 30
0.0
 11
234.1474643697245
 21
303.88885447698505
 31
0.0
  0
LINE
  5
4E
100
AcDbEntity
  8
0
  6
Continuous
 62
               6
100
AcDbLine
 10
325.39746436972462
 20
303.88885447698505
 30
0.0
 11
384.14746436972462
 21
303.88885447698505
 31
0.0
  0
LINE
  5
4F
100
AcDbEntity
  8
0
  6
Continuous
 62
               6
100
AcDbLine
 10
292.8974643697245
 20
585.88885447698499
 30
0.0
 11
234.1474643697245
 21
585.88885447698499
 31
0.0
  0
LINE
  5
50
100
AcDbEntity
  8
0
  6
Continuous
 62
               6
100
AcDbLine
 10
305.89746436972462
 20
316.88885447698505
 30
0.0
 11
305.89746436972462
 21
572.88885447698499
 31
0.0
  0
LINE
  5
51
100
AcDbEntity
  8
0
  6
Continuous
 62
               6
100
AcDbLine
 10
312.39746436972462
 20
316.88885447698505
 30
0.0
 11
312.39746436972462
 21
572.88885447698499
 31
0.0
  0
LINE
  5
52
100
AcDbEntity
  8
0
  6
Continuous
 62
               6
100
AcDbLine
 10
292.8974643697245
 20
303.88885447698505
 30
0.0
 11
234.1474643697245
 21
303.88885447698505
 31
0.0
  0
LINE
  5
53
100
AcDbEntity
  8
0
  6
Continuous
 62
               6
100
AcDbLine
 10
325.39746436972462
 20
585.88885447698499
 30
0.0
 11
384.14746436972462
 21
585.88885447698499
 31
0.0
  0
LINE
  5
54
100
AcDbEntity
  8
0
  6
Continuous
 62
               6
100
AcDbLine
 10
384.14746436972462
 20
303.88885447698505
 30
0.0
 11
384.14746436972462
 21
294.88885447698505
 31
0.0
  0
LINE
  5
55
100
AcDbEntity
  8
0
  6
Continuous
 62
               6
100
AcDbLine
 10
234.1474643697245
 20
585.88885447698499
 30
0.0
 11
234.1474643697245
 21
594.88885447698499
 31
0.0
  0
LINE
  5
56
100
AcDbEntity
  8
0
  6
Continuous
 62
               7
100
AcDbLine
 10
709.14746436972462
 20
974.88885447698499
 30
0.0
 11
709.14746436972462
 21
244.88885447698505
 31
0.0
  0
LINE
  5
57
100
AcDbEntity
  8
0
  6
Continuous
 62
               7
100
AcDbLine
 10
809.14746436972462
 20
984.88885447698499
 30
0.0
 11
809.14746436972462
 21
767.38885447698499
 31
0.0
  0
LINE
  5
58
100
AcDbEntity
  8
0
  6
Continuous
 62
               7
100
AcDbLine
 10
799.14746436972462
 20
984.88885447698499
 30
0.0
 11
719.14746436972462
 21
984.88885447698499
 31
0.0
  0
LINE
  5
59
100
AcDbEntity
  8
0
  6
Continuous
 62
               7
100
AcDbLine
 10
709.14746436972462
 20
974.88885447698499
 30
0.0
 11
719.14746436972462
 21
984.88885447698499
 31
0.0
  0
LINE
  5
5A
100
AcDbEntity
  8
0
  6
Continuous
 62
               7
100
AcDbLine
 10
799.14746436972462
 20
984.88885447698499
 30
0.0
 11
809.14746436972462
 21
974.88885447698499
 31
0.0
  0
LINE
  5
5B
100
AcDbEntity
  8
0
  6
Continuous
 62
               7
100
AcDbLine
 10
829.14746436972462
 20
984.88885447698499
 30
0.0
 11
829.14746436972462
 21
767.38885447698499
 31
0.0
  0
LINE
  5
5C
100
AcDbEntity
  8
0
  6
Continuous
 62
               7
100
AcDbLine
 10
835.14746436972462
 20
984.88885447698499
 30
0.0
 11
835.14746436972462
 21
767.38885447698499
 31
0.0
  0
LINE
  5
5D
100
AcDbEntity
  8
0
  6
Continuous
 62
               7
100
AcDbLine
 10
809.14746436972462
 20
984.88885447698499
 30
0.0
 11
829.14746436972462
 21
984.88885447698499
 31
0.0
  0
LINE
  5
5E
100
AcDbEntity
  8
0
  6
Continuous
 62
               7
100
AcDbLine
 10
835.14746436972462
 20
984.88885447698499
 30
0.0
 11
829.14746436972462
 21
984.88885447698499
 31
0.0
  0
LINE
  5
5F
100
AcDbEntity
  8
0
  6
Continuous
 62
               6
100
AcDbLine
 10
644.14746436972462
 20
596.88885447698499
 30
0.0
 11
644.14746436972462
 21
594.88885447698499
 31
0.0
  0
LINE
  5
60
100
AcDbEntity
  8
0
  6
Continuous
 62
               6
100
AcDbLine
 10
707.14746436972462
 20
659.88885447698499
 30
0.0
 11
709.14746436972462
 21
659.88885447698499
 31
0.0
  0
LINE
  5
61
100
AcDbEntity
  8
0
  6
Continuous
 62
               6
100
AcDbLine
 10
709.14746436972462
 20
659.88885447698499
 30
0.0
 11
709.14746436972462
 21
594.88885447698499
 31
0.0
  0
LINE
  5
62
100
AcDbEntity
  8
0
  6
Continuous
 62
               6
100
AcDbLine
 10
709.14746436972462
 20
594.88885447698499
 30
0.0
 11
644.14746436972462
 21
594.88885447698499
 31
0.0
  0
LINE
  5
63
100
AcDbEntity
  8
0
  6
Continuous
 62
               6
100
AcDbLine
 10
694.64746436972462
 20
600.88885447698499
 30
0.0
 11
648.14746436972462
 21
600.88885447698499
 31
0.0
  0
LINE
  5
64
100
AcDbEntity
  8
0
  6
Continuous
 62
               6
100
AcDbLine
 10
703.14746436972462
 20
609.38885447698499
 30
0.0
 11
703.14746436972462
 21
655.88885447698499
 31
0.0
  0
LINE
  5
65
100
AcDbEntity
  8
0
  6
Continuous
 62
               6
100
AcDbLine
 10
684.14746436972439
 20
394.88885447698505
 30
0.0
 11
594.14746436972439
 21
394.88885447698505
 31
0.0
  0
LINE
  5
66
100
AcDbEntity
  8
0
  6
Continuous
 62
               6
100
AcDbLine
 10
594.14746436972439
 20
394.88885447698505
 30
0.0
 11
594.14746436972462
 21
594.88885447698499
 31
0.0
  0
LINE
  5
67
100
AcDbEntity
  8
0
  6
Continuous
 62
               6
100
AcDbLine
 10
594.14746436972462
 20
594.88885447698499
 30
0.0
 11
684.14746436972462
 21
594.88885447698499
 31
0.0
  0
LINE
  5
68
100
AcDbEntity
  8
0
  6
Continuous
 62
               6
100
AcDbLine
 10
684.14746436972462
 20
594.35593410744309
 30
0.0
 11
684.14746436972462
 21
594.88885447698499
 31
0.0
  0
LINE
  5
69
100
AcDbEntity
  8
0
  6
Continuous
 62
               6
100
AcDbLine
 10
602.14746436972462
 20
568.45469521606879
 30
0.0
 11
602.14746436972439
 21
421.32301373790136
 31
0.0
  0
LINE
  5
6A
100
AcDbEntity
  8
0
  6
Continuous
 62
               6
100
AcDbLine
 10
615.04117848225826
 20
582.41091718102734
 30
0.0
 11
677.70060731345768
 21
587.3778231249637
 31
0.0
  0
LINE
  5
6B
100
AcDbEntity
  8
0
  6
Continuous
 62
               6
100
AcDbLine
 10
615.04117848225826
 20
407.3667917729428
 30
0.0
 11
677.70060731345768
 21
402.39988582900611
 31
0.0
  0
LINE
  5
6C
100
AcDbEntity
  8
0
  6
Continuous
 62
               6
100
AcDbLine
 10
684.14746436972439
 20
395.42177484652694
 30
0.0
 11
684.14746436972439
 21
394.88885447698505
 31
0.0
  0
LINE
  5
6D
100
AcDbEntity
  8
0
  6
Continuous
 62
               6
100
AcDbLine
 10
303.89746436972462
 20
369.88885447698505
 30
0.0
 11
305.89746436972462
 21
369.88885447698505
 31
0.0
  0
LINE
  5
6E
100
AcDbEntity
  8
0
  6
Continuous
 62
               6
100
AcDbLine
 10
205.8974643697245
 20
467.88885447698505
 30
0.0
 11
205.8974643697245
 21
469.88885447698505
 31
0.0
  0
LINE
  5
6F
100
AcDbEntity
  8
0
  6
Continuous
 62
               6
100
AcDbLine
 10
205.8974643697245
 20
469.88885447698505
 30
0.0
 11
305.89746436972462
 21
469.88885447698505
 31
0.0
  0
LINE
  5
70
100
AcDbEntity
  8
0
  6
Continuous
 62
               6
100
AcDbLine
 10
305.89746436972462
 20
469.88885447698505
 30
0.0
 11
305.89746436972462
 21
369.88885447698505
 31
0.0
  0
LINE
  5
71
100
AcDbEntity
  8
0
  6
Continuous
 62
               6
100
AcDbLine
 10
298.89746436972462
 20
452.88885447698505
 30
0.0
 11
298.89746436972462
 21
374.88885447698505
 31
0.0
  0
LINE
  5
72
100
AcDbEntity
  8
0
  6
Continuous
 62
               6
100
AcDbLine
 10
288.8974643697245
 20
462.88885447698505
 30
0.0
 11
210.8974643697245
 21
462.88885447698505
 31
0.0
  0
LINE
  5
73
100
AcDbEntity
  8
0
  6
DOT
 62
               6
100
AcDbLine
 10
312.39746436972462
 20
469.88885447698505
 30
0.0
 11
594.14746436972439
 21
469.88885447698505
 31
0.0
  0
LINE
  5
74
100
AcDbEntity
  8
0
  6
Continuous
 62
               6
100
AcDbLine
 10
629.14746436972462
 20
984.88885447698499
 30
0.0
 11
629.14746436972462
 21
594.88885447698499
 31
0.0
  0
LINE
  5
75
100
AcDbEntity
  8
0
  6
Continuous
 62
               6
100
AcDbLine
 10
429.14746436972462
 20
974.88885447698499
 30
0.0
 11
429.14746436972462
 21
669.88885447698499
 31
0.0
  0
LINE
  5
76
100
AcDbEntity
  8
0
  6
Continuous
 62
               6
100
AcDbLine
 10
439.14746436972462
 20
984.88885447698499
 30
0.0
 11
629.14746436972462
 21
984.88885447698499
 31
0.0
  0
LINE
  5
77
100
AcDbEntity
  8
0
  6
Continuous
 62
               6
100
AcDbLine
 10
594.14746436972439
 20
475.1357293891877
 30
0.0
 11
588.90058945752173
 21
469.88885447698505
 31
0.0
  0
LINE
  5
78
100
AcDbEntity
  8
0
  6
Continuous
 62
               6
100
AcDbLine
 10
629.14746436972462
 20
708.12562812142096
 30
0.0
 11
390.91069072528853
 21
469.88885447698505
 31
0.0
  0
LINE
  5
79
100
AcDbEntity
  8
0
  6
Continuous
 62
               6
100
AcDbLine
 10
629.14746436972462
 20
715.19669593328649
 30
0.0
 11
383.83962291342311
 21
469.88885447698505
 31
0.0
  0
LINE
  5
7A
100
AcDbEntity
  8
0
  6
Continuous
 62
               6
100
AcDbLine
 10
629.14746436972462
 20
722.26776374515202
 30
0.0
 11
376.76855510155758
 21
469.88885447698505
 31
0.0
  0
LINE
  5
7B
100
AcDbEntity
  8
0
  6
Continuous
 62
               6
100
AcDbLine
 10
629.14746436972462
 20
920.25766247738534
 30
0.0
 11
429.14746436972462
 21
720.25766247738534
 31
0.0
  0
LINE
  5
7C
100
AcDbEntity
  8
0
  6
Continuous
 62
               6
100
AcDbLine
 10
378.77865636932427
 20
669.88885447698499
 30
0.0
 11
303.77865636932427
 21
594.88885447698499
 31
0.0
  0
LINE
  5
7D
100
AcDbEntity
  8
0
  6
Continuous
 62
               6
100
AcDbLine
 10
294.65878623261744
 20
585.76898434027817
 30
0.0
 11
178.77865636932427
 21
469.88885447698505
 31
0.0
  0
LINE
  5
7E
100
AcDbEntity
  8
0
  6
Continuous
 62
               6
100
AcDbLine
 10
629.14746436972462
 20
927.32873028925087
 30
0.0
 11
429.14746436972462
 21
727.32873028925087
 31
0.0
  0
LINE
  5
7F
100
AcDbEntity
  8
0
  6
Continuous
 62
               6
100
AcDbLine
 10
371.70758855745885
 20
669.88885447698499
 30
0.0
 11
296.70758855745885
 21
594.88885447698499
 31
0.0
  0
LINE
  5
80
100
AcDbEntity
  8
0
  6
Continuous
 62
               6
100
AcDbLine
 10
287.70758855745885
 20
585.88885447698499
 30
0.0
 11
171.70758855745873
 21
469.88885447698505
 31
0.0
  0
LINE
  5
81
100
AcDbEntity
  8
0
  6
Continuous
 62
               6
100
AcDbLine
 10
629.14746436972462
 20
934.39979810111618
 30
0.0
 11
429.14746436972462
 21
734.39979810111618
 31
0.0
  0
LINE
  5
82
100
AcDbEntity
  8
0
  6
Continuous
 62
               6
100
AcDbLine
 10
364.63652074559332
 20
669.88885447698499
 30
0.0
 11
289.63652074559332
 21
594.88885447698499
 31
0.0
  0
LINE
  5
83
100
AcDbEntity
  8
0
  6
Continuous
 62
               6
100
AcDbLine
 10
280.63652074559332
 20
585.88885447698499
 30
0.0
 11
164.63652074559332
 21
469.88885447698505
 31
0.0
  0
LINE
  5
84
100
AcDbEntity
  8
0
  6
Continuous
 62
               6
100
AcDbLine
 10
481.64662201336012
 20
984.88885447698499
 30
0.0
 11
429.14746436972462
 21
932.38969683334949
 31
0.0
  0
LINE
  5
85
100
AcDbEntity
  8
0
  6
Continuous
 62
               6
100
AcDbLine
 10
166.64662201336
 20
669.88885447698499
 30
0.0
 11
109.1474643697245
 21
612.38969683334949
 31
0.0
  0
LINE
  5
86
100
AcDbEntity
  8
0
  6
Continuous
 62
               6
100
AcDbLine
 10
474.57555420149458
 20
984.88885447698499
 30
0.0
 11
429.14746436972462
 21
939.46076464521502
 31
0.0
  0
LINE
  5
87
100
AcDbEntity
  8
0
  6
Continuous
 62
               6
100
AcDbLine
 10
159.57555420149458
 20
669.88885447698499
 30
0.0
 11
109.1474643697245
 21
619.46076464521502
 31
0.0
  0
LINE
  5
88
100
AcDbEntity
  8
0
  6
Continuous
 62
               6
100
AcDbLine
 10
467.50448638962905
 20
984.88885447698499
 30
0.0
 11
429.14746436972462
 21
946.53183245708055
 31
0.0
  0
LINE
  5
89
100
AcDbEntity
  8
0
  6
Continuous
 62
               6
100
AcDbLine
 10
152.50448638962905
 20
669.88885447698499
 30
0.0
 11
109.1474643697245
 21
626.53183245708055
 31
0.0
  0
LINE
  5
8A
100
AcDbEntity
  8
0
  6
Continuous
 62
               7
100
AcDbLine
 10
746.99017684434364
 20
244.88885447698505
 30
0.0
 11
709.14746436972462
 21
282.73156695160418
 31
0.0
  0
LINE
  5
8B
100
AcDbEntity
  8
0
  6
Continuous
 62
               7
100
AcDbLine
 10
761.1323124680747
 20
244.88885447698505
 30
0.0
 11
709.14746436972462
 21
296.87370257533507
 31
0.0
  0
LINE
  5
8C
100
AcDbEntity
  8
0
  6
Continuous
 62
               7
100
AcDbLine
 10
809.14746436972462
 20
465.5742794262232
 30
0.0
 11
709.14746436972462
 21
565.57427942622303
 31
0.0
  0
LINE
  5
8D
100
AcDbEntity
  8
0
  6
Continuous
 62
               7
100
AcDbLine
 10
809.14746436972462
 20
479.71641504995415
 30
0.0
 11
709.14746436972462
 21
579.71641504995409
 31
0.0
  0
LINE
  5
8E
100
AcDbEntity
  8
0
  6
Continuous
 62
               7
100
AcDbLine
 10
809.14746436972462
 20
748.41699190084205
 30
0.0
 11
709.14746436972462
 21
848.41699190084205
 31
0.0
  0
LINE
  5
8F
100
AcDbEntity
  8
0
  6
Continuous
 62
               7
100
AcDbLine
 10
809.14746436972462
 20
762.55912752457311
 30
0.0
 11
709.14746436972462
 21
862.55912752457311
 31
0.0
  0
LINE
  5
90
100
AcDbEntity
  8
0
  6
Continuous
 62
               4
100
AcDbLine
 10
309.14746436972462
 20
202.8888544769851
 30
0.0
 11
759.14746436972462
 21
202.8888544769851
 31
0.0
  0
LINE
  5
91
100
AcDbEntity
  8
0
  6
Continuous
 62
               4
100
AcDbLine
 10
684.14746436972439
 20
214.88885447698505
 30
0.0
 11
684.14746436972439
 21
390.88885447698505
 31
0.0
  0
LINE
  5
92
100
AcDbEntity
  8
0
  6
Continuous
 62
               4
100
AcDbLine
 10
759.14746436972462
 20
216.88885447698505
 30
0.0
 11
684.14746436972439
 21
216.88885447698505
 31
0.0
  0
LINE
  5
93
100
AcDbEntity
  8
0
  6
Continuous
 62
               4
100
AcDbLine
 10
684.14746436972439
 20
216.88885447698505
 30
0.0
 11
309.14746436972462
 21
216.88885447698505
 31
0.0
  0
LINE
  5
94
100
AcDbEntity
  8
0
  6
Continuous
 62
               4
100
AcDbLine
 10
684.14745517264612
 20
278.8888638783921
 30
0.0
 11
709.14746436972462
 21
278.88885447698505
 31
0.0
  0
LINE
  5
95
100
AcDbEntity
  8
0
  6
Continuous
 62
               4
100
AcDbLine
 10
192.1474643697245
 20
799.88885447698499
 30
0.0
 11
192.1474643697245
 21
669.88885447698499
 31
0.0
  0
LINE
  5
96
100
AcDbEntity
  8
0
  6
Continuous
 62
               4
100
AcDbLine
 10
192.1474643697245
 20
669.88885447698499
 30
0.0
 11
192.1474643697245
 21
469.88885447698505
 31
0.0
  0
LINE
  5
97
100
AcDbEntity
  8
0
  6
Continuous
 62
               4
100
AcDbLine
 10
164.1474643697245
 20
799.88885447698499
 30
0.0
 11
164.1474643697245
 21
594.88885447698499
 31
0.0
  0
LINE
  5
98
100
AcDbEntity
  8
0
  6
Continuous
 62
               6
100
AcDbLine
 10
429.14746436972462
 20
974.88885447698499
 30
0.0
 11
439.14746436972462
 21
984.88885447698499
 31
0.0
  0
LINE
  5
99
100
AcDbEntity
  8
0
  6
Continuous
 62
               4
100
AcDbLine
 10
429.14746436972462
 20
876.88885447698499
 30
0.0
 11
629.14746436972462
 21
876.88885447698499
 31
0.0
  0
LINE
  5
9A
100
AcDbEntity
  8
0
  6
Continuous
 62
               4
100
AcDbLine
 10
629.14746436972462
 20
876.88885447698499
 30
0.0
 11
709.14746436972462
 21
876.88885447698499
 31
0.0
  0
LINE
  5
9B
100
AcDbEntity
  8
0
  6
Continuous
 62
               2
100
AcDbLine
 10
838.14746436972462
 20
983.88885447698499
 30
0.0
 11
838.14746436972462
 21
767.38885447698499
 31
0.0
  0
LINE
  5
9C
100
AcDbEntity
  8
0
  6
Continuous
 62
               2
100
AcDbLine
 10
858.14746436972462
 20
983.88885447698499
 30
0.0
 11
858.14746436972462
 21
244.88885447698505
 31
0.0
  0
LINE
  5
9D
100
AcDbEntity
  8
0
  6
Continuous
 62
               2
100
AcDbLine
 10
838.14746436972462
 20
983.88885447698499
 30
0.0
 11
858.14746436972462
 21
983.88885447698499
 31
0.0
  0
LINE
  5
9E
100
AcDbEntity
  8
0
  6
DASHED
 62
               6
100
AcDbLine
 10
836.64746436972462
 20
984.88885447698499
 30
0.0
 11
836.64746436972462
 21
767.38885447698499
 31
0.0
  0
LINE
  5
9F
100
AcDbEntity
  8
0
  6
Continuous
 62
               2
100
AcDbLine
 10
839.14746436972462
 20
984.88885447698499
 30
0.0
 11
858.14746436972462
 21
984.88885447698499
 31
0.0
  0
LINE
  5
A0
100
AcDbEntity
  8
0
  6
Continuous
 62
               2
100
AcDbLine
 10
861.14746436972462
 20
987.38885447698499
 30
0.0
 11
761.14746436972462
 21
987.38885447698499
 31
0.0
  0
LINE
  5
A1
100
AcDbEntity
  8
0
  6
Continuous
 62
               2
100
AcDbLine
 10
861.14746436972462
 20
987.38885447698499
 30
0.0
 11
861.14746436972462
 21
936.98885447698513
 31
0.0
  0
LINE
  5
A2
100
AcDbEntity
  8
0
  6
Continuous
 62
               6
100
AcDbLine
 10
848.14746436972462
 20
983.88885447698499
 30
0.0
 11
848.14746436972462
 21
244.88885447698505
 31
0.0
  0
LINE
  5
A3
100
AcDbEntity
  8
0
  6
Continuous
 62
               7
100
AcDbLine
 10
829.14746436972462
 20
573.72615738022205
 30
0.0
 11
825.31016146648756
 21
569.88885447698499
 31
0.0
  0
LINE
  5
A4
100
AcDbEntity
  8
0
  6
Continuous
 62
               7
100
AcDbLine
 10
829.14746436972462
 20
580.79722519208758
 30
0.0
 11
818.23909365462202
 21
569.88885447698499
 31
0.0
  0
LINE
  5
A5
100
AcDbEntity
  8
0
  6
Continuous
 62
               7
100
AcDbLine
 10
829.14746436972462
 20
587.86829300395311
 30
0.0
 11
811.16802584275649
 21
569.88885447698499
 31
0.0
  0
LINE
  5
A6
100
AcDbEntity
  8
0
  6
Continuous
 62
               7
100
AcDbLine
 10
829.14746436972462
 20
594.93936081581865
 30
0.0
 11
809.14746436972462
 21
574.93936081581865
 31
0.0
  0
LINE
  5
A7
100
AcDbEntity
  8
0
  6
Continuous
 62
               7
100
AcDbLine
 10
829.14746436972462
 20
602.01042862768395
 30
0.0
 11
809.14746436972462
 21
582.01042862768395
 31
0.0
  0
LINE
  5
A8
100
AcDbEntity
  8
0
  6
Continuous
 62
               7
100
AcDbLine
 10
829.14746436972462
 20
609.08149643954948
 30
0.0
 11
809.14746436972462
 21
589.08149643954948
 31
0.0
  0
LINE
  5
A9
100
AcDbEntity
  8
0
  6
Continuous
 62
               7
100
AcDbLine
 10
829.14746436972462
 20
616.15256425141501
 30
0.0
 11
809.14746436972462
 21
596.15256425141501
 31
0.0
  0
LINE
  5
AA
100
AcDbEntity
  8
0
  6
Continuous
 62
               7
100
AcDbLine
 10
829.14746436972462
 20
623.22363206328055
 30
0.0
 11
809.14746436972462
 21
603.22363206328055
 31
0.0
  0
LINE
  5
AB
100
AcDbEntity
  8
0
  6
Continuous
 62
               7
100
AcDbLine
 10
829.14746436972462
 20
630.29469987514585
 30
0.0
 11
809.14746436972462
 21
610.29469987514608
 31
0.0
  0
LINE
  5
AC
100
AcDbEntity
  8
0
  6
Continuous
 62
               7
100
AcDbLine
 10
829.14746436972462
 20
637.36576768701138
 30
0.0
 11
809.14746436972462
 21
617.36576768701138
 31
0.0
  0
LINE
  5
AD
100
AcDbEntity
  8
0
  6
Continuous
 62
               7
100
AcDbLine
 10
827.09948334783269
 20
642.38885447698499
 30
0.0
 11
809.14746436972462
 21
624.43683549887692
 31
0.0
  0
LINE
  5
AE
100
AcDbEntity
  8
0
  6
Continuous
 62
               7
100
AcDbLine
 10
820.02841553596738
 20
642.38885447698499
 30
0.0
 11
809.14746436972462
 21
631.50790331074245
 31
0.0
  0
LINE
  5
AF
100
AcDbEntity
  8
0
  6
Continuous
 62
               7
100
AcDbLine
 10
812.95734772410185
 20
642.38885447698499
 30
0.0
 11
809.14746436972462
 21
638.57897112260798
 31
0.0
  0
LINE
  5
B0
100
AcDbEntity
  8
0
  6
Continuous
 62
               7
100
AcDbLine
 10
829.14746436972462
 20
835.3556664192447
 30
0.0
 11
809.14746436972462
 21
815.35566641924424
 31
0.0
  0
LINE
  5
B1
100
AcDbEntity
  8
0
  6
Continuous
 62
               7
100
AcDbLine
 10
829.14746436972462
 20
842.42673423111023
 30
0.0
 11
809.14746436972462
 21
822.42673423111023
 31
0.0
  0
LINE
  5
B2
100
AcDbEntity
  8
0
  6
Continuous
 62
               7
100
AcDbLine
 10
829.14746436972462
 20
849.49780204297576
 30
0.0
 11
809.14746436972462
 21
829.49780204297576
 31
0.0
  0
LINE
  5
B3
100
AcDbEntity
  8
0
  6
Continuous
 62
               7
100
AcDbLine
 10
829.14746436972462
 20
856.56886985484107
 30
0.0
 11
809.14746436972462
 21
836.5688698548413
 31
0.0
  0
LINE
  5
B4
100
AcDbEntity
  8
0
  6
Continuous
 62
               7
100
AcDbLine
 10
829.14746436972462
 20
863.6399376667066
 30
0.0
 11
809.14746436972462
 21
843.6399376667066
 31
0.0
  0
LINE
  5
B5
100
AcDbEntity
  8
0
  6
Continuous
 62
               7
100
AcDbLine
 10
829.14746436972462
 20
870.71100547857213
 30
0.0
 11
809.14746436972462
 21
850.71100547857213
 31
0.0
  0
LINE
  5
B6
100
AcDbEntity
  8
0
  6
Continuous
 62
               7
100
AcDbLine
 10
829.14746436972462
 20
877.78207329043767
 30
0.0
 11
809.14746436972462
 21
857.78207329043767
 31
0.0
  0
LINE
  5
B7
100
AcDbEntity
  8
0
  6
Continuous
 62
               7
100
AcDbLine
 10
829.14746436972462
 20
884.85314110230297
 30
0.0
 11
809.14746436972462
 21
864.8531411023032
 31
0.0
  0
LINE
  5
B8
100
AcDbEntity
  8
0
  6
Continuous
 62
               7
100
AcDbLine
 10
829.14746436972462
 20
891.9242089141685
 30
0.0
 11
809.14746436972462
 21
871.9242089141685
 31
0.0
  0
LINE
  5
B9
100
AcDbEntity
  8
0
  6
Continuous
 62
               7
100
AcDbLine
 10
829.14746436972462
 20
898.99527672603404
 30
0.0
 11
809.14746436972462
 21
878.99527672603404
 31
0.0
  0
LINE
  5
BA
100
AcDbEntity
  8
0
  6
Continuous
 62
               7
100
AcDbLine
 10
829.14746436972462
 20
906.06634453789957
 30
0.0
 11
809.14746436972462
 21
886.06634453789957
 31
0.0
  0
LINE
  5
BB
100
AcDbEntity
  8
0
  6
Continuous
 62
               7
100
AcDbLine
 10
829.14746436972462
 20
913.13741234976487
 30
0.0
 11
809.14746436972462
 21
893.1374123497651
 31
0.0
  0
LINE
  5
BC
100
AcDbEntity
  8
0
  6
Continuous
 62
               7
100
AcDbLine
 10
829.14746436972462
 20
920.2084801616304
 30
0.0
 11
809.14746436972462
 21
900.2084801616304
 31
0.0
  0
LINE
  5
BD
100
AcDbEntity
  8
0
  6
Continuous
 62
               7
100
AcDbLine
 10
829.14746436972462
 20
927.27954797349594
 30
0.0
 11
809.14746436972462
 21
907.27954797349594
 31
0.0
  0
LINE
  5
BE
100
AcDbEntity
  8
0
  6
Continuous
 62
               7
100
AcDbLine
 10
829.14746436972462
 20
934.35061578536147
 30
0.0
 11
809.14746436972462
 21
914.35061578536147
 31
0.0
  0
LINE
  5
BF
100
AcDbEntity
  8
0
  6
Continuous
 62
               7
100
AcDbLine
 10
829.14746436972462
 20
941.42168359722677
 30
0.0
 11
809.14746436972462
 21
921.421683597227
 31
0.0
  0
LINE
  5
C0
100
AcDbEntity
  8
0
  6
Continuous
 62
               7
100
AcDbLine
 10
829.14746436972462
 20
948.49275140909231
 30
0.0
 11
809.14746436972462
 21
928.49275140909231
 31
0.0
  0
LINE
  5
C1
100
AcDbEntity
  8
0
  6
Continuous
 62
               7
100
AcDbLine
 10
829.14746436972462
 20
955.56381922095784
 30
0.0
 11
809.14746436972462
 21
935.56381922095784
 31
0.0
  0
LINE
  5
C2
100
AcDbEntity
  8
0
  6
Continuous
 62
               7
100
AcDbLine
 10
829.14746436972462
 20
962.63488703282337
 30
0.0
 11
809.14746436972462
 21
942.63488703282337
 31
0.0
  0
LINE
  5
C3
100
AcDbEntity
  8
0
  6
Continuous
 62
               7
100
AcDbLine
 10
829.14746436972462
 20
969.7059548446889
 30
0.0
 11
809.14746436972462
 21
949.7059548446889
 31
0.0
  0
LINE
  5
C4
100
AcDbEntity
  8
0
  6
Continuous
 62
               7
100
AcDbLine
 10
829.14746436972462
 20
976.77702265655421
 30
0.0
 11
809.14746436972462
 21
956.77702265655421
 31
0.0
  0
LINE
  5
C5
100
AcDbEntity
  8
0
  6
Continuous
 62
               7
100
AcDbLine
 10
829.14746436972462
 20
983.84809046841974
 30
0.0
 11
809.14746436972462
 21
963.84809046841974
 31
0.0
  0
LINE
  5
C6
100
AcDbEntity
  8
0
  6
Continuous
 62
               7
100
AcDbLine
 10
812.25929619015562
 20
569.88885447698499
 30
0.0
 11
809.14746436972462
 21
573.000686297416
 31
0.0
  0
LINE
  5
C7
100
AcDbEntity
  8
0
  6
Continuous
 62
               7
100
AcDbLine
 10
819.33036400202093
 20
569.88885447698499
 30
0.0
 11
809.14746436972462
 21
580.0717541092813
 31
0.0
  0
LINE
  5
C8
100
AcDbEntity
  8
0
  6
Continuous
 62
               7
100
AcDbLine
 10
826.40143181388669
 20
569.88885447698499
 30
0.0
 11
809.14746436972462
 21
587.14282192114683
 31
0.0
  0
LINE
  5
C9
100
AcDbEntity
  8
0
  6
Continuous
 62
               7
100
AcDbLine
 10
829.14746436972462
 20
574.21388973301237
 30
0.0
 11
809.14746436972462
 21
594.21388973301237
 31
0.0
  0
LINE
  5
CA
100
AcDbEntity
  8
0
  6
Continuous
 62
               7
100
AcDbLine
 10
829.14746436972462
 20
581.2849575448779
 30
0.0
 11
809.14746436972462
 21
601.2849575448779
 31
0.0
  0
LINE
  5
CB
100
AcDbEntity
  8
0
  6
Continuous
 62
               7
100
AcDbLine
 10
829.14746436972462
 20
588.3560253567432
 30
0.0
 11
809.14746436972462
 21
608.3560253567432
 31
0.0
  0
LINE
  5
CC
100
AcDbEntity
  8
0
  6
Continuous
 62
               7
100
AcDbLine
 10
829.14746436972462
 20
595.42709316860874
 30
0.0
 11
809.14746436972462
 21
615.42709316860874
 31
0.0
  0
LINE
  5
CD
100
AcDbEntity
  8
0
  6
Continuous
 62
               7
100
AcDbLine
 10
829.14746436972462
 20
602.49816098047427
 30
0.0
 11
809.14746436972462
 21
622.49816098047427
 31
0.0
  0
LINE
  5
CE
100
AcDbEntity
  8
0
  6
Continuous
 62
               7
100
AcDbLine
 10
829.14746436972462
 20
609.5692287923398
 30
0.0
 11
809.14746436972462
 21
629.5692287923398
 31
0.0
  0
LINE
  5
CF
100
AcDbEntity
  8
0
  6
Continuous
 62
               7
100
AcDbLine
 10
829.14746436972462
 20
616.64029660420533
 30
0.0
 11
809.14746436972462
 21
636.6402966042051
 31
0.0
  0
LINE
  5
D0
100
AcDbEntity
  8
0
  6
Continuous
 62
               7
100
AcDbLine
 10
829.14746436972462
 20
623.71136441607064
 30
0.0
 11
810.46997430881027
 21
642.38885447698499
 31
0.0
  0
LINE
  5
D1
100
AcDbEntity
  8
0
  6
Continuous
 62
               7
100
AcDbLine
 10
829.14746436972462
 20
630.78243222793617
 30
0.0
 11
817.5410421206758
 21
642.38885447698499
 31
0.0
  0
LINE
  5
D2
100
AcDbEntity
  8
0
  6
Continuous
 62
               7
100
AcDbLine
 10
829.14746436972462
 20
637.8535000398017
 30
0.0
 11
824.61210993254133
 21
642.38885447698499
 31
0.0
  0
LINE
  5
D3
100
AcDbEntity
  8
0
  6
Continuous
 62
               7
100
AcDbLine
 10
829.14746436972462
 20
835.84339877203502
 30
0.0
 11
809.14746436972462
 21
855.84339877203502
 31
0.0
  0
LINE
  5
D4
100
AcDbEntity
  8
0
  6
Continuous
 62
               7
100
AcDbLine
 10
829.14746436972462
 20
842.91446658390055
 30
0.0
 11
809.14746436972462
 21
862.91446658390032
 31
0.0
  0
LINE
  5
D5
100
AcDbEntity
  8
0
  6
Continuous
 62
               7
100
AcDbLine
 10
829.14746436972462
 20
849.98553439576585
 30
0.0
 11
809.14746436972462
 21
869.98553439576585
 31
0.0
  0
LINE
  5
D6
100
AcDbEntity
  8
0
  6
Continuous
 62
               7
100
AcDbLine
 10
829.14746436972462
 20
857.05660220763139
 30
0.0
 11
809.14746436972462
 21
877.05660220763139
 31
0.0
  0
LINE
  5
D7
100
AcDbEntity
  8
0
  6
Continuous
 62
               7
100
AcDbLine
 10
829.14746436972462
 20
864.12767001949692
 30
0.0
 11
809.14746436972462
 21
884.12767001949692
 31
0.0
  0
LINE
  5
D8
100
AcDbEntity
  8
0
  6
Continuous
 62
               7
100
AcDbLine
 10
829.14746436972462
 20
871.19873783136245
 30
0.0
 11
809.14746436972462
 21
891.19873783136222
 31
0.0
  0
LINE
  5
D9
100
AcDbEntity
  8
0
  6
Continuous
 62
               7
100
AcDbLine
 10
829.14746436972462
 20
878.26980564322776
 30
0.0
 11
809.14746436972462
 21
898.26980564322776
 31
0.0
  0
LINE
  5
DA
100
AcDbEntity
  8
0
  6
Continuous
 62
               7
100
AcDbLine
 10
829.14746436972462
 20
885.34087345509329
 30
0.0
 11
809.14746436972462
 21
905.34087345509329
 31
0.0
  0
LINE
  5
DB
100
AcDbEntity
  8
0
  6
Continuous
 62
               7
100
AcDbLine
 10
829.14746436972462
 20
892.41194126695882
 30
0.0
 11
809.14746436972462
 21
912.41194126695882
 31
0.0
  0
LINE
  5
DC
100
AcDbEntity
  8
0
  6
Continuous
 62
               7
100
AcDbLine
 10
829.14746436972462
 20
899.48300907882435
 30
0.0
 11
809.14746436972462
 21
919.48300907882413
 31
0.0
  0
LINE
  5
DD
100
AcDbEntity
  8
0
  6
Continuous
 62
               7
100
AcDbLine
 10
829.14746436972462
 20
906.55407689068966
 30
0.0
 11
809.14746436972462
 21
926.55407689068966
 31
0.0
  0
LINE
  5
DE
100
AcDbEntity
  8
0
  6
Continuous
 62
               7
100
AcDbLine
 10
829.14746436972462
 20
913.62514470255519
 30
0.0
 11
809.14746436972462
 21
933.62514470255519
 31
0.0
  0
LINE
  5
DF
100
AcDbEntity
  8
0
  6
Continuous
 62
               7
100
AcDbLine
 10
829.14746436972462
 20
920.69621251442072
 30
0.0
 11
809.14746436972462
 21
940.69621251442072
 31
0.0
  0
LINE
  5
E0
100
AcDbEntity
  8
0
  6
Continuous
 62
               7
100
AcDbLine
 10
829.14746436972462
 20
927.76728032628625
 30
0.0
 11
809.14746436972462
 21
947.76728032628603
 31
0.0
  0
LINE
  5
E1
100
AcDbEntity
  8
0
  6
Continuous
 62
               7
100
AcDbLine
 10
829.14746436972462
 20
934.83834813815156
 30
0.0
 11
809.14746436972462
 21
954.83834813815156
 31
0.0
  0
LINE
  5
E2
100
AcDbEntity
  8
0
  6
Continuous
 62
               7
100
AcDbLine
 10
829.14746436972462
 20
941.90941595001709
 30
0.0
 11
809.14746436972462
 21
961.90941595001709
 31
0.0
  0
LINE
  5
E3
100
AcDbEntity
  8
0
  6
Continuous
 62
               7
100
AcDbLine
 10
829.14746436972462
 20
948.98048376188262
 30
0.0
 11
809.14746436972462
 21
968.98048376188262
 31
0.0
  0
LINE
  5
E4
100
AcDbEntity
  8
0
  6
Continuous
 62
               7
100
AcDbLine
 10
829.14746436972462
 20
956.05155157374816
 30
0.0
 11
809.14746436972462
 21
976.05155157374793
 31
0.0
  0
LINE
  5
E5
100
AcDbEntity
  8
0
  6
Continuous
 62
               7
100
AcDbLine
 10
829.14746436972462
 20
963.12261938561346
 30
0.0
 11
809.14746436972462
 21
983.12261938561346
 31
0.0
  0
LINE
  5
E6
100
AcDbEntity
  8
0
  6
Continuous
 62
               4
100
AcDbLine
 10
703.14746436972462
 20
619.88885447698499
 30
0.0
 11
698.14746436972462
 21
619.88885447698499
 31
0.0
  0
LINE
  5
E7
100
AcDbEntity
  8
0
  6
Continuous
 62
               4
100
AcDbLine
 10
698.14746436972462
 20
619.88885447698499
 30
0.0
 11
698.14746436972462
 21
669.88885447698499
 31
0.0
  0
LINE
  5
E8
100
AcDbEntity
  8
0
  6
Continuous
 62
               4
100
AcDbLine
 10
704.14746436972462
 20
728.50393465224283
 30
0.0
 11
704.14746436972462
 21
679.88885447698499
 31
0.0
  0
LINE
  5
E9
100
AcDbEntity
  8
0
  6
Continuous
 62
               4
100
AcDbLine
 10
698.14746436972462
 20
669.88885447698499
 30
0.0
 11
704.14746436972462
 21
679.88885447698499
 31
0.0
  0
LINE
  5
EA
100
AcDbEntity
  8
0
  6
Continuous
 62
               4
100
AcDbLine
 10
703.14746436972462
 20
668.50393465224283
 30
0.0
 11
709.14746436972462
 21
678.50393465224283
 31
0.0
  0
LINE
  5
EB
100
AcDbEntity
  8
0
  6
Continuous
 62
               4
100
AcDbLine
 10
703.14746436972462
 20
619.88885447698499
 30
0.0
 11
703.14746436972462
 21
668.50393465224283
 31
0.0
  0
LINE
  5
EC
100
AcDbEntity
  8
0
  6
Continuous
 62
               4
100
AcDbLine
 10
709.14746436972462
 20
728.50393465224283
 30
0.0
 11
704.14746436972462
 21
728.50393465224283
 31
0.0
  0
LINE
  5
ED
100
AcDbEntity
  8
0
  6
Continuous
 62
               4
100
AcDbLine
 10
709.14746436972462
 20
678.50393465224283
 30
0.0
 11
709.14746436972462
 21
728.50393465224283
 31
0.0
  0
LINE
  5
EE
100
AcDbEntity
  8
0
  6
DOT
 62
               7
100
AcDbLine
 10
779.14746436972462
 20
729.88885447698499
 30
0.0
 11
809.14746436972462
 21
729.88885447698499
 31
0.0
  0
LINE
  5
EF
100
AcDbEntity
  8
0
  6
DOT
 62
               7
100
AcDbLine
 10
779.14746436972462
 20
684.88885447698499
 30
0.0
 11
809.14746436972462
 21
684.88885447698499
 31
0.0
  0
LINE
  5
F0
100
AcDbEntity
  8
0
  6
DOT
 62
               7
100
AcDbLine
 10
779.14746436972462
 20
729.88885447698499
 30
0.0
 11
779.14746436972462
 21
684.88885447698499
 31
0.0
  0
LINE
  5
F1
100
AcDbEntity
  8
0
  6
DOT
 62
               7
100
AcDbLine
 10
782.14746436972462
 20
727.38885447698499
 30
0.0
 11
782.14746436972462
 21
687.38885447698499
 31
0.0
  0
LINE
  5
F2
100
AcDbEntity
  8
0
  6
DASHDOT
 62
               7
100
AcDbLine
 10
682.14746436972439
 20
707.38885447698499
 30
0.0
 11
810.14746436972462
 21
707.38885447698499
 31
0.0
  0
LINE
  5
F3
100
AcDbEntity
  8
0
  6
DOT
 62
               7
100
AcDbLine
 10
794.14746436972462
 20
716.38885447698499
 30
0.0
 11
794.14746436972462
 21
698.38885447698499
 31
0.0
  0
LINE
  5
F4
100
AcDbEntity
  8
0
  6
DOT
 62
               7
100
AcDbLine
 10
782.14746436972462
 20
695.38885447698499
 30
0.0
 11
792.14746436972462
 21
695.38885447698499
 31
0.0
  0
LINE
  5
F5
100
AcDbEntity
  8
0
  6
DOT
 62
               7
100
AcDbLine
 10
782.14746436972462
 20
719.38885447698499
 30
0.0
 11
792.14746436972462
 21
719.38885447698499
 31
0.0
  0
LINE
  5
F6
100
AcDbEntity
  8
0
  6
DOT
 62
               7
100
AcDbLine
 10
779.14746436972462
 20
687.38885447698499
 30
0.0
 11
782.14746436972462
 21
687.38885447698499
 31
0.0
  0
LINE
  5
F7
100
AcDbEntity
  8
0
  6
DOT
 62
               7
100
AcDbLine
 10
779.14746436972462
 20
727.38885447698499
 30
0.0
 11
782.14746436972462
 21
727.38885447698499
 31
0.0
  0
LINE
  5
F8
100
AcDbEntity
  8
0
  6
DOT
 62
               7
100
AcDbLine
 10
792.14746436972462
 20
719.38885447698499
 30
0.0
 11
794.14746436972462
 21
716.38885447698499
 31
0.0
  0
LINE
  5
F9
100
AcDbEntity
  8
0
  6
DOT
 62
               7
100
AcDbLine
 10
792.14746436972462
 20
695.38885447698499
 30
0.0
 11
794.14746436972462
 21
698.38885447698499
 31
0.0
  0
LINE
  5
FA
100
AcDbEntity
  8
0
  6
DOT
 62
               7
100
AcDbLine
 10
782.14746436972462
 20
713.38885447698499
 30
0.0
 11
792.14746436972462
 21
713.38885447698499
 31
0.0
  0
LINE
  5
FB
100
AcDbEntity
  8
0
  6
DOT
 62
               7
100
AcDbLine
 10
782.14746436972462
 20
701.38885447698499
 30
0.0
 11
792.14746436972462
 21
701.38885447698499
 31
0.0
  0
LINE
  5
FC
100
AcDbEntity
  8
0
  6
DOT
 62
               7
100
AcDbLine
 10
704.14746436972462
 20
713.38885447698499
 30
0.0
 11
782.14746436972462
 21
713.38885447698499
 31
0.0
  0
LINE
  5
FD
100
AcDbEntity
  8
0
  6
DOT
 62
               7
100
AcDbLine
 10
709.14746436972462
 20
701.38885447698499
 30
0.0
 11
782.14746436972462
 21
701.38885447698499
 31
0.0
  0
LINE
  5
FE
100
AcDbEntity
  8
0
  6
DOT
 62
               7
100
AcDbLine
 10
794.14746436972462
 20
713.38885447698499
 30
0.0
 11
800.14746436972462
 21
713.38885447698499
 31
0.0
  0
LINE
  5
FF
100
AcDbEntity
  8
0
  6
DOT
 62
               7
100
AcDbLine
 10
794.14746436972462
 20
701.38885447698499
 30
0.0
 11
800.14746436972462
 21
701.38885447698499
 31
0.0
  0
LINE
  5
100
100
AcDbEntity
  8
0
  6
DOT
 62
               7
100
AcDbLine
 10
800.14746436972462
 20
713.38885447698499
 30
0.0
 11
800.14746436972462
 21
701.38885447698499
 31
0.0
  0
LINE
  5
101
100
AcDbEntity
  8
0
  6
Continuous
 62
               7
100
AcDbLine
 10
692.14746436972439
 20
716.38885447698499
 30
0.0
 11
692.14746436972439
 21
698.38885447698499
 31
0.0
  0
LINE
  5
102
100
AcDbEntity
  8
0
  6
Continuous
 62
               7
100
AcDbLine
 10
704.14746436972439
 20
695.38885447698499
 30
0.0
 11
694.14746436972439
 21
695.38885447698499
 31
0.0
  0
LINE
  5
103
100
AcDbEntity
  8
0
  6
Continuous
 62
               7
100
AcDbLine
 10
704.14746436972439
 20
719.38885447698499
 30
0.0
 11
694.14746436972439
 21
719.38885447698499
 31
0.0
  0
LINE
  5
104
100
AcDbEntity
  8
0
  6
Continuous
 62
               7
100
AcDbLine
 10
694.14746436972439
 20
719.38885447698499
 30
0.0
 11
692.14746436972439
 21
716.38885447698499
 31
0.0
  0
LINE
  5
105
100
AcDbEntity
  8
0
  6
Continuous
 62
               7
100
AcDbLine
 10
694.14746436972439
 20
695.38885447698499
 30
0.0
 11
692.14746436972439
 21
698.38885447698499
 31
0.0
  0
LINE
  5
106
100
AcDbEntity
  8
0
  6
Continuous
 62
               7
100
AcDbLine
 10
704.14746436972439
 20
713.38885447698499
 30
0.0
 11
694.14746436972439
 21
713.38885447698499
 31
0.0
  0
LINE
  5
107
100
AcDbEntity
  8
0
  6
Continuous
 62
               7
100
AcDbLine
 10
704.14746436972439
 20
701.38885447698499
 30
0.0
 11
694.14746436972439
 21
701.38885447698499
 31
0.0
  0
LINE
  5
108
100
AcDbEntity
  8
0
  6
Continuous
 62
               7
100
AcDbLine
 10
704.14746436972439
 20
695.38885447698499
 30
0.0
 11
704.14746436972439
 21
719.38885447698499
 31
0.0
  0
LINE
  5
109
100
AcDbEntity
  8
0
  6
DASHED
 62
               4
100
AcDbLine
 10
109.1474643697245
 20
519.88885447698499
 30
0.0
 11
404.14746436972462
 21
519.88885447698499
 31
0.0
  0
LINE
  5
10A
100
AcDbEntity
  8
0
  6
DASHED
 62
               4
100
AcDbLine
 10
404.14746436972462
 20
519.88885447698499
 30
0.0
 11
424.14746436972462
 21
469.88885447698505
 31
0.0
  0
LINE
  5
10B
100
AcDbEntity
  8
0
  6
DASHED
 62
               4
100
AcDbLine
 10
474.14746436972462
 20
469.88885447698505
 30
0.0
 11
494.14746436972462
 21
519.88885447698499
 31
0.0
  0
LINE
  5
10C
100
AcDbEntity
  8
0
  6
DASHED
 62
               4
100
AcDbLine
 10
494.14746436972462
 20
519.88885447698499
 30
0.0
 11
594.14746436972439
 21
519.88885447698499
 31
0.0
  0
LINE
  5
10D
100
AcDbEntity
  8
0
  6
DASHED
 62
               4
100
AcDbLine
 10
424.14746436972462
 20
469.88885447698505
 30
0.0
 11
474.14746436972462
 21
469.88885447698505
 31
0.0
  0
LINE
  5
10E
100
AcDbEntity
  8
0
  6
Continuous
 62
               4
100
AcDbLine
 10
309.14746436972462
 20
539.88885447698499
 30
0.0
 11
709.14746436972462
 21
539.88885447698499
 31
0.0
  0
LINE
  5
10F
100
AcDbEntity
  8
0
  6
Continuous
 62
               4
100
AcDbLine
 10
709.14746436972462
 20
539.88885447698499
 30
0.0
 11
809.14746436972462
 21
539.88885447698499
 31
0.0
  0
LINE
  5
110
100
AcDbEntity
  8
0
  6
Continuous
 62
               4
100
AcDbLine
 10
809.14746436972462
 20
539.88885447698499
 30
0.0
 11
838.14746436972462
 21
539.88885447698499
 31
0.0
  0
LINE
  5
111
100
AcDbEntity
  8
0
  6
Continuous
 62
               4
100
AcDbLine
 10
838.14746436972462
 20
539.88885447698499
 30
0.0
 11
858.14746436972462
 21
539.88885447698499
 31
0.0
  0
LINE
  5
112
100
AcDbEntity
  8
0
  6
Continuous
 62
               4
100
AcDbLine
 10
709.14746436972462
 20
525.88885447698499
 30
0.0
 11
759.14746436972462
 21
525.88885447698499
 31
0.0
  0
LINE
  5
113
100
AcDbEntity
  8
0
  6
Continuous
 62
               4
100
AcDbLine
 10
759.14746436972462
 20
525.88885447698499
 30
0.0
 11
809.14746436972462
 21
525.88885447698499
 31
0.0
  0
LINE
  5
114
100
AcDbEntity
  8
0
  6
Continuous
 62
               4
100
AcDbLine
 10
809.14746436972462
 20
525.88885447698499
 30
0.0
 11
829.14746436972462
 21
525.88885447698499
 31
0.0
  0
LINE
  5
115
100
AcDbEntity
  8
0
  6
Continuous
 62
               4
100
AcDbLine
 10
829.14746436972462
 20
525.88885447698499
 30
0.0
 11
835.14746436972462
 21
525.88885447698499
 31
0.0
  0
LINE
  5
116
100
AcDbEntity
  8
0
  6
Continuous
 62
               4
100
AcDbLine
 10
784.14746436972462
 20
434.88885447698505
 30
0.0
 11
1110.1474643697243
 21
434.88885447698505
 31
0.0
  0
LINE
  5
117
100
AcDbEntity
  8
0
  6
Continuous
 62
               4
100
AcDbLine
 10
784.14746436972462
 20
434.88885447698505
 30
0.0
 11
789.94301932745896
 21
436.44176874760018
 31
0.0
  0
LINE
  5
118
100
AcDbEntity
  8
0
  6
Continuous
 62
               4
100
AcDbLine
 10
784.14746436972462
 20
434.88885447698505
 30
0.0
 11
789.94301932745896
 21
433.33594020637003
 31
0.0
  0
LINE
  5
119
100
AcDbEntity
  8
0
  6
Continuous
 62
               4
100
AcDbLine
 10
905.14746436972462
 20
434.88885447698505
 30
0.0
 11
905.14746436972462
 21
378.88885447698505
 31
0.0
  0
LINE
  5
11A
100
AcDbEntity
  8
0
  6
Continuous
 62
               4
100
AcDbLine
 10
905.14746436972462
 20
420.88885447698505
 30
0.0
 11
1110.1474643697243
 21
420.88885447698505
 31
0.0
  0
LINE
  5
11B
100
AcDbEntity
  8
0
  6
Continuous
 62
               4
100
AcDbLine
 10
905.14746436972462
 20
406.88885447698505
 30
0.0
 11
1110.1474643697243
 21
406.88885447698505
 31
0.0
  0
LINE
  5
11C
100
AcDbEntity
  8
0
  6
Continuous
 62
               4
100
AcDbLine
 10
905.14746436972462
 20
392.88885447698505
 30
0.0
 11
1110.1474643697243
 21
392.88885447698505
 31
0.0
  0
LINE
  5
11D
100
AcDbEntity
  8
0
  6
Continuous
 62
               4
100
AcDbLine
 10
905.14746436972462
 20
378.88885447698505
 30
0.0
 11
1110.1474643697243
 21
378.88885447698505
 31
0.0
  0
LINE
  5
11E
100
AcDbEntity
  8
0
  6
Continuous
 62
               4
100
AcDbLine
 10
639.14746436972439
 20
394.88885447698505
 30
0.0
 11
612.58935198700181
 21
348.88885447698505
 31
0.0
  0
LINE
  5
11F
100
AcDbEntity
  8
0
  6
Continuous
 62
               4
100
AcDbLine
 10
639.14746436972439
 20
394.88885447698505
 30
0.0
 11
637.59455009910937
 21
389.09329951925071
 31
0.0
  0
LINE
  5
120
100
AcDbEntity
  8
0
  6
Continuous
 62
               4
100
AcDbLine
 10
639.14746436972439
 20
394.88885447698505
 30
0.0
 11
634.9048236826053
 21
390.64621378986573
 31
0.0
  0
LINE
  5
121
100
AcDbEntity
  8
0
  6
Continuous
 62
               4
100
AcDbLine
 10
612.58935198700181
 20
348.88885447698505
 30
0.0
 11
477.0922771450206
 21
348.88885447698505
 31
0.0
  0
LINE
  5
122
100
AcDbEntity
  8
0
  6
Continuous
 62
               4
100
AcDbLine
 10
671.39746436972462
 20
600.88885447698499
 30
0.0
 11
650.61285467889809
 21
636.88885447698499
 31
0.0
  0
LINE
  5
123
100
AcDbEntity
  8
0
  6
Continuous
 62
               4
100
AcDbLine
 10
671.39746436972462
 20
600.88885447698499
 30
0.0
 11
667.1548236826053
 21
605.13149516410431
 31
0.0
  0
LINE
  5
124
100
AcDbEntity
  8
0
  6
Continuous
 62
               4
100
AcDbLine
 10
671.39746436972462
 20
600.88885447698499
 30
0.0
 11
669.84455009910937
 21
606.68440943471956
 31
0.0
  0
LINE
  5
125
100
AcDbEntity
  8
0
  6
Continuous
 62
               4
100
AcDbLine
 10
519.84471796524906
 20
636.88885447698499
 30
0.0
 11
650.61285467889809
 21
636.88885447698499
 31
0.0
  0
LINE
  5
126
100
AcDbEntity
  8
0
  6
Continuous
 62
               4
100
AcDbLine
 10
698.14746436972439
 20
644.88885447698499
 30
0.0
 11
678.51755521727739
 21
678.88885447698499
 31
0.0
  0
LINE
  5
127
100
AcDbEntity
  8
0
  6
Continuous
 62
               4
100
AcDbLine
 10
698.14746436972439
 20
644.88885447698499
 30
0.0
 11
693.9048236826053
 21
649.13149516410431
 31
0.0
  0
LINE
  5
128
100
AcDbEntity
  8
0
  6
Continuous
 62
               4
100
AcDbLine
 10
698.14746436972439
 20
644.88885447698499
 30
0.0
 11
696.59455009910937
 21
650.68440943471956
 31
0.0
  0
LINE
  5
129
100
AcDbEntity
  8
0
  6
Continuous
 62
               4
100
AcDbLine
 10
678.51755521727739
 20
678.88885447698499
 30
0.0
 11
557.7261610246311
 21
678.88885447698499
 31
0.0
  0
LINE
  5
12A
100
AcDbEntity
  8
0
  6
Continuous
 62
               4
100
AcDbLine
 10
271.6474643697245
 20
294.88885447698505
 30
0.0
 11
247.39875306376018
 21
252.88885447698505
 31
0.0
  0
LINE
  5
12B
100
AcDbEntity
  8
0
  6
Continuous
 62
               4
100
AcDbLine
 10
271.6474643697245
 20
294.88885447698505
 30
0.0
 11
270.09455009910937
 21
289.09329951925071
 31
0.0
  0
LINE
  5
12C
100
AcDbEntity
  8
0
  6
Continuous
 62
               4
100
AcDbLine
 10
271.6474643697245
 20
294.88885447698505
 30
0.0
 11
267.4048236826053
 21
290.64621378986578
 31
0.0
  0
LINE
  5
12D
100
AcDbEntity
  8
0
  6
Continuous
 62
               4
100
AcDbLine
 10
247.39875306376018
 20
252.88885447698505
 30
0.0
 11
107.51039035271754
 21
252.88885447698505
 31
0.0
  0
LINE
  5
12E
100
AcDbEntity
  8
0
  6
Continuous
 62
               4
100
AcDbLine
 10
578.96858620964792
 20
1005.6833634891577
 30
0.0
 11
539.59012762761529
 21
1073.888854476985
 31
0.0
  0
LINE
  5
12F
100
AcDbEntity
  8
0
  6
Continuous
 62
               4
100
AcDbLine
 10
539.59012762761529
 20
1073.888854476985
 30
0.0
 11
402.61176771282942
 21
1073.888854476985
 31
0.0
  0
LINE
  5
130
100
AcDbEntity
  8
0
  6
Continuous
 62
               4
100
AcDbLine
 10
578.96858620964792
 20
1005.6833634891577
 30
0.0
 11
574.7259455225286
 21
1009.926004176277
 31
0.0
  0
LINE
  5
131
100
AcDbEntity
  8
0
  6
Continuous
 62
               4
100
AcDbLine
 10
578.96858620964792
 20
1005.6833634891577
 30
0.0
 11
577.41567193903268
 21
1011.4789184468921
 31
0.0
  0
LINE
  5
132
100
AcDbEntity
  8
0
  6
Continuous
 62
               4
100
AcDbLine
 10
861.14746436972462
 20
961.68885447698494
 30
0.0
 11
887.87878183320424
 21
915.38885447698499
 31
0.0
  0
LINE
  5
133
100
AcDbEntity
  8
0
  6
Continuous
 62
               4
100
AcDbLine
 10
861.14746436972462
 20
961.68885447698494
 30
0.0
 11
865.39010505684394
 21
957.44621378986585
 31
0.0
  0
LINE
  5
134
100
AcDbEntity
  8
0
  6
Continuous
 62
               4
100
AcDbLine
 10
861.14746436972462
 20
961.68885447698494
 30
0.0
 11
862.70037864033986
 21
955.8932995192506
 31
0.0
  0
LINE
  5
135
100
AcDbEntity
  8
0
  6
Continuous
 62
               4
100
AcDbLine
 10
887.87878183320424
 20
915.38885447698499
 30
0.0
 11
962.08532352902864
 21
915.38885447698499
 31
0.0
  0
LINE
  5
136
100
AcDbEntity
  8
0
  6
Continuous
 62
               7
100
AcDbLine
 10
109.1474643697245
 20
679.88885447698499
 30
0.0
 11
405.00532874599355
 21
679.88885447698499
 31
0.0
  0
LINE
  5
137
100
AcDbEntity
  8
0
  6
Continuous
 62
               7
100
AcDbLine
 10
419.14746436972462
 20
979.03099010071605
 30
0.0
 11
419.14746436972462
 21
694.03099010071605
 31
0.0
  0
LINE
  5
138
100
AcDbEntity
  8
0
  6
Continuous
 62
               7
100
AcDbLine
 10
419.14746436972462
 20
979.03099010071605
 30
0.0
 11
435.00532874599355
 21
994.88885447698499
 31
0.0
  0
LINE
  5
139
100
AcDbEntity
  8
0
  6
Continuous
 62
               7
100
AcDbLine
 10
435.00532874599355
 20
994.88885447698499
 30
0.0
 11
609.14746436972462
 21
994.88885447698499
 31
0.0
  0
LINE
  5
13A
100
AcDbEntity
  8
0
  6
Continuous
 62
               7
100
AcDbLine
 10
629.14746436972462
 20
989.88885447698499
 30
0.0
 11
629.14746436972462
 21
987.48885447698513
 31
0.0
  0
LINE
  5
13B
100
AcDbEntity
  8
0
  6
Continuous
 62
               6
100
AcDbLine
 10
409.14746436972462
 20
669.88885447698499
 30
0.0
 11
429.14746436972462
 21
689.88885447698499
 31
0.0
  0
LINE
  5
13C
100
AcDbEntity
  8
0
  6
Continuous
 62
               7
100
AcDbLine
 10
405.00532874599355
 20
679.88885447698499
 30
0.0
 11
419.14746436972462
 21
694.03099010071605
 31
0.0
  0
LINE
  5
13D
100
AcDbEntity
  8
0
  6
Continuous
 62
               7
100
AcDbLine
 10
609.14746436972462
 20
994.88885447698499
 30
0.0
 11
629.14746436972462
 21
989.88885447698499
 31
0.0
  0
LINE
  5
13E
100
AcDbEntity
  8
0
  6
Continuous
 62
               7
100
AcDbLine
 10
433.2908626519262
 20
989.63885447698476
 30
0.0
 11
421.64746436972462
 21
977.99545619478317
 31
0.0
  0
LINE
  5
13F
100
AcDbEntity
  8
0
  6
Continuous
 62
               7
100
AcDbLine
 10
421.64746436972462
 20
977.99545619478317
 30
0.0
 11
421.64746436972462
 21
692.99545619478317
 31
0.0
  0
LINE
  5
140
100
AcDbEntity
  8
0
  6
Continuous
 62
               7
100
AcDbLine
 10
421.64746436972462
 20
692.99545619478317
 30
0.0
 11
406.04086265192632
 21
677.38885447698499
 31
0.0
  0
LINE
  5
141
100
AcDbEntity
  8
0
  6
Continuous
 62
               7
100
AcDbLine
 10
406.04086265192632
 20
677.38885447698499
 30
0.0
 11
109.1474643697245
 21
677.38885447698499
 31
0.0
  0
LINE
  5
142
100
AcDbEntity
  8
0
  6
Continuous
 62
               7
100
AcDbLine
 10
436.82639655785886
 20
989.63885447698476
 30
0.0
 11
424.14746436972462
 21
976.95992228885052
 31
0.0
  0
LINE
  5
143
100
AcDbEntity
  8
0
  6
Continuous
 62
               7
100
AcDbLine
 10
424.14746436972462
 20
976.95992228885052
 30
0.0
 11
424.14746436972462
 21
691.95992228885052
 31
0.0
  0
LINE
  5
144
100
AcDbEntity
  8
0
  6
Continuous
 62
               7
100
AcDbLine
 10
424.14746436972462
 20
691.95992228885052
 30
0.0
 11
407.07639655785908
 21
674.88885447698499
 31
0.0
  0
LINE
  5
145
100
AcDbEntity
  8
0
  6
Continuous
 62
               7
100
AcDbLine
 10
407.07639655785908
 20
674.88885447698499
 30
0.0
 11
109.1474643697245
 21
674.88885447698499
 31
0.0
  0
LINE
  5
146
100
AcDbEntity
  8
0
  6
Continuous
 62
               7
100
AcDbLine
 10
109.1474643697245
 20
672.38885447698499
 30
0.0
 11
408.11193046379185
 21
672.38885447698499
 31
0.0
  0
LINE
  5
147
100
AcDbEntity
  8
0
  6
Continuous
 62
               7
100
AcDbLine
 10
408.11193046379185
 20
672.38885447698499
 30
0.0
 11
426.64746436972462
 21
690.92438838291787
 31
0.0
  0
LINE
  5
148
100
AcDbEntity
  8
0
  6
Continuous
 62
               7
100
AcDbLine
 10
426.64746436972462
 20
690.92438838291787
 30
0.0
 11
426.64746436972462
 21
975.92438838291787
 31
0.0
  0
LINE
  5
149
100
AcDbEntity
  8
0
  6
Continuous
 62
               7
100
AcDbLine
 10
426.64746436972462
 20
975.92438838291787
 30
0.0
 11
438.11193046379185
 21
987.38885447698499
 31
0.0
  0
LINE
  5
14A
100
AcDbEntity
  8
0
  6
Continuous
 62
               7
100
AcDbLine
 10
109.1474643697245
 20
729.88885447698499
 30
0.0
 11
419.14746436972462
 21
729.88885447698499
 31
0.0
  0
LINE
  5
14B
100
AcDbEntity
  8
0
  6
Continuous
 62
               7
100
AcDbLine
 10
109.1474643697245
 20
799.88885447698499
 30
0.0
 11
419.14746436972462
 21
799.88885447698499
 31
0.0
  0
LINE
  5
14C
100
AcDbEntity
  8
0
  6
Continuous
 62
               7
100
AcDbLine
 10
419.14746436972462
 20
708.05119263624943
 30
0.0
 11
390.98512621046018
 21
679.88885447698499
 31
0.0
  0
LINE
  5
14D
100
AcDbEntity
  8
0
  6
Continuous
 62
               7
100
AcDbLine
 10
419.14746436972462
 20
722.19332825998026
 30
0.0
 11
376.84299058672923
 21
679.88885447698499
 31
0.0
  0
LINE
  5
14E
100
AcDbEntity
  8
0
  6
Continuous
 62
               7
100
AcDbLine
 10
412.70085496299828
 20
729.88885447698499
 30
0.0
 11
362.70085496299828
 21
679.88885447698499
 31
0.0
  0
LINE
  5
14F
100
AcDbEntity
  8
0
  6
Continuous
 62
               7
100
AcDbLine
 10
398.55871933926733
 20
729.88885447698499
 30
0.0
 11
348.55871933926733
 21
679.88885447698499
 31
0.0
  0
LINE
  5
150
100
AcDbEntity
  8
0
  6
Continuous
 62
               7
100
AcDbLine
 10
384.41658371553638
 20
729.88885447698499
 30
0.0
 11
334.41658371553638
 21
679.88885447698499
 31
0.0
  0
LINE
  5
151
100
AcDbEntity
  8
0
  6
Continuous
 62
               7
100
AcDbLine
 10
370.27444809180543
 20
729.88885447698499
 30
0.0
 11
320.27444809180543
 21
679.88885447698499
 31
0.0
  0
LINE
  5
152
100
AcDbEntity
  8
0
  6
Continuous
 62
               7
100
AcDbLine
 10
356.13231246807447
 20
729.88885447698499
 30
0.0
 11
306.13231246807447
 21
679.88885447698499
 31
0.0
  0
LINE
  5
153
100
AcDbEntity
  8
0
  6
Continuous
 62
               7
100
AcDbLine
 10
341.99017684434352
 20
729.88885447698499
 30
0.0
 11
291.99017684434352
 21
679.88885447698499
 31
0.0
  0
LINE
  5
154
100
AcDbEntity
  8
0
  6
Continuous
 62
               7
100
AcDbLine
 10
327.84804122061257
 20
729.88885447698499
 30
0.0
 11
277.84804122061257
 21
679.88885447698499
 31
0.0
  0
LINE
  5
155
100
AcDbEntity
  8
0
  6
Continuous
 62
               7
100
AcDbLine
 10
313.70590559688162
 20
729.88885447698499
 30
0.0
 11
263.70590559688162
 21
679.88885447698499
 31
0.0
  0
LINE
  5
156
100
AcDbEntity
  8
0
  6
Continuous
 62
               7
100
AcDbLine
 10
299.56376997315067
 20
729.88885447698499
 30
0.0
 11
249.56376997315067
 21
679.88885447698499
 31
0.0
  0
LINE
  5
157
100
AcDbEntity
  8
0
  6
Continuous
 62
               7
100
AcDbLine
 10
285.42163434941972
 20
729.88885447698499
 30
0.0
 11
235.42163434941972
 21
679.88885447698499
 31
0.0
  0
LINE
  5
158
100
AcDbEntity
  8
0
  6
Continuous
 62
               7
100
AcDbLine
 10
271.27949872568877
 20
729.88885447698499
 30
0.0
 11
221.27949872568877
 21
679.88885447698499
 31
0.0
  0
LINE
  5
159
100
AcDbEntity
  8
0
  6
Continuous
 62
               7
100
AcDbLine
 10
257.13736310195782
 20
729.88885447698499
 30
0.0
 11
207.13736310195782
 21
679.88885447698499
 31
0.0
  0
LINE
  5
15A
100
AcDbEntity
  8
0
  6
Continuous
 62
               7
100
AcDbLine
 10
242.99522747822698
 20
729.88885447698499
 30
0.0
 11
192.99522747822698
 21
679.88885447698499
 31
0.0
  0
LINE
  5
15B
100
AcDbEntity
  8
0
  6
Continuous
 62
               7
100
AcDbLine
 10
228.85309185449591
 20
729.88885447698499
 30
0.0
 11
178.85309185449591
 21
679.88885447698499
 31
0.0
  0
LINE
  5
15C
100
AcDbEntity
  8
0
  6
Continuous
 62
               7
100
AcDbLine
 10
214.71095623076508
 20
729.88885447698499
 30
0.0
 11
164.71095623076508
 21
679.88885447698499
 31
0.0
  0
LINE
  5
15D
100
AcDbEntity
  8
0
  6
Continuous
 62
               7
100
AcDbLine
 10
200.56882060703401
 20
729.88885447698499
 30
0.0
 11
150.56882060703401
 21
679.88885447698499
 31
0.0
  0
LINE
  5
15E
100
AcDbEntity
  8
0
  6
Continuous
 62
               7
100
AcDbLine
 10
186.42668498330318
 20
729.88885447698499
 30
0.0
 11
136.42668498330318
 21
679.88885447698499
 31
0.0
  0
LINE
  5
15F
100
AcDbEntity
  8
0
  6
Continuous
 62
               7
100
AcDbLine
 10
172.28454935957211
 20
729.88885447698499
 30
0.0
 11
122.28454935957211
 21
679.88885447698499
 31
0.0
  0
LINE
  5
160
100
AcDbEntity
  8
0
  6
Continuous
 62
               7
100
AcDbLine
 10
158.14241373584127
 20
729.88885447698499
 30
0.0
 11
109.1474643697245
 21
680.89390511086845
 31
0.0
  0
LINE
  5
161
100
AcDbEntity
  8
0
  6
Continuous
 62
               7
100
AcDbLine
 10
144.00027811211021
 20
729.88885447698499
 30
0.0
 11
109.1474643697245
 21
695.03604073459928
 31
0.0
  0
LINE
  5
162
100
AcDbEntity
  8
0
  6
Continuous
 62
               7
100
AcDbLine
 10
129.85814248837926
 20
729.88885447698499
 30
0.0
 11
109.1474643697245
 21
709.17817635833035
 31
0.0
  0
LINE
  5
163
100
AcDbEntity
  8
0
  6
Continuous
 62
               7
100
AcDbLine
 10
115.71600686464831
 20
729.88885447698499
 30
0.0
 11
109.1474643697245
 21
723.32031198206118
 31
0.0
  0
LINE
  5
164
100
AcDbEntity
  8
0
  6
Continuous
 62
               7
100
AcDbLine
 10
122.28454935957222
 20
679.88885447698499
 30
0.0
 11
109.1474643697245
 21
693.0259394668326
 31
0.0
  0
LINE
  5
165
100
AcDbEntity
  8
0
  6
Continuous
 62
               7
100
AcDbLine
 10
136.42668498330318
 20
679.88885447698499
 30
0.0
 11
109.1474643697245
 21
707.16807509056366
 31
0.0
  0
LINE
  5
166
100
AcDbEntity
  8
0
  6
Continuous
 62
               7
100
AcDbLine
 10
150.56882060703413
 20
679.88885447698499
 30
0.0
 11
109.1474643697245
 21
721.3102107142945
 31
0.0
  0
LINE
  5
167
100
AcDbEntity
  8
0
  6
Continuous
 62
               7
100
AcDbLine
 10
164.71095623076508
 20
679.88885447698499
 30
0.0
 11
114.71095623076508
 21
729.88885447698499
 31
0.0
  0
LINE
  5
168
100
AcDbEntity
  8
0
  6
Continuous
 62
               7
100
AcDbLine
 10
178.85309185449603
 20
679.88885447698499
 30
0.0
 11
128.85309185449603
 21
729.88885447698499
 31
0.0
  0
LINE
  5
169
100
AcDbEntity
  8
0
  6
Continuous
 62
               7
100
AcDbLine
 10
192.99522747822698
 20
679.88885447698499
 30
0.0
 11
142.99522747822698
 21
729.88885447698499
 31
0.0
  0
LINE
  5
16A
100
AcDbEntity
  8
0
  6
Continuous
 62
               7
100
AcDbLine
 10
207.13736310195793
 20
679.88885447698499
 30
0.0
 11
157.13736310195793
 21
729.88885447698499
 31
0.0
  0
LINE
  5
16B
100
AcDbEntity
  8
0
  6
Continuous
 62
               7
100
AcDbLine
 10
221.27949872568877
 20
679.88885447698499
 30
0.0
 11
171.27949872568877
 21
729.88885447698499
 31
0.0
  0
LINE
  5
16C
100
AcDbEntity
  8
0
  6
Continuous
 62
               7
100
AcDbLine
 10
235.42163434941983
 20
679.88885447698499
 30
0.0
 11
185.42163434941983
 21
729.88885447698499
 31
0.0
  0
LINE
  5
16D
100
AcDbEntity
  8
0
  6
Continuous
 62
               7
100
AcDbLine
 10
249.56376997315067
 20
679.88885447698499
 30
0.0
 11
199.56376997315067
 21
729.88885447698499
 31
0.0
  0
LINE
  5
16E
100
AcDbEntity
  8
0
  6
Continuous
 62
               7
100
AcDbLine
 10
263.70590559688173
 20
679.88885447698499
 30
0.0
 11
213.70590559688173
 21
729.88885447698499
 31
0.0
  0
LINE
  5
16F
100
AcDbEntity
  8
0
  6
Continuous
 62
               7
100
AcDbLine
 10
277.84804122061257
 20
679.88885447698499
 30
0.0
 11
227.84804122061257
 21
729.88885447698499
 31
0.0
  0
LINE
  5
170
100
AcDbEntity
  8
0
  6
Continuous
 62
               7
100
AcDbLine
 10
291.99017684434364
 20
679.88885447698499
 30
0.0
 11
241.99017684434364
 21
729.88885447698499
 31
0.0
  0
LINE
  5
171
100
AcDbEntity
  8
0
  6
Continuous
 62
               7
100
AcDbLine
 10
306.1323124680747
 20
679.88885447698499
 30
0.0
 11
256.1323124680747
 21
729.88885447698499
 31
0.0
  0
LINE
  5
172
100
AcDbEntity
  8
0
  6
Continuous
 62
               7
100
AcDbLine
 10
320.27444809180554
 20
679.88885447698499
 30
0.0
 11
270.27444809180554
 21
729.88885447698499
 31
0.0
  0
LINE
  5
173
100
AcDbEntity
  8
0
  6
Continuous
 62
               7
100
AcDbLine
 10
334.4165837155366
 20
679.88885447698499
 30
0.0
 11
284.4165837155366
 21
729.88885447698499
 31
0.0
  0
LINE
  5
174
100
AcDbEntity
  8
0
  6
Continuous
 62
               7
100
AcDbLine
 10
348.55871933926744
 20
679.88885447698499
 30
0.0
 11
298.55871933926744
 21
729.88885447698499
 31
0.0
  0
LINE
  5
175
100
AcDbEntity
  8
0
  6
Continuous
 62
               7
100
AcDbLine
 10
362.70085496299851
 20
679.88885447698499
 30
0.0
 11
312.70085496299851
 21
729.88885447698499
 31
0.0
  0
LINE
  5
176
100
AcDbEntity
  8
0
  6
Continuous
 62
               7
100
AcDbLine
 10
376.84299058672934
 20
679.88885447698499
 30
0.0
 11
326.84299058672934
 21
729.88885447698499
 31
0.0
  0
LINE
  5
177
100
AcDbEntity
  8
0
  6
Continuous
 62
               7
100
AcDbLine
 10
390.98512621046041
 20
679.88885447698499
 30
0.0
 11
340.98512621046041
 21
729.88885447698499
 31
0.0
  0
LINE
  5
178
100
AcDbEntity
  8
0
  6
Continuous
 62
               7
100
AcDbLine
 10
405.0662952900924
 20
679.94982102108384
 30
0.0
 11
355.12726183419124
 21
729.88885447698499
 31
0.0
  0
LINE
  5
179
100
AcDbEntity
  8
0
  6
Continuous
 62
               7
100
AcDbLine
 10
412.13736310195782
 20
687.02088883294937
 30
0.0
 11
369.26939745792231
 21
729.88885447698499
 31
0.0
  0
LINE
  5
17A
100
AcDbEntity
  8
0
  6
Continuous
 62
               7
100
AcDbLine
 10
419.14746436972462
 20
694.15292318891352
 30
0.0
 11
383.41153308165315
 21
729.88885447698499
 31
0.0
  0
LINE
  5
17B
100
AcDbEntity
  8
0
  6
Continuous
 62
               7
100
AcDbLine
 10
419.14746436972462
 20
708.29505881264458
 30
0.0
 11
397.55366870538421
 21
729.88885447698499
 31
0.0
  0
LINE
  5
17C
100
AcDbEntity
  8
0
  6
Continuous
 62
               7
100
AcDbLine
 10
419.14746436972462
 20
722.43719443637542
 30
0.0
 11
411.69580432911505
 21
729.88885447698499
 31
0.0
  0
LINE
  5
17D
100
AcDbEntity
  8
0
  6
Continuous
 62
               7
100
AcDbLine
 10
171.27949872568877
 20
729.88885447698499
 30
0.0
 11
109.1474643697245
 21
792.02088883294937
 31
0.0
  0
LINE
  5
17E
100
AcDbEntity
  8
0
  6
Continuous
 62
               7
100
AcDbLine
 10
178.3505665375543
 20
729.88885447698499
 30
0.0
 11
109.1474643697245
 21
799.09195664481467
 31
0.0
  0
LINE
  5
17F
100
AcDbEntity
  8
0
  6
Continuous
 62
               7
100
AcDbLine
 10
383.41153308165315
 20
729.88885447698499
 30
0.0
 11
313.41153308165303
 21
799.88885447698499
 31
0.0
  0
LINE
  5
180
100
AcDbEntity
  8
0
  6
Continuous
 62
               7
100
AcDbLine
 10
390.48260089351845
 20
729.88885447698499
 30
0.0
 11
320.48260089351845
 21
799.88885447698499
 31
0.0
  0
LINE
  5
181
100
AcDbEntity
  8
0
  6
Continuous
 62
               4
100
AcDbLine
 10
865.14746436972462
 20
986.38885447698499
 30
0.0
 11
909.14746436972484
 21
986.38885447698499
 31
0.0
  0
LINE
  5
182
100
AcDbEntity
  8
0
  6
Continuous
 62
               4
100
AcDbLine
 10
863.84746436972466
 20
936.38885447698499
 30
0.0
 11
909.14746436972484
 21
936.38885447698499
 31
0.0
  0
LINE
  5
183
100
AcDbEntity
  8
0
  6
Continuous
 62
               4
100
AcDbLine
 10
907.14746436972484
 20
986.38885447698499
 30
0.0
 11
907.14746436972484
 21
936.38885447698499
 31
0.0
  0
LINE
  5
184
100
AcDbEntity
  8
0
  6
DASHDOT
 62
               7
100
AcDbLine
 10
792.14746436972462
 20
988.38885447698499
 30
0.0
 11
792.14746436972462
 21
958.38885447698499
 31
0.0
  0
LINE
  5
185
100
AcDbEntity
  8
0
  6
Continuous
 62
               2
100
AcDbLine
 10
858.31517978202112
 20
946.24603221135999
 30
0.0
 11
859.94746436972457
 21
936.98885447698513
 31
0.0
  0
LINE
  5
186
100
AcDbEntity
  8
0
  6
DOT
 62
               4
100
AcDbLine
 10
434.14746436972462
 20
804.88885447698499
 30
0.0
 11
434.14746436972462
 21
754.88885447698499
 31
0.0
  0
LINE
  5
187
100
AcDbEntity
  8
0
  6
DOT
 62
               4
100
AcDbLine
 10
319.14746436972462
 20
664.88885447698499
 30
0.0
 11
369.14746436972462
 21
664.88885447698499
 31
0.0
  0
LINE
  5
188
100
AcDbEntity
  8
0
  6
DOT
 62
               4
100
AcDbLine
 10
319.14746436972462
 20
669.88885447698499
 30
0.0
 11
319.14746436972462
 21
664.88885447698499
 31
0.0
  0
LINE
  5
189
100
AcDbEntity
  8
0
  6
DOT
 62
               4
100
AcDbLine
 10
379.14746436972462
 20
654.88885447698499
 30
0.0
 11
464.14746436972484
 21
654.88885447698499
 31
0.0
  0
LINE
  5
18A
100
AcDbEntity
  8
0
  6
DOT
 62
               4
100
AcDbLine
 10
434.14746436972462
 20
754.88885447698499
 30
0.0
 11
464.14746436972484
 21
754.88885447698499
 31
0.0
  0
LINE
  5
18B
100
AcDbEntity
  8
0
  6
DOT
 62
               4
100
AcDbLine
 10
484.14746436972484
 20
759.88885447698499
 30
0.0
 11
484.14746436972484
 21
649.88885447698499
 31
0.0
  0
LINE
  5
18C
100
AcDbEntity
  8
0
  6
DOT
 62
               4
100
AcDbLine
 10
464.14746436972484
 20
759.88885447698499
 30
0.0
 11
464.14746436972484
 21
649.88885447698499
 31
0.0
  0
LINE
  5
18D
100
AcDbEntity
  8
0
  6
DOT
 62
               4
100
AcDbLine
 10
464.14746436972484
 20
649.88885447698499
 30
0.0
 11
484.14746436972484
 21
649.88885447698499
 31
0.0
  0
LINE
  5
18E
100
AcDbEntity
  8
0
  6
DOT
 62
               4
100
AcDbLine
 10
464.14746436972484
 20
759.88885447698499
 30
0.0
 11
484.14746436972484
 21
759.88885447698499
 31
0.0
  0
LINE
  5
18F
100
AcDbEntity
  8
0
  6
DOT
 62
               4
100
AcDbLine
 10
484.14746436972484
 20
654.88885447698499
 30
0.0
 11
838.14746436972484
 21
654.88885447698499
 31
0.0
  0
LINE
  5
190
100
AcDbEntity
  8
0
  6
DOT
 62
               4
100
AcDbLine
 10
484.14746436972484
 20
754.88885447698499
 30
0.0
 11
838.14746436972484
 21
754.88885447698499
 31
0.0
  0
LINE
  5
191
100
AcDbEntity
  8
0
  6
DOT
 62
               4
100
AcDbLine
 10
381.21853218159004
 20
659.88885447698499
 30
0.0
 11
464.14746436972484
 21
659.88885447698499
 31
0.0
  0
LINE
  5
192
100
AcDbEntity
  8
0
  6
DOT
 62
               4
100
AcDbLine
 10
369.14746436972462
 20
664.88885447698499
 30
0.0
 11
379.14746436972462
 21
654.88885447698499
 31
0.0
  0
LINE
  5
193
100
AcDbEntity
  8
0
  6
DOT
 62
               4
100
AcDbLine
 10
371.21853218159004
 20
669.88885447698499
 30
0.0
 11
381.21853218159004
 21
659.88885447698499
 31
0.0
  0
LINE
  5
194
100
AcDbEntity
  8
0
  6
DOT
 62
               4
100
AcDbLine
 10
429.14746436972462
 20
804.88885447698499
 30
0.0
 11
434.14746436972462
 21
804.88885447698499
 31
0.0
  0
LINE
  5
195
100
AcDbEntity
  8
0
  6
DOT
 62
               4
100
AcDbLine
 10
429.14746436972462
 20
749.88885447698499
 30
0.0
 11
464.14746436972484
 21
749.88885447698499
 31
0.0
  0
LINE
  5
196
100
AcDbEntity
  8
0
  6
DOT
 62
               4
100
AcDbLine
 10
429.14746436972462
 20
804.88885447698499
 30
0.0
 11
429.14746436972462
 21
749.88885447698499
 31
0.0
  0
LINE
  5
197
100
AcDbEntity
  8
0
  6
DIVIDE
 62
               4
100
AcDbLine
 10
936.64746436972484
 20
757.88885447698499
 30
0.0
 11
936.64746436972484
 21
651.88885447698499
 31
0.0
  0
LINE
  5
198
100
AcDbEntity
  8
0
  6
DIVIDE
 62
               4
100
AcDbLine
 10
976.64746436972484
 20
757.88885447698499
 30
0.0
 11
976.64746436972484
 21
651.88885447698499
 31
0.0
  0
LINE
  5
199
100
AcDbEntity
  8
0
  6
DIVIDE
 62
               4
100
AcDbLine
 10
936.64746436972484
 20
651.88885447698499
 30
0.0
 11
976.64746436972484
 21
651.88885447698499
 31
0.0
  0
LINE
  5
19A
100
AcDbEntity
  8
0
  6
DIVIDE
 62
               4
100
AcDbLine
 10
936.64746436972484
 20
757.88885447698499
 30
0.0
 11
976.64746436972484
 21
757.88885447698499
 31
0.0
  0
LINE
  5
19B
100
AcDbEntity
  8
0
  6
DIVIDE
 62
               4
100
AcDbLine
 10
986.64746436972484
 20
754.88885447698499
 30
0.0
 11
976.64746436972484
 21
754.88885447698499
 31
0.0
  0
LINE
  5
19C
100
AcDbEntity
  8
0
  6
DIVIDE
 62
               4
100
AcDbLine
 10
986.64746436972484
 20
654.88885447698499
 30
0.0
 11
976.64746436972484
 21
654.88885447698499
 31
0.0
  0
LINE
  5
19D
100
AcDbEntity
  8
0
  6
DIVIDE
 62
               4
100
AcDbLine
 10
1096.6474643697252
 20
644.88885447698499
 30
0.0
 11
1096.6474643697252
 21
614.88885447698499
 31
0.0
  0
LINE
  5
19E
100
AcDbEntity
  8
0
  6
DIVIDE
 62
               4
100
AcDbLine
 10
996.64746436972484
 20
644.88885447698499
 30
0.0
 11
996.64746436972484
 21
614.88885447698499
 31
0.0
  0
LINE
  5
19F
100
AcDbEntity
  8
0
  6
DIVIDE
 62
               4
100
AcDbLine
 10
838.14746436972484
 20
654.88885447698499
 30
0.0
 11
936.64746436972484
 21
654.88885447698499
 31
0.0
  0
LINE
  5
1A0
100
AcDbEntity
  8
0
  6
DIVIDE
 62
               4
100
AcDbLine
 10
838.14746436972484
 20
754.88885447698499
 30
0.0
 11
936.64746436972484
 21
754.88885447698499
 31
0.0
  0
LINE
  5
1A1
100
AcDbEntity
  8
0
  6
Continuous
 62
               4
100
AcDbLine
 10
1071.6474643697243
 20
329.88885447698505
 30
0.0
 11
1103.9790794443443
 21
273.88885447698505
 31
0.0
  0
LINE
  5
1A2
100
AcDbEntity
  8
0
  6
Continuous
 62
               4
100
AcDbLine
 10
1103.9790794443443
 20
273.88885447698505
 30
0.0
 11
1181.7603618787871
 21
273.88885447698505
 31
0.0
  0
LINE
  5
1A3
100
AcDbEntity
  8
0
  6
Continuous
 62
               4
100
AcDbLine
 10
1071.6474643697243
 20
329.88885447698505
 30
0.0
 11
1075.8901050568443
 21
325.64621378986573
 31
0.0
  0
LINE
  5
1A4
100
AcDbEntity
  8
0
  6
Continuous
 62
               4
100
AcDbLine
 10
1071.6474643697243
 20
329.88885447698505
 30
0.0
 11
1073.2003786403402
 21
324.09329951925071
 31
0.0
  0
LINE
  5
1A5
100
AcDbEntity
  8
0
  6
Continuous
 62
               2
100
AcDbLine
 10
838.14746436972462
 20
642.38885447698499
 30
0.0
 11
838.14746436972462
 21
244.88885447698505
 31
0.0
  0
LINE
  5
1A6
100
AcDbEntity
  8
0
  6
DOT
 62
               2
100
AcDbLine
 10
838.14746436972484
 20
767.38885447698499
 30
0.0
 11
838.14746436972484
 21
642.38885447698499
 31
0.0
  0
LINE
  5
1A7
100
AcDbEntity
  8
0
  6
Continuous
 62
               2
100
AcDbLine
 10
818.45130930948073
 20
763.91589092364643
 30
0.0
 11
838.14746436972484
 21
767.38885447698499
 31
0.0
  0
LINE
  5
1A8
100
AcDbEntity
  8
0
  6
Continuous
 62
               7
100
AcDbLine
 10
829.14746436972462
 20
821.70126314830395
 30
0.0
 11
809.14746436972462
 21
841.70126314830395
 31
0.0
  0
LINE
  5
1A9
100
AcDbEntity
  8
0
  6
Continuous
 62
               7
100
AcDbLine
 10
829.14746436972462
 20
828.77233096016948
 30
0.0
 11
809.14746436972462
 21
848.77233096016948
 31
0.0
  0
LINE
  5
1AA
100
AcDbEntity
  8
0
  6
Continuous
 62
               7
100
AcDbLine
 10
809.14746436972462
 20
642.38885447698499
 30
0.0
 11
809.14746436972462
 21
244.88885447698505
 31
0.0
  0
LINE
  5
1AB
100
AcDbEntity
  8
0
  6
Continuous
 62
               7
100
AcDbLine
 10
829.14746436972462
 20
642.38885447698499
 30
0.0
 11
829.14746436972462
 21
244.88885447698505
 31
0.0
  0
LINE
  5
1AC
100
AcDbEntity
  8
0
  6
Continuous
 62
               7
100
AcDbLine
 10
835.14746436972462
 20
642.38885447698499
 30
0.0
 11
835.14746436972462
 21
244.88885447698505
 31
0.0
  0
LINE
  5
1AD
100
AcDbEntity
  8
0
  6
DOT
 62
               7
100
AcDbLine
 10
809.14746436972484
 20
642.38885447698499
 30
0.0
 11
809.14746436972484
 21
767.38885447698499
 31
0.0
  0
LINE
  5
1AE
100
AcDbEntity
  8
0
  6
DOT
 62
               7
100
AcDbLine
 10
829.14746436972484
 20
642.38885447698499
 30
0.0
 11
829.14746436972484
 21
767.38885447698499
 31
0.0
  0
LINE
  5
1AF
100
AcDbEntity
  8
0
  6
DOT
 62
               7
100
AcDbLine
 10
835.14746436972484
 20
642.38885447698499
 30
0.0
 11
835.14746436972484
 21
767.38885447698499
 31
0.0
  0
LINE
  5
1B0
100
AcDbEntity
  8
0
  6
DASHED
 62
               6
100
AcDbLine
 10
836.64746436972462
 20
642.38885447698499
 30
0.0
 11
836.64746436972462
 21
244.88885447698505
 31
0.0
  0
LINE
  5
1B1
100
AcDbEntity
  8
0
  6
Continuous
 62
               6
100
AcDbLine
 10
837.10445127986452
 20
695.2529122745616
 30
0.0
 11
837.0377425481912
 21
695.18620354288805
 31
0.0
  0
LINE
  5
1B2
100
AcDbEntity
  8
0
  6
Continuous
 62
               6
100
AcDbLine
 10
836.58153374135702
 20
703.21527611029273
 30
0.0
 11
836.26067562774972
 21
702.89441799668543
 31
0.0
  0
LINE
  5
1B3
100
AcDbEntity
  8
0
  6
Continuous
 62
               6
100
AcDbLine
 10
836.14746436972484
 20
765.35800125321362
 30
0.0
 11
836.14746436972484
 21
756.88885447698499
 31
0.0
  0
LINE
  5
1B4
100
AcDbEntity
  8
0
  6
Continuous
 62
               6
100
AcDbLine
 10
829.14746436972484
 20
754.88885447698499
 30
0.0
 11
838.14746436972484
 21
754.88885447698499
 31
0.0
  0
LINE
  5
1B5
100
AcDbEntity
  8
0
  6
Continuous
 62
               6
100
AcDbLine
 10
836.58153374135702
 20
826.56243284367724
 30
0.0
 11
836.26067562774972
 21
826.88329095728477
 31
0.0
  0
LINE
  5
1B6
100
AcDbEntity
  8
0
  6
Continuous
 62
               6
100
AcDbLine
 10
836.14746436972484
 20
764.16807509056366
 30
0.0
 11
833.70926013566316
 21
766.60627932462535
 31
0.0
  0
LINE
  5
1B7
100
AcDbEntity
  8
0
  6
Continuous
 62
               6
100
AcDbLine
 10
836.14746436972484
 20
761.33964796581745
 30
0.0
 11
831.304803576278
 21
766.18230875926429
 31
0.0
  0
LINE
  5
1B8
100
AcDbEntity
  8
0
  6
Continuous
 62
               6
100
AcDbLine
 10
836.14746436972484
 20
758.51122084107124
 30
0.0
 11
829.14746436972484
 21
765.51122084107124
 31
0.0
  0
LINE
  5
1B9
100
AcDbEntity
  8
0
  6
Continuous
 62
               6
100
AcDbLine
 10
836.94140360906488
 20
754.88885447698499
 30
0.0
 11
829.14746436972484
 21
762.68279371632502
 31
0.0
  0
LINE
  5
1BA
100
AcDbEntity
  8
0
  6
Continuous
 62
               6
100
AcDbLine
 10
834.11297648431866
 20
754.88885447698499
 30
0.0
 11
829.14746436972484
 21
759.85436659157881
 31
0.0
  0
LINE
  5
1BB
100
AcDbEntity
  8
0
  6
Continuous
 62
               6
100
AcDbLine
 10
831.28454935957245
 20
754.88885447698499
 30
0.0
 11
829.14746436972484
 21
757.0259394668326
 31
0.0
  0
LINE
  5
1BC
100
AcDbEntity
  8
0
  6
Continuous
 62
               6
100
AcDbLine
 10
830.75019752977903
 20
766.08451674960247
 30
0.0
 11
829.14746436972484
 21
764.48178358954829
 31
0.0
  0
LINE
  5
1BD
100
AcDbEntity
  8
0
  6
Continuous
 62
               6
100
AcDbLine
 10
834.18411737236295
 20
766.69000946744018
 30
0.0
 11
829.14746436972484
 21
761.6533564648023
 31
0.0
  0
LINE
  5
1BE
100
AcDbEntity
  8
0
  6
Continuous
 62
               6
100
AcDbLine
 10
829.14746436972484
 20
758.82492934005609
 30
0.0
 11
836.23901337515497
 21
765.91647834548598
 31
0.0
  0
LINE
  5
1BF
100
AcDbEntity
  8
0
  6
Continuous
 62
               6
100
AcDbLine
 10
836.14746436972484
 20
762.99650221530987
 30
0.0
 11
829.14746436972484
 21
755.99650221530987
 31
0.0
  0
LINE
  5
1C0
100
AcDbEntity
  8
0
  6
Continuous
 62
               6
100
AcDbLine
 10
836.14746436972484
 20
760.16807509056366
 30
0.0
 11
830.86824375614617
 21
754.88885447698499
 31
0.0
  0
LINE
  5
1C1
100
AcDbEntity
  8
0
  6
Continuous
 62
               6
100
AcDbLine
 10
836.14746436972484
 20
757.33964796581745
 30
0.0
 11
833.69667088089238
 21
754.88885447698499
 31
0.0
  0
LINE
  5
1C2
100
AcDbEntity
  8
0
  6
Continuous
 62
               6
100
AcDbLine
 10
836.93472911613514
 20
755.29848558748154
 30
0.0
 11
836.5250980056386
 21
754.88885447698499
 31
0.0
  0
LINE
  5
1C3
100
AcDbEntity
  8
0
  6
Continuous
 62
               4
100
AcDbLine
 10
842.14746436972484
 20
642.38885447698499
 30
0.0
 11
896.64746436972484
 21
642.38885447698499
 31
0.0
  0
LINE
  5
1C4
100
AcDbEntity
  8
0
  6
Continuous
 62
               4
100
AcDbLine
 10
894.64746436972484
 20
642.38885447698499
 30
0.0
 11
894.64746436972484
 21
654.88885447698499
 31
0.0
  0
LINE
  5
1C5
100
AcDbEntity
  8
0
  6
Continuous
 62
               4
100
AcDbLine
 10
894.64746436972484
 20
654.88885447698499
 30
0.0
 11
894.64746436972484
 21
754.88885447698499
 31
0.0
  0
LINE
  5
1C6
100
AcDbEntity
  8
0
  6
Continuous
 62
               4
100
AcDbLine
 10
842.14746436972484
 20
767.38885447698499
 30
0.0
 11
896.64746436972484
 21
767.38885447698499
 31
0.0
  0
LINE
  5
1C7
100
AcDbEntity
  8
0
  6
Continuous
 62
               4
100
AcDbLine
 10
894.64746436972484
 20
754.88885447698499
 30
0.0
 11
894.64746436972484
 21
767.38885447698499
 31
0.0
  0
LINE
  5
1C8
100
AcDbEntity
  8
0
  6
Continuous
 62
               4
100
AcDbLine
 10
836.14746436972484
 20
761.1234278650993
 30
0.0
 11
863.59196886848792
 21
808.65870404550924
 31
0.0
  0
LINE
  5
1C9
100
AcDbEntity
  8
0
  6
Continuous
 62
               4
100
AcDbLine
 10
836.14746436972484
 20
761.1234278650993
 30
0.0
 11
837.70037864034009
 21
766.91898282283364
 31
0.0
  0
LINE
  5
1CA
100
AcDbEntity
  8
0
  6
Continuous
 62
               4
100
AcDbLine
 10
836.14746436972484
 20
761.1234278650993
 30
0.0
 11
840.39010505684416
 21
765.36606855221862
 31
0.0
  0
LINE
  5
1CB
100
AcDbEntity
  8
0
  6
Continuous
 62
               4
100
AcDbLine
 10
863.59196886848792
 20
808.65870404550924
 30
0.0
 11
955.92588982424252
 21
808.65870404550924
 31
0.0
  0
LINE
  5
1CC
100
AcDbEntity
  8
0
  6
DIVIDE
 62
               4
100
AcDbLine
 10
994.64746436972484
 20
614.88885447698499
 30
0.0
 11
1098.6474643697252
 21
614.88885447698499
 31
0.0
  0
LINE
  5
1CD
100
AcDbEntity
  8
0
  6
DIVIDE
 62
               4
100
AcDbLine
 10
994.64746436972484
 20
614.88885447698499
 30
0.0
 11
994.64746436972484
 21
554.88885447698499
 31
0.0
  0
LINE
  5
1CE
100
AcDbEntity
  8
0
  6
DIVIDE
 62
               4
100
AcDbLine
 10
1098.6474643697252
 20
614.88885447698499
 30
0.0
 11
1098.6474643697252
 21
554.88885447698499
 31
0.0
  0
LINE
  5
1CF
100
AcDbEntity
  8
0
  6
DIVIDE
 62
               4
100
AcDbLine
 10
1096.6474643697243
 20
244.88885447698505
 30
0.0
 11
1096.6474643697243
 21
612.88885447698499
 31
0.0
  0
LINE
  5
1D0
100
AcDbEntity
  8
0
  6
DIVIDE
 62
               4
100
AcDbLine
 10
996.64746436972462
 20
612.88885447698499
 30
0.0
 11
996.64746436972462
 21
244.88885447698505
 31
0.0
  0
LINE
  5
1D1
100
AcDbEntity
  8
0
  6
DIVIDE
 62
               4
100
AcDbLine
 10
994.64746436972484
 20
554.88885447698499
 30
0.0
 11
996.64746436972484
 21
552.88885447698499
 31
0.0
  0
LINE
  5
1D2
100
AcDbEntity
  8
0
  6
DIVIDE
 62
               4
100
AcDbLine
 10
1096.6474643697252
 20
552.88885447698499
 30
0.0
 11
1098.6474643697252
 21
554.88885447698499
 31
0.0
  0
LINE
  5
1D3
100
AcDbEntity
  8
0
  6
DIVIDE
 62
               4
100
AcDbLine
 10
1098.6474643697252
 20
554.88885447698499
 30
0.0
 11
994.64746436972484
 21
554.88885447698499
 31
0.0
  0
LINE
  5
1D4
100
AcDbEntity
  8
0
  6
DIVIDE
 62
               4
100
AcDbLine
 10
996.64746436972484
 20
552.88885447698499
 30
0.0
 11
1096.6474643697252
 21
552.88885447698499
 31
0.0
  0
LINE
  5
1D5
100
AcDbEntity
  8
0
  6
DASHDOT
 62
               4
100
AcDbLine
 10
1389.1474643697243
 20
704.88885447698499
 30
0.0
 11
1557.1474643697238
 21
704.88885447698499
 31
0.0
  0
LINE
  5
1D6
100
AcDbEntity
  8
0
  6
DASHDOT
 62
               4
100
AcDbLine
 10
1473.1474643697243
 20
790.88885447698499
 30
0.0
 11
1473.1474643697243
 21
620.88885447698499
 31
0.0
  0
LINE
  5
1D7
100
AcDbEntity
  8
0
  6
Continuous
 62
               2
100
AcDbLine
 10
1360.6474643697243
 20
474.88885447698505
 30
0.0
 11
1360.6474643697243
 21
834.88885447698499
 31
0.0
  0
LINE
  5
1D8
100
AcDbEntity
  8
0
  6
Continuous
 62
               2
100
AcDbLine
 10
1585.6474643697238
 20
474.88885447698505
 30
0.0
 11
1585.6474643697238
 21
834.88885447698499
 31
0.0
  0
LINE
  5
1D9
100
AcDbEntity
  8
0
  6
Continuous
 62
               6
100
AcDbLine
 10
1510.9474882954241
 20
655.11528527387759
 30
0.0
 11
1522.9210335728321
 21
667.08883055128535
 31
0.0
  0
LINE
  5
1DA
100
AcDbEntity
  8
0
  6
Continuous
 62
               6
100
AcDbLine
 10
1502.962610940061
 20
649.95883504326048
 30
0.0
 11
1528.077483803449
 21
675.07370790664868
 31
0.0
  0
LINE
  5
1DB
100
AcDbEntity
  8
0
  6
Continuous
 62
               6
100
AcDbLine
 10
1497.506527412892
 20
647.33117864083806
 30
0.0
 11
1530.705140205871
 21
680.52979143381708
 31
0.0
  0
LINE
  5
1DC
100
AcDbEntity
  8
0
  6
Continuous
 62
               6
100
AcDbLine
 10
1492.9587862905532
 20
645.61186464324533
 30
0.0
 11
1532.4244542034639
 21
685.07753255615626
 31
0.0
  0
LINE
  5
1DD
100
AcDbEntity
  8
0
  6
Continuous
 62
               6
100
AcDbLine
 10
1488.9338953432743
 20
644.41540082071242
 30
0.0
 11
1533.6209180259971
 21
689.10242350343515
 31
0.0
  0
LINE
  5
1DE
100
AcDbEntity
  8
0
  6
Continuous
 62
               6
100
AcDbLine
 10
1485.2648138632539
 20
643.57474646543778
 30
0.0
 11
1534.4615723812722
 21
692.771504983456
 31
0.0
  0
LINE
  5
1DF
100
AcDbEntity
  8
0
  6
Continuous
 62
               6
100
AcDbLine
 10
1510.399114242045
 20
671.53747396897597
 30
0.0
 11
1535.0370976820614
 21
696.17545740899163
 31
0.0
  0
LINE
  5
1E0
100
AcDbEntity
  8
0
  6
Continuous
 62
               6
100
AcDbLine
 10
1517.116967562009
 20
681.08375441368526
 30
0.0
 11
1535.4033364300753
 21
699.37012328175183
 31
0.0
  0
LINE
  5
1E1
100
AcDbEntity
  8
0
  6
Continuous
 62
               6
100
AcDbLine
 10
1519.602632090744
 20
686.39784606716648
 30
0.0
 11
1535.5976028486771
 21
702.3928168251
 31
0.0
  0
LINE
  5
1E2
100
AcDbEntity
  8
0
  6
Continuous
 62
               6
100
AcDbLine
 10
1521.098535728243
 20
690.72217682941232
 30
0.0
 11
1535.6463025273943
 21
705.26994362856294
 31
0.0
  0
LINE
  5
1E3
100
AcDbEntity
  8
0
  6
Continuous
 62
               6
100
AcDbLine
 10
1522.0585229423509
 20
694.51059116826627
 30
0.0
 11
1535.5689323195093
 21
708.02100054542416
 31
0.0
  0
LINE
  5
1E4
100
AcDbEntity
  8
0
  6
Continuous
 62
               6
100
AcDbLine
 10
1522.6626913057521
 20
697.94318665641299
 30
0.0
 11
1535.3803652009892
 21
710.66086055165056
 31
0.0
  0
LINE
  5
1E5
100
AcDbEntity
  8
0
  6
Continuous
 62
               6
100
AcDbLine
 10
1523.004739914044
 20
701.11366238945175
 30
0.0
 11
1535.0922421909122
 21
713.20116466631953
 31
0.0
  0
LINE
  5
1E6
100
AcDbEntity
  8
0
  6
Continuous
 62
               6
100
AcDbLine
 10
1523.1408930221082
 20
704.078242622262
 30
0.0
 11
1534.713864433224
 21
715.65121403337821
 31
0.0
  0
LINE
  5
1E7
100
AcDbEntity
  8
0
  6
Continuous
 62
               6
100
AcDbLine
 10
1523.1080477731971
 20
706.87382449809661
 30
0.0
 11
1534.2527888947602
 21
718.01856561965997
 31
0.0
  0
LINE
  5
1E8
100
AcDbEntity
  8
0
  6
Continuous
 62
               6
100
AcDbLine
 10
1522.9319540889624
 20
709.52615793860764
 30
0.0
 11
1533.715239859192
 21
720.30944370883753
 31
0.0
  0
LINE
  5
1E9
100
AcDbEntity
  8
0
  6
Continuous
 62
               6
100
AcDbLine
 10
1522.6314031801003
 20
712.05403415449268
 30
0.0
 11
1533.1064013610003
 21
722.52903233539246
 31
0.0
  0
LINE
  5
1EA
100
AcDbEntity
  8
0
  6
Continuous
 62
               6
100
AcDbLine
 10
1522.2205764231103
 20
714.47163452224822
 30
0.0
 11
1532.430630063604
 21
724.68168816274238
 31
0.0
  0
LINE
  5
1EB
100
AcDbEntity
  8
0
  6
Continuous
 62
               6
100
AcDbLine
 10
1521.7104558194023
 20
716.78994104328626
 30
0.0
 11
1531.691613433673
 21
726.77109865755756
 31
0.0
  0
LINE
  5
1EC
100
AcDbEntity
  8
0
  6
Continuous
 62
               6
100
AcDbLine
 10
1521.1097173483272
 20
719.01762969695801
 30
0.0
 11
1530.8924893469043
 21
728.80040169553467
 31
0.0
  0
LINE
  5
1ED
100
AcDbEntity
  8
0
  6
Continuous
 62
               6
100
AcDbLine
 10
1520.425321452009
 20
721.16166092538583
 30
0.0
 11
1530.0359378913113
 21
730.77227736468853
 31
0.0
  0
LINE
  5
1EE
100
AcDbEntity
  8
0
  6
Continuous
 62
               6
100
AcDbLine
 10
1519.6629171007362
 20
723.22768369885898
 30
0.0
 11
1529.1242527247391
 21
732.68901932286212
 31
0.0
  0
LINE
  5
1EF
100
AcDbEntity
  8
0
  6
Continuous
 62
               6
100
AcDbLine
 10
1518.8271262597973
 20
725.22031998266607
 30
0.0
 11
1528.159397119377
 21
734.55259084224622
 31
0.0
  0
LINE
  5
1F0
100
AcDbEntity
  8
0
  6
Continuous
 62
               6
100
AcDbLine
 10
1517.9217488617423
 20
727.14336970935756
 30
0.0
 11
1527.1430483400641
 21
736.36466918767974
 31
0.0
  0
LINE
  5
1F1
100
AcDbEntity
  8
0
  6
Continuous
 62
               6
100
AcDbLine
 10
1516.9499132765332
 20
728.99996124889481
 30
0.0
 11
1526.0766329882272
 21
738.1266809605886
 31
0.0
  0
LINE
  5
1F2
100
AcDbEntity
  8
0
  6
Continuous
 62
               6
100
AcDbLine
 10
1515.9141883560751
 20
730.79266345318274
 30
0.0
 11
1524.9613552360142
 21
739.83983033312188
 31
0.0
  0
LINE
  5
1F3
100
AcDbEntity
  8
0
  6
Continuous
 62
               6
100
AcDbLine
 10
1514.816667671872
 20
732.52356989372629
 30
0.0
 11
1523.7982193727194
 21
741.50512159457344
 31
0.0
  0
LINE
  5
1F4
100
AcDbEntity
  8
0
  6
Continuous
 62
               6
100
AcDbLine
 10
1513.6590331118523
 20
734.19436245845259
 30
0.0
 11
1522.5880477218743
 21
743.12337706847461
 31
0.0
  0
LINE
  5
1F5
100
AcDbEntity
  8
0
  6
Continuous
 62
               6
100
AcDbLine
 10
1512.4426027504092
 20
735.8063592217552
 30
0.0
 11
1521.331494718992
 21
744.69525119033847
 31
0.0
  0
LINE
  5
1F6
100
AcDbEntity
  8
0
  6
Continuous
 62
               6
100
AcDbLine
 10
1511.1683663923291
 20
737.36054998842201
 30
0.0
 11
1520.0290577376941
 21
746.22124133378702
 31
0.0
  0
LINE
  5
1F7
100
AcDbEntity
  8
0
  6
Continuous
 62
               6
100
AcDbLine
 10
1509.8370111415102
 20
738.85762186234888
 30
0.0
 11
1518.6810850957972
 21
747.70169581663617
 31
0.0
  0
LINE
  5
1F8
100
AcDbEntity
  8
0
  6
Continuous
 62
               6
100
AcDbLine
 10
1508.4489385899733
 20
740.29797643555821
 30
0.0
 11
1517.287781548795
 21
749.13681939438015
 31
0.0
  0
LINE
  5
1F9
100
AcDbEntity
  8
0
  6
Continuous
 62
               6
100
AcDbLine
 10
1507.0042746533541
 20
741.68173962368564
 30
0.0
 11
1515.8492114758074
 21
750.52667644613848
 31
0.0
  0
LINE
  5
1FA
100
AcDbEntity
  8
0
  6
Continuous
 62
               6
100
AcDbLine
 10
1505.502872622822
 20
743.00876471789957
 30
0.0
 11
1514.3652998746902
 21
751.87119196976687
 31
0.0
  0
LINE
  5
1FB
100
AcDbEntity
  8
0
  6
Continuous
 62
               6
100
AcDbLine
 10
1503.944309607713
 20
744.27862882753675
 30
0.0
 11
1512.8358312024193
 21
753.17015042224216
 31
0.0
  0
LINE
  5
1FC
100
AcDbEntity
  8
0
  6
Continuous
 62
               6
100
AcDbLine
 10
1502.3278761656193
 20
745.49062251018836
 30
0.0
 11
1511.2604460186562
 21
754.42319236322555
 31
0.0
  0
LINE
  5
1FD
100
AcDbEntity
  8
0
  6
Continuous
 62
               6
100
AcDbLine
 10
1500.6525585179411
 20
746.64373198725661
 30
0.0
 11
1509.6386353094063
 21
755.62980877872201
 31
0.0
  0
LINE
  5
1FE
100
AcDbEntity
  8
0
  6
Continuous
 62
               6
100
AcDbLine
 10
1498.9170122861633
 20
747.73661288022481
 30
0.0
 11
1507.9697322784982
 21
756.78933287256041
 31
0.0
  0
LINE
  5
1FF
100
AcDbEntity
  8
0
  6
Continuous
 62
               6
100
AcDbLine
 10
1497.1195261034622
 20
748.76755382226997
 30
0.0
 11
1506.2529012908713
 21
757.90092900967966
 31
0.0
  0
LINE
  5
200
100
AcDbEntity
  8
0
  6
Continuous
 62
               6
100
AcDbLine
 10
1495.2579726828831
 20
749.73442752643723
 30
0.0
 11
1504.4871235254782
 21
758.96357836903258
 31
0.0
  0
LINE
  5
201
100
AcDbEntity
  8
0
  6
Continuous
 62
               6
100
AcDbLine
 10
1493.3297438452082
 20
750.63462581350836
 30
0.0
 11
1502.6711787365193
 21
759.97606070481947
 31
0.0
  0
LINE
  5
202
100
AcDbEntity
  8
0
  6
Continuous
 62
               6
100
AcDbLine
 10
1491.3316644514252
 20
751.4649735444716
 30
0.0
 11
1500.803622315213
 21
760.93693140826053
 31
0.0
  0
LINE
  5
203
100
AcDbEntity
  8
0
  6
Continuous
 62
               6
100
AcDbLine
 10
1489.259877860713
 20
752.22161407850626
 30
0.0
 11
1498.882756569848
 21
761.844492787641
 31
0.0
  0
LINE
  5
204
100
AcDbEntity
  8
0
  6
Continuous
 62
               6
100
AcDbLine
 10
1487.1096919635979
 20
752.8998553061374
 30
0.0
 11
1496.9065947692961
 21
762.69675811183538
 31
0.0
  0
LINE
  5
205
100
AcDbEntity
  8
0
  6
Continuous
 62
               6
100
AcDbLine
 10
1484.875369181203
 20
753.49395964848827
 30
0.0
 11
1494.8728159798643
 21
763.4914064471493
 31
0.0
  0
LINE
  5
206
100
AcDbEntity
  8
0
  6
Continuous
 62
               6
100
AcDbLine
 10
1482.549834552759
 20
753.99685214479041
 30
0.0
 11
1492.7787079987661
 21
764.22572559079777
 31
0.0
  0
LINE
  5
207
100
AcDbEntity
  8
0
  6
Continuous
 62
               6
100
AcDbLine
 10
1480.124260276752
 20
754.39970499353012
 30
0.0
 11
1490.6210946435181
 21
764.89653936029617
 31
0.0
  0
LINE
  5
208
100
AcDbEntity
  8
0
  6
Continuous
 62
               6
100
AcDbLine
 10
1477.5874571162612
 20
754.69132895778466
 30
0.0
 11
1488.3962421254091
 21
765.50011396693253
 31
0.0
  0
LINE
  5
209
100
AcDbEntity
  8
0
  6
Continuous
 62
               6
100
AcDbLine
 10
1474.9249509372471
 20
754.85724990351719
 30
0.0
 11
1486.0997369398033
 21
766.03203590607313
 31
0.0
  0
LINE
  5
20A
100
AcDbEntity
  8
0
  6
Continuous
 62
               6
100
AcDbLine
 10
1472.1175193939303
 20
754.87824548494632
 30
0.0
 11
1483.7263241802402
 21
766.48705027125698
 31
0.0
  0
LINE
  5
20B
100
AcDbEntity
  8
0
  6
Continuous
 62
               6
100
AcDbLine
 10
1469.138743780491
 20
754.72789699625355
 30
0.0
 11
1481.2696896185503
 21
766.85884283431278
 31
0.0
  0
LINE
  5
20C
100
AcDbEntity
  8
0
  6
Continuous
 62
               6
100
AcDbLine
 10
1465.9506172096703
 20
754.36819755017882
 30
0.0
 11
1478.7221598366132
 21
767.13974017712144
 31
0.0
  0
LINE
  5
20D
100
AcDbEntity
  8
0
  6
Continuous
 62
               6
100
AcDbLine
 10
1462.4948972667194
 20
753.74090473197407
 30
0.0
 11
1476.0742794285152
 21
767.32028689377034
 31
0.0
  0
LINE
  5
20E
100
AcDbEntity
  8
0
  6
Continuous
 62
               6
100
AcDbLine
 10
1458.673691793349
 20
752.7481263833497
 30
0.0
 11
1473.3141974871291
 21
767.38863207712984
 31
0.0
  0
LINE
  5
20F
100
AcDbEntity
  8
0
  6
Continuous
 62
               6
100
AcDbLine
 10
1454.2961005285542
 20
751.19896224330091
 30
0.0
 11
1470.4267462231542
 21
767.3296079379013
 31
0.0
  0
LINE
  5
210
100
AcDbEntity
  8
0
  6
Continuous
 62
               6
100
AcDbLine
 10
1448.8655689824132
 20
748.59685782190627
 30
0.0
 11
1467.3919983132432
 21
767.12328715273702
 31
0.0
  0
LINE
  5
211
100
AcDbEntity
  8
0
  6
Continuous
 62
               6
100
AcDbLine
 10
1411.2937144581933
 20
713.85343042243244
 30
0.0
 11
1464.1828884242773
 21
766.74260438851661
 31
0.0
  0
LINE
  5
212
100
AcDbEntity
  8
0
  6
Continuous
 62
               6
100
AcDbLine
 10
1411.8871497766331
 20
717.27529286561844
 30
0.0
 11
1460.7610259810913
 21
766.14916907007682
 31
0.0
  0
LINE
  5
213
100
AcDbEntity
  8
0
  6
Continuous
 62
               6
100
AcDbLine
 10
1412.751090348936
 20
720.96766056266779
 30
0.0
 11
1457.0686582840422
 21
765.28522849777391
 31
0.0
  0
LINE
  5
214
100
AcDbEntity
  8
0
  6
Continuous
 62
               6
100
AcDbLine
 10
1413.9800395744251
 20
725.02503691290326
 30
0.0
 11
1453.011281933806
 21
764.05627927228443
 31
0.0
  0
LINE
  5
215
100
AcDbEntity
  8
0
  6
Continuous
 62
               6
100
AcDbLine
 10
1415.750273530989
 20
729.62369799421344
 30
0.0
 11
1448.4126208524963
 21
762.28604531572046
 31
0.0
  0
LINE
  5
216
100
AcDbEntity
  8
0
  6
Continuous
 62
               6
100
AcDbLine
 10
1418.4789197079863
 20
735.18077129595645
 30
0.0
 11
1442.8555475507533
 21
759.55739913872367
 31
0.0
  0
LINE
  5
217
100
AcDbEntity
  8
0
  6
Continuous
 62
               6
100
AcDbLine
 10
1424.1146585232073
 20
743.64493723592341
 30
0.0
 11
1434.3913816107861
 21
753.92166032350292
 31
0.0
  0
LINE
  5
218
100
AcDbEntity
  8
0
  6
Continuous
 62
               6
100
AcDbLine
 10
1481.8608614377181
 20
642.99922116464836
 30
0.0
 11
1506.498844877734
 21
667.63720460466402
 31
0.0
  0
LINE
  5
219
100
AcDbEntity
  8
0
  6
Continuous
 62
               6
100
AcDbLine
 10
1478.6661955649583
 20
642.63298241663438
 30
0.0
 11
1496.9525644330242
 21
660.91935128470095
 31
0.0
  0
LINE
  5
21A
100
AcDbEntity
  8
0
  6
Continuous
 62
               6
100
AcDbLine
 10
1475.643502021609
 20
642.43871599803219
 30
0.0
 11
1491.638472779543
 21
658.43368675596594
 31
0.0
  0
LINE
  5
21B
100
AcDbEntity
  8
0
  6
Continuous
 62
               6
100
AcDbLine
 10
1472.766375218147
 20
642.39001631931569
 30
0.0
 11
1487.3141420172969
 21
656.93778311846631
 31
0.0
  0
LINE
  5
21C
100
AcDbEntity
  8
0
  6
Continuous
 62
               6
100
AcDbLine
 10
1470.0153183012862
 20
642.46738652720069
 30
0.0
 11
1483.5257276784432
 21
655.97779590435857
 31
0.0
  0
LINE
  5
21D
100
AcDbEntity
  8
0
  6
Continuous
 62
               6
100
AcDbLine
 10
1467.3754582950592
 20
642.65595364572027
 30
0.0
 11
1480.0931321902963
 21
655.37362754095784
 31
0.0
  0
LINE
  5
21E
100
AcDbEntity
  8
0
  6
Continuous
 62
               6
100
AcDbLine
 10
1464.83515418039
 20
642.94407665579752
 30
0.0
 11
1476.9226564572582
 21
655.0315789326653
 31
0.0
  0
LINE
  5
21F
100
AcDbEntity
  8
0
  6
Continuous
 62
               6
100
AcDbLine
 10
1462.3851048133311
 20
643.32245441348527
 30
0.0
 11
1473.9580762244473
 21
654.89542582460126
 31
0.0
  0
LINE
  5
220
100
AcDbEntity
  8
0
  6
Continuous
 62
               6
100
AcDbLine
 10
1460.01775322705
 20
643.7835299519495
 30
0.0
 11
1471.1624943486131
 21
654.92827107351286
 31
0.0
  0
LINE
  5
221
100
AcDbEntity
  8
0
  6
Continuous
 62
               6
100
AcDbLine
 10
1457.726875137872
 20
644.32107898751815
 30
0.0
 11
1468.5101609081021
 21
655.10436475774804
 31
0.0
  0
LINE
  5
222
100
AcDbEntity
  8
0
  6
Continuous
 62
               6
100
AcDbLine
 10
1455.507286511317
 20
644.92991748570944
 30
0.0
 11
1465.982284692217
 21
655.40491566660899
 31
0.0
  0
LINE
  5
223
100
AcDbEntity
  8
0
  6
Continuous
 62
               6
100
AcDbLine
 10
1453.3546306839671
 20
645.60568878310573
 30
0.0
 11
1463.5646843244613
 21
655.81574242359989
 31
0.0
  0
LINE
  5
224
100
AcDbEntity
  8
0
  6
Continuous
 62
               6
100
AcDbLine
 10
1451.2652201891519
 20
646.34470541303676
 30
0.0
 11
1461.246377803423
 21
656.32586302730806
 31
0.0
  0
LINE
  5
225
100
AcDbEntity
  8
0
  6
Continuous
 62
               6
100
AcDbLine
 10
1449.2359171511753
 20
647.14382949980563
 30
0.0
 11
1459.0186891497519
 21
656.9266014983823
 31
0.0
  0
LINE
  5
226
100
AcDbEntity
  8
0
  6
Continuous
 62
               6
100
AcDbLine
 10
1447.2640414820212
 20
648.00038095539799
 30
0.0
 11
1456.8746579213243
 21
657.61099739470092
 31
0.0
  0
LINE
  5
227
100
AcDbEntity
  8
0
  6
Continuous
 62
               6
100
AcDbLine
 10
1445.3472995238481
 20
648.91206612197084
 30
0.0
 11
1454.8086351478501
 21
658.37340174597375
 31
0.0
  0
LINE
  5
228
100
AcDbEntity
  8
0
  6
Continuous
 62
               6
100
AcDbLine
 10
1443.483728004463
 20
649.87692172733273
 30
0.0
 11
1452.8159988640441
 21
659.20919258691288
 31
0.0
  0
LINE
  5
229
100
AcDbEntity
  8
0
  6
Continuous
 62
               6
100
AcDbLine
 10
1441.6716496590302
 20
650.89327050664519
 30
0.0
 11
1450.8929491373519
 21
660.1145699849676
 31
0.0
  0
LINE
  5
22A
100
AcDbEntity
  8
0
  6
Continuous
 62
               6
100
AcDbLine
 10
1439.9096378861213
 20
651.95968585848254
 30
0.0
 11
1449.0363575978149
 21
661.08640557017657
 31
0.0
  0
LINE
  5
22B
100
AcDbEntity
  8
0
  6
Continuous
 62
               6
100
AcDbLine
 10
1438.1964885135881
 20
653.0749636106957
 30
0.0
 11
1447.2436553935272
 21
662.12213049063485
 31
0.0
  0
LINE
  5
22C
100
AcDbEntity
  8
0
  6
Continuous
 62
               6
100
AcDbLine
 10
1436.5311972521363
 20
654.23809947399013
 30
0.0
 11
1445.5127489529832
 21
663.21965117483728
 31
0.0
  0
LINE
  5
22D
100
AcDbEntity
  8
0
  6
Continuous
 62
               6
100
AcDbLine
 10
1434.9129417782351
 20
655.44827112483517
 30
0.0
 11
1443.8419563882571
 21
664.3772857348572
 31
0.0
  0
LINE
  5
22E
100
AcDbEntity
  8
0
  6
Continuous
 62
               6
100
AcDbLine
 10
1433.3410676563713
 20
656.70482412771753
 30
0.0
 11
1442.2299596249541
 21
665.5937160963008
 31
0.0
  0
LINE
  5
22F
100
AcDbEntity
  8
0
  6
Continuous
 62
               6
100
AcDbLine
 10
1431.8150775129229
 20
658.00726110901519
 30
0.0
 11
1440.675768858287
 21
666.8679524543802
 31
0.0
  0
LINE
  5
230
100
AcDbEntity
  8
0
  6
Continuous
 62
               6
100
AcDbLine
 10
1430.3346230300731
 20
659.35523375091225
 30
0.0
 11
1439.1786969843611
 21
668.19930770519954
 31
0.0
  0
LINE
  5
231
100
AcDbEntity
  8
0
  6
Continuous
 62
               6
100
AcDbLine
 10
1428.8994994523291
 20
660.74853729791425
 30
0.0
 11
1437.7383424111513
 21
669.58738025673642
 31
0.0
  0
LINE
  5
232
100
AcDbEntity
  8
0
  6
Continuous
 62
               6
100
AcDbLine
 10
1427.509642400571
 20
662.18710737090237
 30
0.0
 11
1436.3545792230243
 21
671.0320441933552
 31
0.0
  0
LINE
  5
233
100
AcDbEntity
  8
0
  6
Continuous
 62
               6
100
AcDbLine
 10
1426.1651268769433
 20
663.67101897202019
 30
0.0
 11
1435.0275541288102
 21
672.53344622388749
 31
0.0
  0
LINE
  5
234
100
AcDbEntity
  8
0
  6
Continuous
 62
               6
100
AcDbLine
 10
1424.8661684244671
 20
665.20048764429089
 30
0.0
 11
1433.757690019173
 21
674.09200923899652
 31
0.0
  0
LINE
  5
235
100
AcDbEntity
  8
0
  6
Continuous
 62
               6
100
AcDbLine
 10
1423.6131264834839
 20
666.77587282805393
 30
0.0
 11
1432.5456963365214
 21
675.70844268109113
 31
0.0
  0
LINE
  5
236
100
AcDbEntity
  8
0
  6
Continuous
 62
               6
100
AcDbLine
 10
1422.4065100679882
 20
668.39768353730369
 30
0.0
 11
1431.3925868594533
 21
677.38376032876909
 31
0.0
  0
LINE
  5
237
100
AcDbEntity
  8
0
  6
Continuous
 62
               6
100
AcDbLine
 10
1421.2469859741491
 20
670.06658656821128
 30
0.0
 11
1430.2997059664854
 21
679.11930656054687
 31
0.0
  0
LINE
  5
238
100
AcDbEntity
  8
0
  6
Continuous
 62
               6
100
AcDbLine
 10
1420.1353898370303
 20
671.78341755583824
 30
0.0
 11
1429.2687650244402
 21
680.91679274324792
 31
0.0
  0
LINE
  5
239
100
AcDbEntity
  8
0
  6
Continuous
 62
               6
100
AcDbLine
 10
1419.0727404776771
 20
673.54919532123131
 30
0.0
 11
1428.3018913202723
 21
682.77834616382688
 31
0.0
  0
LINE
  5
23A
100
AcDbEntity
  8
0
  6
Continuous
 62
               6
100
AcDbLine
 10
1418.0602581418902
 20
675.36514011019085
 30
0.0
 11
1427.4016930332014
 21
684.70657500150173
 31
0.0
  0
LINE
  5
23B
100
AcDbEntity
  8
0
  6
Continuous
 62
               6
100
AcDbLine
 10
1417.099387438449
 20
677.232696531496
 30
0.0
 11
1426.5713453022381
 21
686.70465439528471
 31
0.0
  0
LINE
  5
23C
100
AcDbEntity
  8
0
  6
Continuous
 62
               6
100
AcDbLine
 10
1416.1918260590683
 20
679.15356227686152
 30
0.0
 11
1425.8147047682032
 21
688.77644098599626
 31
0.0
  0
LINE
  5
23D
100
AcDbEntity
  8
0
  6
Continuous
 62
               6
100
AcDbLine
 10
1415.3395607348743
 20
681.12972407741336
 30
0.0
 11
1425.1364635405721
 21
690.92662688311134
 31
0.0
  0
LINE
  5
23E
100
AcDbEntity
  8
0
  6
Continuous
 62
               6
100
AcDbLine
 10
1414.54491239956
 20
683.16350286684565
 30
0.0
 11
1424.5423591982212
 21
693.16094966550668
 31
0.0
  0
LINE
  5
23F
100
AcDbEntity
  8
0
  6
Continuous
 62
               6
100
AcDbLine
 10
1413.810593255912
 20
685.2576108479434
 30
0.0
 11
1424.0394667019191
 21
695.48648429395075
 31
0.0
  0
LINE
  5
240
100
AcDbEntity
  8
0
  6
Continuous
 62
               6
100
AcDbLine
 10
1413.1397794864142
 20
687.4152242031912
 30
0.0
 11
1423.6366138531789
 21
697.91205856995725
 31
0.0
  0
LINE
  5
241
100
AcDbEntity
  8
0
  6
Continuous
 62
               6
100
AcDbLine
 10
1412.536204879777
 20
689.64007672130106
 30
0.0
 11
1423.3449898889253
 21
700.44886173044893
 31
0.0
  0
LINE
  5
242
100
AcDbEntity
  8
0
  6
Continuous
 62
               6
100
AcDbLine
 10
1412.0042829406361
 20
691.93658190690644
 30
0.0
 11
1423.1790689431932
 21
703.11136790946261
 31
0.0
  0
LINE
  5
243
100
AcDbEntity
  8
0
  6
Continuous
 62
               6
100
AcDbLine
 10
1411.549268575453
 20
694.30999466646904
 30
0.0
 11
1423.1580733617629
 21
705.91879945277969
 31
0.0
  0
LINE
  5
244
100
AcDbEntity
  8
0
  6
Continuous
 62
               6
100
AcDbLine
 10
1411.1774760123972
 20
696.76662922815922
 30
0.0
 11
1423.3084218504559
 21
708.89757506621868
 31
0.0
  0
LINE
  5
245
100
AcDbEntity
  8
0
  6
Continuous
 62
               6
100
AcDbLine
 10
1410.8965786695881
 20
699.31415901009677
 30
0.0
 11
1423.6681212965314
 21
712.08570163703939
 31
0.0
  0
LINE
  5
246
100
AcDbEntity
  8
0
  6
Continuous
 62
               6
100
AcDbLine
 10
1410.7160319529389
 20
701.96203941819408
 30
0.0
 11
1424.2954141147361
 21
715.54142157999058
 31
0.0
  0
LINE
  5
247
100
AcDbEntity
  8
0
  6
Continuous
 62
               6
100
AcDbLine
 10
1410.6476867695801
 20
704.7221213595808
 30
0.0
 11
1425.2881924633602
 21
719.36262705336094
 31
0.0
  0
LINE
  5
248
100
AcDbEntity
  8
0
  6
Continuous
 62
               6
100
AcDbLine
 10
1410.706710908808
 20
707.60957262355555
 30
0.0
 11
1426.8373566034093
 21
723.74021831815594
 31
0.0
  0
LINE
  5
249
100
AcDbEntity
  8
0
  6
Continuous
 62
               6
100
AcDbLine
 10
1410.9130316939732
 20
710.64432053346604
 30
0.0
 11
1429.4394610248032
 21
729.17074986429657
 31
0.0
  0
LINE
  5
24A
100
AcDbEntity
  8
0
  6
Continuous
 62
               6
100
AcDbLine
 10
1423.3738951666173
 20
667.08883055128535
 30
0.0
 11
1435.3474404440253
 21
655.11528527387759
 31
0.0
  0
LINE
  5
24B
100
AcDbEntity
  8
0
  6
Continuous
 62
               6
100
AcDbLine
 10
1418.217444936
 20
675.07370790664868
 30
0.0
 11
1443.332317799388
 21
649.95883504326048
 31
0.0
  0
LINE
  5
24C
100
AcDbEntity
  8
0
  6
Continuous
 62
               6
100
AcDbLine
 10
1415.589788533578
 20
680.52979143381708
 30
0.0
 11
1448.7884013265571
 21
647.33117864083806
 31
0.0
  0
LINE
  5
24D
100
AcDbEntity
  8
0
  6
Continuous
 62
               6
100
AcDbLine
 10
1413.8704758093763
 20
685.07752874607377
 30
0.0
 11
1453.3361416763582
 21
645.61186490143973
 31
0.0
  0
LINE
  5
24E
100
AcDbEntity
  8
0
  6
Continuous
 62
               6
100
AcDbLine
 10
1412.6740107134519
 20
689.10242350343515
 30
0.0
 11
1457.3610333961751
 21
644.41540082071242
 31
0.0
  0
LINE
  5
24F
100
AcDbEntity
  8
0
  6
Continuous
 62
               6
100
AcDbLine
 10
1411.8333563581782
 20
692.771504983456
 30
0.0
 11
1461.0301148761951
 21
643.57474646543778
 31
0.0
  0
LINE
  5
250
100
AcDbEntity
  8
0
  6
Continuous
 62
               6
100
AcDbLine
 10
1411.2578310573881
 20
696.17545740899163
 30
0.0
 11
1435.895814497404
 21
671.53747396897597
 31
0.0
  0
LINE
  5
251
100
AcDbEntity
  8
0
  6
Continuous
 62
               6
100
AcDbLine
 10
1410.8915923093741
 20
699.37012328175183
 30
0.0
 11
1429.17796117744
 21
681.08375441368526
 31
0.0
  0
LINE
  5
252
100
AcDbEntity
  8
0
  6
Continuous
 62
               6
100
AcDbLine
 10
1410.6973258907719
 20
702.3928168251
 30
0.0
 11
1426.692296648705
 21
686.39784606716648
 31
0.0
  0
LINE
  5
253
100
AcDbEntity
  8
0
  6
Continuous
 62
               6
100
AcDbLine
 10
1410.6486262120552
 20
705.26994362856294
 30
0.0
 11
1425.1963930112061
 21
690.72217682941232
 31
0.0
  0
LINE
  5
254
100
AcDbEntity
  8
0
  6
Continuous
 62
               6
100
AcDbLine
 10
1410.7259964199402
 20
708.02100054542416
 30
0.0
 11
1424.2364057970981
 21
694.51059116826627
 31
0.0
  0
LINE
  5
255
100
AcDbEntity
  8
0
  6
Continuous
 62
               6
100
AcDbLine
 10
1410.9145635384602
 20
710.66086055165056
 30
0.0
 11
1423.6322374336974
 21
697.94318665641299
 31
0.0
  0
LINE
  5
256
100
AcDbEntity
  8
0
  6
Continuous
 62
               6
100
AcDbLine
 10
1411.2026865485373
 20
713.20116466631953
 30
0.0
 11
1423.290188825405
 21
701.11366238945175
 31
0.0
  0
LINE
  5
257
100
AcDbEntity
  8
0
  6
Continuous
 62
               6
100
AcDbLine
 10
1411.581064306225
 20
715.65121403337821
 30
0.0
 11
1423.1540357173412
 21
704.078242622262
 31
0.0
  0
LINE
  5
258
100
AcDbEntity
  8
0
  6
Continuous
 62
               6
100
AcDbLine
 10
1412.0421398446892
 20
718.01856561965997
 30
0.0
 11
1423.1868809662533
 21
706.87382449809661
 31
0.0
  0
LINE
  5
259
100
AcDbEntity
  8
0
  6
Continuous
 62
               6
100
AcDbLine
 10
1412.5796888802583
 20
720.30944370883753
 30
0.0
 11
1423.362974650488
 21
709.52615793860764
 31
0.0
  0
LINE
  5
25A
100
AcDbEntity
  8
0
  6
Continuous
 62
               6
100
AcDbLine
 10
1413.1885273784492
 20
722.52903233539246
 30
0.0
 11
1423.6635255593483
 21
712.05403415449268
 31
0.0
  0
LINE
  5
25B
100
AcDbEntity
  8
0
  6
Continuous
 62
               6
100
AcDbLine
 10
1413.864298675845
 20
724.68168816274238
 30
0.0
 11
1424.0743523163392
 21
714.47163452224822
 31
0.0
  0
LINE
  5
25C
100
AcDbEntity
  8
0
  6
Continuous
 62
               6
100
AcDbLine
 10
1414.6033153057761
 20
726.77109865755756
 30
0.0
 11
1424.584472920048
 21
716.78994104328626
 31
0.0
  0
LINE
  5
25D
100
AcDbEntity
  8
0
  6
Continuous
 62
               6
100
AcDbLine
 10
1415.4024393925451
 20
728.80040169553467
 30
0.0
 11
1425.1852113911223
 21
719.01762969695801
 31
0.0
  0
LINE
  5
25E
100
AcDbEntity
  8
0
  6
Continuous
 62
               6
100
AcDbLine
 10
1416.2589908481373
 20
730.77227736468853
 30
0.0
 11
1425.86960728744
 21
721.16166092538583
 31
0.0
  0
LINE
  5
25F
100
AcDbEntity
  8
0
  6
Continuous
 62
               6
100
AcDbLine
 10
1417.1706760147104
 20
732.68901932286212
 30
0.0
 11
1426.6320116387133
 21
723.22768369885898
 31
0.0
  0
LINE
  5
260
100
AcDbEntity
  8
0
  6
Continuous
 62
               6
100
AcDbLine
 10
1418.135531620072
 20
734.55259084224622
 30
0.0
 11
1427.4678024796522
 21
725.22031998266607
 31
0.0
  0
LINE
  5
261
100
AcDbEntity
  8
0
  6
Continuous
 62
               6
100
AcDbLine
 10
1419.1518803993849
 20
736.36466918767974
 30
0.0
 11
1428.3731798777071
 21
727.14336970935756
 31
0.0
  0
LINE
  5
262
100
AcDbEntity
  8
0
  6
Continuous
 62
               6
100
AcDbLine
 10
1420.2182957512223
 20
738.1266809605886
 30
0.0
 11
1429.3450154629163
 21
728.99996124889481
 31
0.0
  0
LINE
  5
263
100
AcDbEntity
  8
0
  6
Continuous
 62
               6
100
AcDbLine
 10
1421.3335735034352
 20
739.83983033312188
 30
0.0
 11
1430.3807403833744
 21
730.79266345318274
 31
0.0
  0
LINE
  5
264
100
AcDbEntity
  8
0
  6
Continuous
 62
               6
100
AcDbLine
 10
1422.4967093667301
 20
741.50512159457344
 30
0.0
 11
1431.478261067577
 21
732.52356989372629
 31
0.0
  0
LINE
  5
265
100
AcDbEntity
  8
0
  6
Continuous
 62
               6
100
AcDbLine
 10
1423.7068810175751
 20
743.12337706847461
 30
0.0
 11
1432.6358956275972
 21
734.19436245845259
 31
0.0
  0
LINE
  5
266
100
AcDbEntity
  8
0
  6
Continuous
 62
               6
100
AcDbLine
 10
1424.963434020457
 20
744.69525119033847
 30
0.0
 11
1433.8523259890412
 21
735.8063592217552
 31
0.0
  0
LINE
  5
267
100
AcDbEntity
  8
0
  6
Continuous
 62
               6
100
AcDbLine
 10
1426.2658710017549
 20
746.22124133378702
 30
0.0
 11
1435.1265623471199
 21
737.36054998842201
 31
0.0
  0
LINE
  5
268
100
AcDbEntity
  8
0
  6
Continuous
 62
               6
100
AcDbLine
 10
1427.6138436436522
 20
747.70169581663617
 30
0.0
 11
1436.4579175979393
 21
738.85762186234888
 31
0.0
  0
LINE
  5
269
100
AcDbEntity
  8
0
  6
Continuous
 62
               6
100
AcDbLine
 10
1429.007147190654
 20
749.13681939438015
 30
0.0
 11
1437.8459901494762
 21
740.29797643555821
 31
0.0
  0
LINE
  5
26A
100
AcDbEntity
  8
0
  6
Continuous
 62
               6
100
AcDbLine
 10
1430.4457172636421
 20
750.52667644613848
 30
0.0
 11
1439.2906540860949
 21
741.68173962368564
 31
0.0
  0
LINE
  5
26B
100
AcDbEntity
  8
0
  6
Continuous
 62
               6
100
AcDbLine
 10
1431.9296288647602
 20
751.87119196976687
 30
0.0
 11
1440.792056116627
 21
743.00876471789957
 31
0.0
  0
LINE
  5
26C
100
AcDbEntity
  8
0
  6
Continuous
 62
               6
100
AcDbLine
 10
1433.4590975370302
 20
753.17015042224216
 30
0.0
 11
1442.350619131736
 21
744.27862882753675
 31
0.0
  0
LINE
  5
26D
100
AcDbEntity
  8
0
  6
Continuous
 62
               6
100
AcDbLine
 10
1435.0344827207932
 20
754.42319236322555
 30
0.0
 11
1443.9670525738311
 21
745.49062251018836
 31
0.0
  0
LINE
  5
26E
100
AcDbEntity
  8
0
  6
Continuous
 62
               6
100
AcDbLine
 10
1436.6562934300432
 20
755.62980877872201
 30
0.0
 11
1445.6423702215093
 21
746.64373198725661
 31
0.0
  0
LINE
  5
26F
100
AcDbEntity
  8
0
  6
Continuous
 62
               6
100
AcDbLine
 10
1438.3251964609512
 20
756.78933287256041
 30
0.0
 11
1447.3779164532862
 21
747.73661288022481
 31
0.0
  0
LINE
  5
270
100
AcDbEntity
  8
0
  6
Continuous
 62
               6
100
AcDbLine
 10
1440.0420274485782
 20
757.90092900967966
 30
0.0
 11
1449.1754026359872
 21
748.76755382226997
 31
0.0
  0
LINE
  5
271
100
AcDbEntity
  8
0
  6
Continuous
 62
               6
100
AcDbLine
 10
1441.8078052139713
 20
758.96357836903258
 30
0.0
 11
1451.0369560565659
 21
749.73442752643723
 31
0.0
  0
LINE
  5
272
100
AcDbEntity
  8
0
  6
Continuous
 62
               6
100
AcDbLine
 10
1443.6237500029301
 20
759.97606070481947
 30
0.0
 11
1452.9651848942412
 21
750.63462581350836
 31
0.0
  0
LINE
  5
273
100
AcDbEntity
  8
0
  6
Continuous
 62
               6
100
AcDbLine
 10
1445.4913064242351
 20
760.93693140826053
 30
0.0
 11
1454.9632642880242
 21
751.4649735444716
 31
0.0
  0
LINE
  5
274
100
AcDbEntity
  8
0
  6
Continuous
 62
               6
100
AcDbLine
 10
1447.412172169601
 20
761.844492787641
 30
0.0
 11
1457.035050878736
 21
752.22161407850626
 31
0.0
  0
LINE
  5
275
100
AcDbEntity
  8
0
  6
Continuous
 62
               6
100
AcDbLine
 10
1449.3883339701533
 20
762.69675811183538
 30
0.0
 11
1459.1852367758511
 21
752.8998553061374
 31
0.0
  0
LINE
  5
276
100
AcDbEntity
  8
0
  6
Continuous
 62
               6
100
AcDbLine
 10
1451.4221127595852
 20
763.4914064471493
 30
0.0
 11
1461.419559558246
 21
753.49395964848827
 31
0.0
  0
LINE
  5
277
100
AcDbEntity
  8
0
  6
Continuous
 62
               6
100
AcDbLine
 10
1453.5162207406829
 20
764.22572559079777
 30
0.0
 11
1463.74509418669
 21
753.99685214479041
 31
0.0
  0
LINE
  5
278
100
AcDbEntity
  8
0
  6
Continuous
 62
               6
100
AcDbLine
 10
1455.6738340959309
 20
764.89653936029617
 30
0.0
 11
1466.170668462697
 21
754.39970499353012
 31
0.0
  0
LINE
  5
279
100
AcDbEntity
  8
0
  6
Continuous
 62
               6
100
AcDbLine
 10
1457.8986866140413
 20
765.50011396693253
 30
0.0
 11
1468.7074716231882
 21
754.69132895778466
 31
0.0
  0
LINE
  5
27A
100
AcDbEntity
  8
0
  6
Continuous
 62
               6
100
AcDbLine
 10
1460.1951917996462
 20
766.03203590607313
 30
0.0
 11
1471.3699778022024
 21
754.85724990351719
 31
0.0
  0
LINE
  5
27B
100
AcDbEntity
  8
0
  6
Continuous
 62
               6
100
AcDbLine
 10
1462.5686045592092
 20
766.48705027125698
 30
0.0
 11
1474.1774093455192
 21
754.87824548494632
 31
0.0
  0
LINE
  5
27C
100
AcDbEntity
  8
0
  6
Continuous
 62
               6
100
AcDbLine
 10
1465.0252391208992
 20
766.85884283431278
 30
0.0
 11
1477.156184958958
 21
754.72789699625355
 31
0.0
  0
LINE
  5
27D
100
AcDbEntity
  8
0
  6
Continuous
 62
               6
100
AcDbLine
 10
1467.5727689028363
 20
767.13974017712144
 30
0.0
 11
1480.3443115297791
 21
754.36819755017882
 31
0.0
  0
LINE
  5
27E
100
AcDbEntity
  8
0
  6
Continuous
 62
               6
100
AcDbLine
 10
1470.2206493109343
 20
767.32028689377034
 30
0.0
 11
1483.8000314727301
 21
753.74090473197407
 31
0.0
  0
LINE
  5
27F
100
AcDbEntity
  8
0
  6
Continuous
 62
               6
100
AcDbLine
 10
1472.9807312523203
 20
767.38863207712984
 30
0.0
 11
1487.6212369461
 21
752.7481263833497
 31
0.0
  0
LINE
  5
280
100
AcDbEntity
  8
0
  6
Continuous
 62
               6
100
AcDbLine
 10
1475.8681825162953
 20
767.3296079379013
 30
0.0
 11
1491.9988282108952
 21
751.19896224330091
 31
0.0
  0
LINE
  5
281
100
AcDbEntity
  8
0
  6
Continuous
 62
               6
100
AcDbLine
 10
1478.9029304262062
 20
767.12328715273702
 30
0.0
 11
1497.4293597570363
 21
748.59685782190627
 31
0.0
  0
LINE
  5
282
100
AcDbEntity
  8
0
  6
Continuous
 62
               6
100
AcDbLine
 10
1482.1120403151722
 20
766.74260438851661
 30
0.0
 11
1535.0012142812561
 21
713.85343042243244
 31
0.0
  0
LINE
  5
283
100
AcDbEntity
  8
0
  6
Continuous
 62
               6
100
AcDbLine
 10
1485.5339027583582
 20
766.14916907007682
 30
0.0
 11
1534.4077789628172
 21
717.27529286561844
 31
0.0
  0
LINE
  5
284
100
AcDbEntity
  8
0
  6
Continuous
 62
               6
100
AcDbLine
 10
1489.2262704554073
 20
765.28522849777391
 30
0.0
 11
1533.543838390513
 21
720.96766056266779
 31
0.0
  0
LINE
  5
285
100
AcDbEntity
  8
0
  6
Continuous
 62
               6
100
AcDbLine
 10
1493.283646805643
 20
764.05627927228443
 30
0.0
 11
1532.3148891650239
 21
725.02503691290326
 31
0.0
  0
LINE
  5
286
100
AcDbEntity
  8
0
  6
Continuous
 62
               6
100
AcDbLine
 10
1497.8823078869532
 20
762.28604531572046
 30
0.0
 11
1530.54465520846
 21
729.62369799421344
 31
0.0
  0
LINE
  5
287
100
AcDbEntity
  8
0
  6
Continuous
 62
               6
100
AcDbLine
 10
1503.4393811886962
 20
759.55739913872367
 30
0.0
 11
1527.8160090314632
 21
735.18077129595645
 31
0.0
  0
LINE
  5
288
100
AcDbEntity
  8
0
  6
Continuous
 62
               6
100
AcDbLine
 10
1511.9035471286629
 20
753.92166032350292
 30
0.0
 11
1522.1802702162422
 21
743.64493723592341
 31
0.0
  0
LINE
  5
289
100
AcDbEntity
  8
0
  6
Continuous
 62
               6
100
AcDbLine
 10
1439.796083861715
 20
667.63720460466402
 30
0.0
 11
1464.4340673017309
 21
642.99922116464836
 31
0.0
  0
LINE
  5
28A
100
AcDbEntity
  8
0
  6
Continuous
 62
               6
100
AcDbLine
 10
1449.3423643064252
 20
660.91935128470095
 30
0.0
 11
1467.6287331744911
 21
642.63298241663438
 31
0.0
  0
LINE
  5
28B
100
AcDbEntity
  8
0
  6
Continuous
 62
               6
100
AcDbLine
 10
1454.656455959906
 20
658.43368675596594
 30
0.0
 11
1470.6514267178391
 21
642.43871599803219
 31
0.0
  0
LINE
  5
28C
100
AcDbEntity
  8
0
  6
Continuous
 62
               6
100
AcDbLine
 10
1458.9808709828812
 20
656.93781787701482
 30
0.0
 11
1473.528553521302
 21
642.39001631931569
 31
0.0
  0
LINE
  5
28D
100
AcDbEntity
  8
0
  6
Continuous
 62
               6
100
AcDbLine
 10
1462.7692010610062
 20
655.97779590435857
 30
0.0
 11
1476.2796104381641
 21
642.46738652720069
 31
0.0
  0
LINE
  5
28E
100
AcDbEntity
  8
0
  6
Continuous
 62
               6
100
AcDbLine
 10
1466.2017965491523
 20
655.37362754095784
 30
0.0
 11
1478.9194704443903
 21
642.65595364572027
 31
0.0
  0
LINE
  5
28F
100
AcDbEntity
  8
0
  6
Continuous
 62
               6
100
AcDbLine
 10
1469.3722722821913
 20
655.0315789326653
 30
0.0
 11
1481.459774559059
 21
642.94407665579752
 31
0.0
  0
LINE
  5
290
100
AcDbEntity
  8
0
  6
Continuous
 62
               6
100
AcDbLine
 10
1472.3368525150013
 20
654.89542582460126
 30
0.0
 11
1483.909823926118
 21
643.32245441348527
 31
0.0
  0
LINE
  5
291
100
AcDbEntity
  8
0
  6
Continuous
 62
               6
100
AcDbLine
 10
1475.1324343908364
 20
654.92827107351286
 30
0.0
 11
1486.277175512399
 21
643.7835299519495
 31
0.0
  0
LINE
  5
292
100
AcDbEntity
  8
0
  6
Continuous
 62
               6
100
AcDbLine
 10
1477.7847678313469
 20
655.10436475774804
 30
0.0
 11
1488.568053601577
 21
644.32107898751815
 31
0.0
  0
LINE
  5
293
100
AcDbEntity
  8
0
  6
Continuous
 62
               6
100
AcDbLine
 10
1480.312644047232
 20
655.40491566660899
 30
0.0
 11
1490.787642228132
 21
644.92991748570944
 31
0.0
  0
LINE
  5
294
100
AcDbEntity
  8
0
  6
Continuous
 62
               6
100
AcDbLine
 10
1482.7302444149882
 20
655.81574242359989
 30
0.0
 11
1492.9402980554823
 21
645.60568878310573
 31
0.0
  0
LINE
  5
295
100
AcDbEntity
  8
0
  6
Continuous
 62
               6
100
AcDbLine
 10
1485.048550936026
 20
656.32586302730806
 30
0.0
 11
1495.0297085502971
 21
646.34470541303676
 31
0.0
  0
LINE
  5
296
100
AcDbEntity
  8
0
  6
Continuous
 62
               6
100
AcDbLine
 10
1487.276239589698
 20
656.9266014983823
 30
0.0
 11
1497.0590115882742
 21
647.14382949980563
 31
0.0
  0
LINE
  5
297
100
AcDbEntity
  8
0
  6
Continuous
 62
               6
100
AcDbLine
 10
1489.4202708181251
 20
657.61099739470092
 30
0.0
 11
1499.0308872574283
 21
648.00038095539799
 31
0.0
  0
LINE
  5
298
100
AcDbEntity
  8
0
  6
Continuous
 62
               6
100
AcDbLine
 10
1491.486293591598
 20
658.37340174597375
 30
0.0
 11
1500.9476292156023
 21
648.91206612197084
 31
0.0
  0
LINE
  5
299
100
AcDbEntity
  8
0
  6
Continuous
 62
               6
100
AcDbLine
 10
1493.4789298754063
 20
659.20919258691288
 30
0.0
 11
1502.811200734986
 21
649.87692172733273
 31
0.0
  0
LINE
  5
29A
100
AcDbEntity
  8
0
  6
Continuous
 62
               6
100
AcDbLine
 10
1495.4019796020971
 20
660.1145699849676
 30
0.0
 11
1504.6232790804193
 21
650.89327050664519
 31
0.0
  0
LINE
  5
29B
100
AcDbEntity
  8
0
  6
Continuous
 62
               6
100
AcDbLine
 10
1497.2585711416341
 20
661.08640557017657
 30
0.0
 11
1506.3852908533281
 21
651.95968585848254
 31
0.0
  0
LINE
  5
29C
100
AcDbEntity
  8
0
  6
Continuous
 62
               6
100
AcDbLine
 10
1499.0512733459223
 20
662.12213049063485
 30
0.0
 11
1508.0984402258609
 21
653.0749636106957
 31
0.0
  0
LINE
  5
29D
100
AcDbEntity
  8
0
  6
Continuous
 62
               6
100
AcDbLine
 10
1500.7821797864663
 20
663.21965117483728
 30
0.0
 11
1509.7637314873132
 21
654.23809947399013
 31
0.0
  0
LINE
  5
29E
100
AcDbEntity
  8
0
  6
Continuous
 62
               6
100
AcDbLine
 10
1502.4529723511923
 20
664.3772857348572
 30
0.0
 11
1511.3819869612144
 21
655.44827112483517
 31
0.0
  0
LINE
  5
29F
100
AcDbEntity
  8
0
  6
Continuous
 62
               6
100
AcDbLine
 10
1504.0649691144949
 20
665.5937160963008
 30
0.0
 11
1512.9538610830782
 21
656.70482412771753
 31
0.0
  0
LINE
  5
2A0
100
AcDbEntity
  8
0
  6
Continuous
 62
               6
100
AcDbLine
 10
1505.6191598811611
 20
666.8679524543802
 30
0.0
 11
1514.479851226527
 21
658.00726110901519
 31
0.0
  0
LINE
  5
2A1
100
AcDbEntity
  8
0
  6
Continuous
 62
               6
100
AcDbLine
 10
1507.1162317550879
 20
668.19930770519954
 30
0.0
 11
1515.9603057093759
 21
659.35523375091225
 31
0.0
  0
LINE
  5
2A2
100
AcDbEntity
  8
0
  6
Continuous
 62
               6
100
AcDbLine
 10
1508.5565863282982
 20
669.58738025673642
 30
0.0
 11
1517.3954292871204
 21
660.74853729791425
 31
0.0
  0
LINE
  5
2A3
100
AcDbEntity
  8
0
  6
Continuous
 62
               6
100
AcDbLine
 10
1509.9403495164252
 20
671.0320441933552
 30
0.0
 11
1518.785286338878
 21
662.18710737090237
 31
0.0
  0
LINE
  5
2A4
100
AcDbEntity
  8
0
  6
Continuous
 62
               6
100
AcDbLine
 10
1511.2673746106393
 20
672.53344622388749
 30
0.0
 11
1520.1298018625062
 21
663.67101897202019
 31
0.0
  0
LINE
  5
2A5
100
AcDbEntity
  8
0
  6
Continuous
 62
               6
100
AcDbLine
 10
1512.537238720276
 20
674.09200923899652
 30
0.0
 11
1521.4287603149824
 21
665.20048764429089
 31
0.0
  0
LINE
  5
2A6
100
AcDbEntity
  8
0
  6
Continuous
 62
               6
100
AcDbLine
 10
1513.7492324029281
 20
675.70844268109113
 30
0.0
 11
1522.6818022559651
 21
666.77587282805393
 31
0.0
  0
LINE
  5
2A7
100
AcDbEntity
  8
0
  6
Continuous
 62
               6
100
AcDbLine
 10
1514.9023418799961
 20
677.38376032876909
 30
0.0
 11
1523.8884186714613
 21
668.39768353730369
 31
0.0
  0
LINE
  5
2A8
100
AcDbEntity
  8
0
  6
Continuous
 62
               6
100
AcDbLine
 10
1515.9952227729641
 20
679.11930656054687
 30
0.0
 11
1525.0479427652999
 21
670.06658656821128
 31
0.0
  0
LINE
  5
2A9
100
AcDbEntity
  8
0
  6
Continuous
 62
               6
100
AcDbLine
 10
1517.0261637150093
 20
680.91679274324792
 30
0.0
 11
1526.1595389024192
 21
671.78341755583824
 31
0.0
  0
LINE
  5
2AA
100
AcDbEntity
  8
0
  6
Continuous
 62
               6
100
AcDbLine
 10
1517.9930374191772
 20
682.77834616382688
 30
0.0
 11
1527.2221882617723
 21
673.54919532123131
 31
0.0
  0
LINE
  5
2AB
100
AcDbEntity
  8
0
  6
Continuous
 62
               6
100
AcDbLine
 10
1518.8932357062481
 20
684.70657500150173
 30
0.0
 11
1528.2346705975592
 21
675.36514011019085
 31
0.0
  0
LINE
  5
2AC
100
AcDbEntity
  8
0
  6
Continuous
 62
               6
100
AcDbLine
 10
1519.7235834372113
 20
686.70465439528471
 30
0.0
 11
1529.195541301
 21
677.232696531496
 31
0.0
  0
LINE
  5
2AD
100
AcDbEntity
  8
0
  6
Continuous
 62
               6
100
AcDbLine
 10
1520.4802239712462
 20
688.77644098599626
 30
0.0
 11
1530.1031026803803
 21
679.15356227686152
 31
0.0
  0
LINE
  5
2AE
100
AcDbEntity
  8
0
  6
Continuous
 62
               6
100
AcDbLine
 10
1521.1584651988769
 20
690.92662688311134
 30
0.0
 11
1530.9553680045751
 21
681.12972407741336
 31
0.0
  0
LINE
  5
2AF
100
AcDbEntity
  8
0
  6
Continuous
 62
               6
100
AcDbLine
 10
1521.7525695412282
 20
693.16094966550668
 30
0.0
 11
1531.750016339889
 21
683.16350286684565
 31
0.0
  0
LINE
  5
2B0
100
AcDbEntity
  8
0
  6
Continuous
 62
               6
100
AcDbLine
 10
1522.2554620375299
 20
695.48648429395075
 30
0.0
 11
1532.4843354835371
 21
685.2576108479434
 31
0.0
  0
LINE
  5
2B1
100
AcDbEntity
  8
0
  6
Continuous
 62
               6
100
AcDbLine
 10
1522.6583148862701
 20
697.91205856995725
 30
0.0
 11
1533.1551492530361
 21
687.4152242031912
 31
0.0
  0
LINE
  5
2B2
100
AcDbEntity
  8
0
  6
Continuous
 62
               6
100
AcDbLine
 10
1522.9499388505242
 20
700.44886173044893
 30
0.0
 11
1533.758723859672
 21
689.64007672130106
 31
0.0
  0
LINE
  5
2B3
100
AcDbEntity
  8
0
  6
Continuous
 62
               6
100
AcDbLine
 10
1523.1158597962572
 20
703.11136790946261
 30
0.0
 11
1534.2906457988133
 21
691.93658190690644
 31
0.0
  0
LINE
  5
2B4
100
AcDbEntity
  8
0
  6
Continuous
 62
               6
100
AcDbLine
 10
1523.1368553776861
 20
705.91879945277969
 30
0.0
 11
1534.745660163996
 21
694.30999466646904
 31
0.0
  0
LINE
  5
2B5
100
AcDbEntity
  8
0
  6
Continuous
 62
               6
100
AcDbLine
 10
1522.9865068889931
 20
708.89757506621868
 30
0.0
 11
1535.1174527270523
 21
696.76662922815922
 31
0.0
  0
LINE
  5
2B6
100
AcDbEntity
  8
0
  6
Continuous
 62
               6
100
AcDbLine
 10
1522.6268074429181
 20
712.08570163703939
 30
0.0
 11
1535.398350069861
 21
699.31415901009677
 31
0.0
  0
LINE
  5
2B7
100
AcDbEntity
  8
0
  6
Continuous
 62
               6
100
AcDbLine
 10
1521.9995146247143
 20
715.54142157999058
 30
0.0
 11
1535.5788967865101
 21
701.96203941819408
 31
0.0
  0
LINE
  5
2B8
100
AcDbEntity
  8
0
  6
Continuous
 62
               6
100
AcDbLine
 10
1521.0067362760892
 20
719.36262705336094
 30
0.0
 11
1535.6472419698694
 21
704.7221213595808
 31
0.0
  0
LINE
  5
2B9
100
AcDbEntity
  8
0
  6
Continuous
 62
               6
100
AcDbLine
 10
1519.4575721360402
 20
723.74021831815594
 30
0.0
 11
1535.588217830641
 21
707.60957262355555
 31
0.0
  0
LINE
  5
2BA
100
AcDbEntity
  8
0
  6
Continuous
 62
               6
100
AcDbLine
 10
1516.8554677146462
 20
729.17074986429657
 30
0.0
 11
1535.3818970454772
 21
710.64432053346604
 31
0.0
  0
LINE
  5
2BB
100
AcDbEntity
  8
0
  6
Continuous
 62
               4
100
AcDbLine
 10
1360.6474643697243
 20
802.88885447698499
 30
0.0
 11
1585.6474643697238
 21
802.88885447698499
 31
0.0
  0
LINE
  5
2BC
100
AcDbEntity
  8
0
  6
Continuous
 62
               4
100
AcDbLine
 10
1360.6474643697243
 20
788.88885447698499
 30
0.0
 11
1473.1474643697243
 21
788.88885447698499
 31
0.0
  0
LINE
  5
2BD
100
AcDbEntity
  8
0
  6
Continuous
 62
               2
100
AcDbLine
 10
1357.6474643697243
 20
474.88885447698505
 30
0.0
 11
1357.6474643697243
 21
834.88885447698499
 31
0.0
  0
LINE
  5
2BE
100
AcDbEntity
  8
0
  6
Continuous
 62
               2
100
AcDbLine
 10
1582.6474643697238
 20
474.88885447698505
 30
0.0
 11
1582.6474643697238
 21
834.88885447698499
 31
0.0
  0
LINE
  5
2BF
100
AcDbEntity
  8
0
  6
Continuous
 62
               4
100
AcDbLine
 10
1424.8511730552709
 20
691.94790222185907
 30
0.0
 11
1430.0473254779781
 21
694.94790222185907
 31
0.0
  0
LINE
  5
2C0
100
AcDbEntity
  8
0
  6
Continuous
 62
               4
100
AcDbLine
 10
1424.8511730552709
 20
691.94790222185907
 30
0.0
 11
1430.8511730552709
 21
691.94790222185907
 31
0.0
  0
LINE
  5
2C1
100
AcDbEntity
  8
0
  6
Continuous
 62
               4
100
AcDbLine
 10
1521.4437556841781
 20
717.82980673211114
 30
0.0
 11
1516.2476032614713
 21
714.82980673211114
 31
0.0
  0
LINE
  5
2C2
100
AcDbEntity
  8
0
  6
Continuous
 62
               4
100
AcDbLine
 10
1521.4437556841781
 20
717.82980673211114
 30
0.0
 11
1515.4437556841781
 21
717.82980673211114
 31
0.0
  0
LINE
  5
2C3
100
AcDbEntity
  8
0
  6
Continuous
 62
               4
100
AcDbLine
 10
1412.777095496439
 20
688.71268181149412
 30
0.0
 11
1424.8511683250522
 21
691.94791987527583
 31
0.0
  0
LINE
  5
2C4
100
AcDbEntity
  8
0
  6
Continuous
 62
               4
100
AcDbLine
 10
1521.4437509539594
 20
717.82982438552767
 30
0.0
 11
1533.517823782573
 21
721.06506244930938
 31
0.0
  0
LINE
  5
2C5
100
AcDbEntity
  8
0
  6
Continuous
 62
               4
100
AcDbLine
 10
1424.8511730552709
 20
691.94790222185907
 30
0.0
 11
1521.4437556841781
 21
717.82980673211114
 31
0.0
  0
LINE
  5
2C6
100
AcDbEntity
  8
0
  6
Continuous
 62
               4
100
AcDbLine
 10
1426.5250417577963
 20
624.13644974117665
 30
0.0
 11
1445.0224643697243
 21
656.17492551411033
 31
0.0
  0
LINE
  5
2C7
100
AcDbEntity
  8
0
  6
Continuous
 62
               4
100
AcDbLine
 10
1426.5250417577963
 20
624.13644974117665
 30
0.0
 11
1361.568459497646
 21
624.13644974117665
 31
0.0
  0
LINE
  5
2C8
100
AcDbEntity
  8
0
  6
Continuous
 62
               4
100
AcDbLine
 10
1445.0224643697243
 20
656.17492551411033
 30
0.0
 11
1443.4695500991093
 21
650.37937055637599
 31
0.0
  0
LINE
  5
2C9
100
AcDbEntity
  8
0
  6
Continuous
 62
               4
100
AcDbLine
 10
1445.0224643697243
 20
656.17492551411033
 30
0.0
 11
1440.7798236826052
 21
651.93228482699124
 31
0.0
  0
LINE
  5
2CA
100
AcDbEntity
  8
0
  6
Continuous
 62
               4
100
AcDbLine
 10
1360.6474643697243
 20
802.88885447698499
 30
0.0
 11
1310.6474643697243
 21
802.88885447698499
 31
0.0
  0
LINE
  5
2CB
100
AcDbEntity
  8
0
  6
Continuous
 62
               4
100
AcDbLine
 10
1310.6474643697243
 20
802.88885447698499
 30
0.0
 11
1316.4430193274593
 21
804.44176874760024
 31
0.0
  0
LINE
  5
2CC
100
AcDbEntity
  8
0
  6
Continuous
 62
               4
100
AcDbLine
 10
1310.6474643697243
 20
802.88885447698499
 30
0.0
 11
1316.4430193274593
 21
801.33594020636997
 31
0.0
  0
LINE
  5
2CD
100
AcDbEntity
  8
0
  6
Continuous
 62
               4
100
AcDbLine
 10
1585.6474643697238
 20
802.88885447698499
 30
0.0
 11
1635.6474643697238
 21
802.88885447698499
 31
0.0
  0
LINE
  5
2CE
100
AcDbEntity
  8
0
  6
Continuous
 62
               4
100
AcDbLine
 10
1635.6474643697238
 20
802.88885447698499
 30
0.0
 11
1629.8519094119902
 21
804.44176874760024
 31
0.0
  0
LINE
  5
2CF
100
AcDbEntity
  8
0
  6
Continuous
 62
               4
100
AcDbLine
 10
1635.6474643697238
 20
802.88885447698499
 30
0.0
 11
1629.8519094119902
 21
801.33594020636997
 31
0.0
  0
LINE
  5
2D0
100
AcDbEntity
  8
0
  6
Continuous
 62
               4
100
AcDbLine
 10
1585.6474643697238
 20
788.88885447698499
 30
0.0
 11
1473.1474643697243
 21
788.88885447698499
 31
0.0
  0
LINE
  5
2D1
100
AcDbEntity
  8
0
  6
Continuous
 62
               2
100
AcDbLine
 10
1373.1474643697243
 20
451.88885447698505
 30
0.0
 11
1573.1474643697238
 21
451.88885447698505
 31
0.0
  0
LINE
  5
2D2
100
AcDbEntity
  8
0
  6
Continuous
 62
               2
100
AcDbLine
 10
1373.1474643697243
 20
437.88885447698505
 30
0.0
 11
1573.1474643697238
 21
437.88885447698505
 31
0.0
  0
LINE
  5
2D3
100
AcDbEntity
  8
0
  6
Continuous
 62
               2
100
AcDbLine
 10
1373.1474643697243
 20
451.88885447698505
 30
0.0
 11
1373.1474643697243
 21
437.88885447698505
 31
0.0
  0
LINE
  5
2D4
100
AcDbEntity
  8
0
  6
Continuous
 62
               2
100
AcDbLine
 10
1573.1474643697238
 20
451.88885447698505
 30
0.0
 11
1573.1474643697238
 21
437.88885447698505
 31
0.0
  0
LINE
  5
2D5
100
AcDbEntity
  8
0
  6
Continuous
 62
               4
100
AcDbLine
 10
556.64746436972484
 20
729.88885447698499
 30
0.0
 11
534.13080387132948
 21
768.88885447698499
 31
0.0
  0
LINE
  5
2D6
100
AcDbEntity
  8
0
  6
Continuous
 62
               4
100
AcDbLine
 10
556.64746436972484
 20
729.88885447698499
 30
0.0
 11
552.40482368260552
 21
734.13149516410431
 31
0.0
  0
LINE
  5
2D7
100
AcDbEntity
  8
0
  6
Continuous
 62
               4
100
AcDbLine
 10
556.64746436972484
 20
729.88885447698499
 30
0.0
 11
555.09455009910982
 21
735.68440943471956
 31
0.0
  0
LINE
  5
2D8
100
AcDbEntity
  8
0
  6
Continuous
 62
               4
100
AcDbLine
 10
534.13080387132948
 20
768.88885447698499
 30
0.0
 11
459.04579329912792
 21
768.88885447698499
 31
0.0
  0
LINE
  5
2D9
100
AcDbEntity
  8
0
  6
DASHED
 62
               7
100
AcDbLine
 10
709.14746436972484
 20
767.38885447698499
 30
0.0
 11
835.14746436972484
 21
767.38885447698499
 31
0.0
  0
LINE
  5
2DA
100
AcDbEntity
  8
0
  6
Continuous
 62
               7
100
AcDbLine
 10
829.14746436972462
 20
814.63019533643842
 30
0.0
 11
809.14746436972462
 21
834.63019533643842
 31
0.0
  0
LINE
  5
2DB
100
AcDbEntity
  8
0
  6
Continuous
 62
               7
100
AcDbLine
 10
829.14746436972462
 20
828.28459860737917
 30
0.0
 11
809.14746436972462
 21
808.28459860737894
 31
0.0
  0
LINE
  5
2DC
100
AcDbEntity
  8
0
  6
Continuous
 62
               7
100
AcDbLine
 10
829.14746436972462
 20
807.55912752457311
 30
0.0
 11
809.14746436972462
 21
827.55912752457311
 31
0.0
  0
LINE
  5
2DD
100
AcDbEntity
  8
0
  6
DASHED
 62
               7
100
AcDbLine
 10
709.14746436972484
 20
642.38885447698499
 30
0.0
 11
838.14746436972484
 21
642.38885447698499
 31
0.0
  0
LINE
  5
2DE
100
AcDbEntity
  8
0
  6
DOT
 62
               7
100
AcDbLine
 10
809.31773741731251
 20
702.38885447698499
 30
0.0
 11
809.14746436972462
 21
702.21858142939709
 31
0.0
  0
LINE
  5
2DF
100
AcDbEntity
  8
0
  6
Continuous
 62
               4
100
AcDbLine
 10
1533.517823782573
 20
721.06506244930938
 30
0.0
 11
1550.663055004834
 21
725.6591133093591
 31
0.0
  0
LINE
  5
2E0
100
AcDbEntity
  8
0
  6
Continuous
 62
               4
100
AcDbLine
 10
1412.777095496439
 20
688.71268181149412
 30
0.0
 11
1395.6319180841842
 21
684.11864536979215
 31
0.0
  0
LINE
  5
2E1
100
AcDbEntity
  8
0
  6
Continuous
 62
               4
100
AcDbLine
 10
709.14746436972462
 20
876.88885447698499
 30
0.0
 11
809.14746436972462
 21
876.88885447698499
 31
0.0
  0
LINE
  5
2E2
100
AcDbEntity
  8
0
  6
Continuous
 62
               4
100
AcDbLine
 10
809.14746436972462
 20
876.88885447698499
 30
0.0
 11
838.14746436972462
 21
876.88885447698499
 31
0.0
  0
LINE
  5
2E3
100
AcDbEntity
  8
0
  6
Continuous
 62
               4
100
AcDbLine
 10
838.14746436972462
 20
876.88885447698499
 30
0.0
 11
858.14746436972462
 21
876.88885447698499
 31
0.0
  0
LINE
  5
2E4
100
AcDbEntity
  8
0
  6
Continuous
 62
               4
100
AcDbLine
 10
220.1474643697245
 20
669.88885447698499
 30
0.0
 11
220.1474643697245
 21
679.88885447698499
 31
0.0
  0
LINE
  5
2E5
100
AcDbEntity
  8
0
  6
Continuous
 62
               4
100
AcDbLine
 10
220.1474643697245
 20
679.88885447698499
 30
0.0
 11
220.1474643697245
 21
729.88885447698499
 31
0.0
  0
LINE
  5
2E6
100
AcDbEntity
  8
0
  6
Continuous
 62
               4
100
AcDbLine
 10
220.1474643697245
 20
729.88885447698499
 30
0.0
 11
220.1474643697245
 21
799.88885447698499
 31
0.0
  0
LINE
  5
2E7
100
AcDbEntity
  8
0
  6
DASHDOT
 62
               4
100
AcDbLine
 10
496.14746436972439
 20
1002.577374433642
 30
0.0
 11
496.14746436972439
 21
930.81775758977574
 31
0.0
  0
LINE
  5
2E8
100
AcDbEntity
  8
0
  6
DASHDOT
 62
               4
100
AcDbLine
 10
769.14746436972439
 20
931.63319810829307
 30
0.0
 11
769.14746436972439
 21
1002.8602773335599
 31
0.0
  0
LINE
  5
2E9
100
AcDbEntity
  8
0
  6
Continuous
 62
               4
100
AcDbLine
 10
493.14746436972439
 20
976.88885447698476
 30
0.0
 11
493.14746436972439
 21
998.38885447698522
 31
0.0
  0
LINE
  5
2EA
100
AcDbEntity
  8
0
  6
Continuous
 62
               4
100
AcDbLine
 10
499.14746436972439
 20
970.98948868477351
 30
0.0
 11
499.14746436972439
 21
998.38885447698522
 31
0.0
  0
LINE
  5
2EB
100
AcDbEntity
  8
0
  6
Continuous
 62
               4
100
AcDbLine
 10
766.14746436972462
 20
971.98885447698467
 30
0.0
 11
766.14746436972462
 21
998.38885447698522
 31
0.0
  0
LINE
  5
2EC
100
AcDbEntity
  8
0
  6
Continuous
 62
               4
100
AcDbLine
 10
772.14746436972439
 20
971.98885447698467
 30
0.0
 11
772.14746436972439
 21
998.38885447698522
 31
0.0
  0
LINE
  5
2ED
100
AcDbEntity
  8
0
  6
Continuous
 62
               6
100
AcDbLine
 10
706.91553568667825
 20
985.88885447698499
 30
0.0
 11
739.14746436972462
 21
985.88885447698476
 31
0.0
  0
LINE
  5
2EE
100
AcDbEntity
  8
0
  6
Continuous
 62
               6
100
AcDbLine
 10
639.81852809137183
 20
978.6398738656851
 30
0.0
 11
639.81852809137183
 21
979.88885447698499
 31
0.0
  0
LINE
  5
2EF
100
AcDbEntity
  8
0
  6
Continuous
 62
               6
100
AcDbLine
 10
701.91553568667825
 20
978.6398738656851
 30
0.0
 11
701.91553568667848
 21
979.88885447698499
 31
0.0
  0
LINE
  5
2F0
100
AcDbEntity
  8
0
  6
Continuous
 62
               6
100
AcDbLine
 10
700.91553568667825
 20
978.6398738656851
 30
0.0
 11
700.91553568667825
 21
979.88885447698499
 31
0.0
  0
LINE
  5
2F1
100
AcDbEntity
  8
0
  6
Continuous
 62
               6
100
AcDbLine
 10
640.81852809137183
 20
978.6398738656851
 30
0.0
 11
640.81852809137183
 21
979.88885447698522
 31
0.0
  0
LINE
  5
2F2
100
AcDbEntity
  8
0
  6
Continuous
 62
               4
100
AcDbLine
 10
456.14746436972439
 20
987.88885447698476
 30
0.0
 11
816.14746436972462
 21
987.88885447698476
 31
0.0
  0
LINE
  5
2F3
100
AcDbEntity
  8
0
  6
Continuous
 62
               6
100
AcDbLine
 10
599.14746436972462
 20
984.88885447698522
 30
0.0
 11
599.14746436972462
 21
987.48885447698513
 31
0.0
  0
LINE
  5
2F4
100
AcDbEntity
  8
0
  6
Continuous
 62
               6
100
AcDbLine
 10
709.14746436972462
 20
987.4888544769849
 30
0.0
 11
739.14746436972462
 21
987.4888544769849
 31
0.0
  0
LINE
  5
2F5
100
AcDbEntity
  8
0
  6
Continuous
 62
               6
100
AcDbLine
 10
599.14746436972462
 20
987.48885447698513
 30
0.0
 11
629.14746436972439
 21
987.48885447698513
 31
0.0
  0
LINE
  5
2F6
100
AcDbEntity
  8
0
  6
Continuous
 62
               4
100
AcDbLine
 10
762.14746436972439
 20
999.38885447698522
 30
0.0
 11
776.14746436972439
 21
999.38885447698522
 31
0.0
  0
LINE
  5
2F7
100
AcDbEntity
  8
0
  6
Continuous
 62
               4
100
AcDbLine
 10
761.64746436972462
 20
998.38885447698522
 30
0.0
 11
776.64746436972439
 21
998.38885447698522
 31
0.0
  0
LINE
  5
2F8
100
AcDbEntity
  8
0
  6
Continuous
 62
               4
100
AcDbLine
 10
761.64746436972462
 20
998.88885447698522
 30
0.0
 11
761.64746436972462
 21
998.38885447698522
 31
0.0
  0
LINE
  5
2F9
100
AcDbEntity
  8
0
  6
Continuous
 62
               4
100
AcDbLine
 10
776.64746436972439
 20
998.88885447698522
 30
0.0
 11
776.64746436972439
 21
998.38885447698522
 31
0.0
  0
LINE
  5
2FA
100
AcDbEntity
  8
0
  6
Continuous
 62
               4
100
AcDbLine
 10
766.4474643697248
 20
1001.8888544769852
 30
0.0
 11
768.39746436972439
 21
1001.8888544769852
 31
0.0
  0
LINE
  5
2FB
100
AcDbEntity
  8
0
  6
Continuous
 62
               4
100
AcDbLine
 10
771.84746436972421
 20
1001.8888544769852
 30
0.0
 11
769.89746436972439
 21
1001.8888544769852
 31
0.0
  0
LINE
  5
2FC
100
AcDbEntity
  8
0
  6
Continuous
 62
               4
100
AcDbLine
 10
489.14746436972439
 20
999.38885447698522
 30
0.0
 11
503.14746436972439
 21
999.38885447698522
 31
0.0
  0
LINE
  5
2FD
100
AcDbEntity
  8
0
  6
Continuous
 62
               4
100
AcDbLine
 10
488.64746436972439
 20
998.38885447698522
 30
0.0
 11
503.64746436972439
 21
998.38885447698522
 31
0.0
  0
LINE
  5
2FE
100
AcDbEntity
  8
0
  6
Continuous
 62
               4
100
AcDbLine
 10
488.64746436972439
 20
998.88885447698522
 30
0.0
 11
488.64746436972439
 21
998.38885447698522
 31
0.0
  0
LINE
  5
2FF
100
AcDbEntity
  8
0
  6
Continuous
 62
               4
100
AcDbLine
 10
503.64746436972439
 20
998.88885447698522
 30
0.0
 11
503.64746436972439
 21
998.38885447698522
 31
0.0
  0
LINE
  5
300
100
AcDbEntity
  8
0
  6
Continuous
 62
               4
100
AcDbLine
 10
493.44746436972457
 20
1001.8888544769852
 30
0.0
 11
495.39746436972439
 21
1001.8888544769852
 31
0.0
  0
LINE
  5
301
100
AcDbEntity
  8
0
  6
Continuous
 62
               4
100
AcDbLine
 10
498.84746436972421
 20
1001.8888544769852
 30
0.0
 11
496.89746436972439
 21
1001.8888544769852
 31
0.0
  0
LINE
  5
302
100
AcDbEntity
  8
0
  6
Continuous
 62
               4
100
AcDbLine
 10
456.14746436972439
 20
998.38885447698522
 30
0.0
 11
816.14746436972462
 21
998.38885447698522
 31
0.0
  0
LINE
  5
303
100
AcDbEntity
  8
0
  6
Continuous
 62
               6
100
AcDbLine
 10
452.7119417712712
 20
1000.7719941268733
 30
0.0
 11
819.38775027668942
 21
1003.7609533746611
 31
0.0
  0
LINE
  5
304
100
AcDbEntity
  8
0
  6
Continuous
 62
               6
100
AcDbLine
 10
816.98195885780513
 20
998.72681130905926
 30
0.0
 11
455.76408472007722
 21
995.81419923185513
 31
0.0
  0
LINE
  5
305
100
AcDbEntity
  8
0
  6
Continuous
 62
               7
100
AcDbLine
 10
816.14746436972462
 20
994.63885447698476
 30
0.0
 11
456.14746436972439
 21
994.63885447698476
 31
0.0
  0
LINE
  5
306
100
AcDbEntity
  8
0
  6
Continuous
 62
               7
100
AcDbLine
 10
868.7103171107284
 20
990.63885447698476
 30
0.0
 11
404.10085735968016
 21
990.63885447698476
 31
0.0
  0
LINE
  5
307
100
AcDbEntity
  8
0
  6
Continuous
 62
               7
100
AcDbLine
 10
392.33854783420918
 20
950.88885447698476
 30
0.0
 11
397.92886578619766
 21
969.63885447698476
 31
0.0
  0
LINE
  5
308
100
AcDbEntity
  8
0
  6
Continuous
 62
               7
100
AcDbLine
 10
388.16454525464599
 20
950.88885447698476
 30
0.0
 11
394.94746436972457
 21
973.63885447698476
 31
0.0
  0
LINE
  5
309
100
AcDbEntity
  8
0
  6
Continuous
 62
               6
100
AcDbLine
 10
397.38351657844316
 20
1000.6764761327181
 30
0.0
 11
449.2092372203125
 21
1001.0418244017635
 31
0.0
  0
LINE
  5
30A
100
AcDbEntity
  8
0
  6
Continuous
 62
               7
100
AcDbLine
 10
453.14746436972439
 20
994.63885447698476
 30
0.0
 11
399.94746436972457
 21
994.63885447698476
 31
0.0
  0
LINE
  5
30B
100
AcDbEntity
  8
0
  6
Continuous
 62
               6
100
AcDbLine
 10
452.62295898664399
 20
996.07903632969487
 30
0.0
 11
399.54542976192101
 21
995.69124687248086
 31
0.0
  0
LINE
  5
30C
100
AcDbEntity
  8
0
  6
Continuous
 62
               6
100
AcDbLine
 10
392.47019641241445
 20
974.13885447698476
 30
0.0
 11
394.73899092659997
 21
997.96119687593568
 31
0.0
  0
LINE
  5
30D
100
AcDbEntity
  8
0
  6
Continuous
 62
               6
100
AcDbLine
 10
397.49282096234992
 20
974.13885447698476
 30
0.0
 11
392.47019641241445
 21
974.13885447698476
 31
0.0
  0
LINE
  5
30E
100
AcDbEntity
  8
0
  6
Continuous
 62
               6
100
AcDbLine
 10
399.54645828315381
 20
995.70204634542597
 30
0.0
 11
397.49282096234992
 21
974.13885447698476
 31
0.0
  0
LINE
  5
30F
100
AcDbEntity
  8
0
  6
Continuous
 62
               7
100
AcDbLine
 10
401.58461162872015
 20
969.63885447698476
 30
0.0
 11
404.10085735968016
 21
990.63885447698476
 31
0.0
  0
LINE
  5
310
100
AcDbEntity
  8
0
  6
Continuous
 62
               7
100
AcDbLine
 10
397.92886578619766
 20
969.63885447698476
 30
0.0
 11
401.58461162872015
 21
969.63885447698476
 31
0.0
  0
LINE
  5
311
100
AcDbEntity
  8
0
  6
Continuous
 62
               7
100
AcDbLine
 10
397.94746436972457
 20
973.63885447698476
 30
0.0
 11
399.94746436972457
 21
994.63885447698476
 31
0.0
  0
LINE
  5
312
100
AcDbEntity
  8
0
  6
Continuous
 62
               7
100
AcDbLine
 10
394.94746436972457
 20
973.63885447698476
 30
0.0
 11
397.94746436972457
 21
973.63885447698476
 31
0.0
  0
LINE
  5
313
100
AcDbEntity
  8
0
  6
Continuous
 62
               4
100
AcDbLine
 10
456.14746436972439
 20
987.88885447698476
 30
0.0
 11
456.14746436972439
 21
998.38885447698522
 31
0.0
  0
LINE
  5
314
100
AcDbEntity
  8
0
  6
Continuous
 62
               7
100
AcDbLine
 10
879.11597300442111
 20
952.88885447698476
 30
0.0
 11
874.33025871870689
 21
969.63885447698476
 31
0.0
  0
LINE
  5
315
100
AcDbEntity
  8
0
  6
Continuous
 62
               7
100
AcDbLine
 10
883.27603579829577
 20
952.88885447698476
 30
0.0
 11
877.34746436972443
 21
973.63885447698476
 31
0.0
  0
LINE
  5
316
100
AcDbEntity
  8
0
  6
Continuous
 62
               6
100
AcDbLine
 10
822.26523918847295
 20
1003.8012045250059
 30
0.0
 11
877.60550360378568
 21
1004.5963026465913
 31
0.0
  0
LINE
  5
317
100
AcDbEntity
  8
0
  6
Continuous
 62
               6
100
AcDbLine
 10
875.64746436972439
 20
999.56842386855124
 30
0.0
 11
819.93691944646446
 21
998.76814615571357
 31
0.0
  0
LINE
  5
318
100
AcDbEntity
  8
0
  6
Continuous
 62
               7
100
AcDbLine
 10
819.14746436972439
 20
994.63885447698476
 30
0.0
 11
872.34746436972443
 21
994.63885447698476
 31
0.0
  0
LINE
  5
319
100
AcDbEntity
  8
0
  6
Continuous
 62
               4
100
AcDbLine
 10
816.14746436972462
 20
998.38885447698522
 30
0.0
 11
816.14746436972462
 21
987.88885447698476
 31
0.0
  0
LINE
  5
31A
100
AcDbEntity
  8
0
  6
Continuous
 62
               6
100
AcDbLine
 10
875.64746436972439
 20
974.63885447698476
 30
0.0
 11
875.64746436972439
 21
999.56842386855124
 31
0.0
  0
LINE
  5
31B
100
AcDbEntity
  8
0
  6
Continuous
 62
               6
100
AcDbLine
 10
880.64746436972439
 20
974.63885447698476
 30
0.0
 11
875.64746436972439
 21
974.63885447698476
 31
0.0
  0
LINE
  5
31C
100
AcDbEntity
  8
0
  6
Continuous
 62
               6
100
AcDbLine
 10
880.64746436972439
 20
1001.5965961119246
 30
0.0
 11
880.64746436972439
 21
974.63885447698476
 31
0.0
  0
LINE
  5
31D
100
AcDbEntity
  8
0
  6
Continuous
 62
               7
100
AcDbLine
 10
870.7103171107284
 20
969.63885447698476
 30
0.0
 11
868.7103171107284
 21
990.63885447698476
 31
0.0
  0
LINE
  5
31E
100
AcDbEntity
  8
0
  6
Continuous
 62
               7
100
AcDbLine
 10
874.33025871870689
 20
969.63885447698476
 30
0.0
 11
870.7103171107284
 21
969.63885447698476
 31
0.0
  0
LINE
  5
31F
100
AcDbEntity
  8
0
  6
Continuous
 62
               7
100
AcDbLine
 10
874.34746436972443
 20
973.63885447698476
 30
0.0
 11
872.34746436972443
 21
994.63885447698476
 31
0.0
  0
LINE
  5
320
100
AcDbEntity
  8
0
  6
Continuous
 62
               7
100
AcDbLine
 10
877.34746436972443
 20
973.63885447698476
 30
0.0
 11
874.34746436972443
 21
973.63885447698476
 31
0.0
  0
LINE
  5
321
100
AcDbEntity
  8
0
  6
Continuous
 62
               4
100
AcDbLine
 10
388.14746436972416
 20
1001.9209257089024
 30
0.0
 11
870.16195560155904
 21
1008.9066429731411
 31
0.0
  0
LINE
  5
322
100
AcDbEntity
  8
0
  6
Continuous
 62
               4
100
AcDbLine
 10
869.14746436972439
 20
1010.888854476985
 30
0.0
 11
387.13297313788996
 21
1003.9031372127554
 31
0.0
  0
LINE
  5
323
100
AcDbEntity
  8
0
  6
Continuous
 62
               4
100
AcDbLine
 10
388.14746436972416
 20
950.88885447698476
 30
0.0
 11
388.14746436972416
 21
1001.9209257089024
 31
0.0
  0
LINE
  5
324
100
AcDbEntity
  8
0
  6
Continuous
 62
               4
100
AcDbLine
 10
386.14746436972462
 20
1002.9032422161683
 30
0.0
 11
386.14746436972416
 21
949.88885447698453
 31
0.0
  0
LINE
  5
325
100
AcDbEntity
  8
0
  6
Continuous
 62
               4
100
AcDbLine
 10
396.14746436972416
 20
950.88885447698476
 30
0.0
 11
388.14746436972416
 21
950.88885447698476
 31
0.0
  0
LINE
  5
326
100
AcDbEntity
  8
0
  6
Continuous
 62
               4
100
AcDbLine
 10
387.14746436972416
 20
948.88885447698476
 30
0.0
 11
396.14746436972416
 21
948.88885447698476
 31
0.0
  0
LINE
  5
327
100
AcDbEntity
  8
0
  6
Continuous
 62
               4
100
AcDbLine
 10
396.14746436972416
 20
948.88885447698476
 30
0.0
 11
396.14746436972416
 21
950.88885447698476
 31
0.0
  0
LINE
  5
328
100
AcDbEntity
  8
0
  6
Continuous
 62
               4
100
AcDbLine
 10
884.14746436972462
 20
952.88885447698476
 30
0.0
 11
884.14746436972484
 21
1023.888854476985
 31
0.0
  0
LINE
  5
329
100
AcDbEntity
  8
0
  6
Continuous
 62
               4
100
AcDbLine
 10
886.14746436972484
 20
951.88885447698476
 30
0.0
 11
886.14746436972484
 21
1024.888854476985
 31
0.0
  0
LINE
  5
32A
100
AcDbEntity
  8
0
  6
Continuous
 62
               4
100
AcDbLine
 10
876.14746436972439
 20
952.88885447698476
 30
0.0
 11
884.14746436972462
 21
952.88885447698476
 31
0.0
  0
LINE
  5
32B
100
AcDbEntity
  8
0
  6
Continuous
 62
               4
100
AcDbLine
 10
876.14746436972439
 20
950.88885447698476
 30
0.0
 11
876.14746436972439
 21
952.88885447698476
 31
0.0
  0
LINE
  5
32C
100
AcDbEntity
  8
0
  6
Continuous
 62
               4
100
AcDbLine
 10
876.14746436972439
 20
950.88885447698476
 30
0.0
 11
885.14746436972484
 21
950.88885447698476
 31
0.0
  0
LINE
  5
32D
100
AcDbEntity
  8
0
  6
Continuous
 62
               4
100
AcDbLine
 10
871.14746436972439
 20
1009.9065379697281
 30
0.0
 11
871.14746436972439
 21
1023.888854476985
 31
0.0
  0
LINE
  5
32E
100
AcDbEntity
  8
0
  6
Continuous
 62
               4
100
AcDbLine
 10
869.14746436972439
 20
1024.888854476985
 30
0.0
 11
869.14746436972439
 21
1010.888854476985
 31
0.0
  0
LINE
  5
32F
100
AcDbEntity
  8
0
  6
Continuous
 62
               4
100
AcDbLine
 10
871.14746436972439
 20
1023.888854476985
 30
0.0
 11
884.14746436972462
 21
1023.888854476985
 31
0.0
  0
LINE
  5
330
100
AcDbEntity
  8
0
  6
Continuous
 62
               6
100
AcDbLine
 10
739.14746436972462
 20
987.4888544769849
 30
0.0
 11
739.14746436972462
 21
984.88885447698499
 31
0.0
  0
LINE
  5
331
100
AcDbEntity
  8
0
  6
Continuous
 62
               6
100
AcDbLine
 10
709.14746436972462
 20
987.4888544769849
 30
0.0
 11
709.14746436972462
 21
985.88885447698499
 31
0.0
  0
LINE
  5
332
100
AcDbEntity
  8
0
  6
Continuous
 62
               6
100
AcDbLine
 10
629.14746436972439
 20
987.48885447698513
 30
0.0
 11
629.14746436972439
 21
985.88885447698499
 31
0.0
  0
LINE
  5
333
100
AcDbEntity
  8
0
  6
Continuous
 62
               4
100
AcDbLine
 10
497.45099260584402
 20
935.14344338253591
 30
0.0
 11
496.54637796718475
 21
969.8998712378725
 31
0.0
  0
LINE
  5
334
100
AcDbEntity
  8
0
  6
Continuous
 62
               4
100
AcDbLine
 10
494.84415437392101
 20
935.15182844898277
 30
0.0
 11
495.74855077226323
 21
969.8998712378725
 31
0.0
  0
LINE
  5
335
100
AcDbEntity
  8
0
  6
Continuous
 62
               4
100
AcDbLine
 10
500.43037371150444
 20
951.96488893126548
 30
0.0
 11
500.46794774559805
 21
949.9187398495751
 31
0.0
  0
LINE
  5
336
100
AcDbEntity
  8
0
  6
Continuous
 62
               4
100
AcDbLine
 10
491.6293997182994
 20
950.00027841300448
 30
0.0
 11
491.68143661902616
 21
951.99960133863851
 31
0.0
  0
LINE
  5
337
100
AcDbEntity
  8
0
  6
Continuous
 62
               4
100
AcDbLine
 10
494.84415437392101
 20
935.15182844898277
 30
0.0
 11
494.00423731329067
 21
935.17368919000774
 31
0.0
  0
LINE
  5
338
100
AcDbEntity
  8
0
  6
Continuous
 62
               4
100
AcDbLine
 10
494.00423731329067
 20
935.17368919000774
 30
0.0
 11
491.3172392932853
 21
938.00433927207951
 31
0.0
  0
LINE
  5
339
100
AcDbEntity
  8
0
  6
Continuous
 62
               4
100
AcDbLine
 10
491.4732890161182
 20
944.00230963610488
 30
0.0
 11
491.52532591684451
 21
946.00163256173869
 31
0.0
  0
LINE
  5
33A
100
AcDbEntity
  8
0
  6
Continuous
 62
               4
100
AcDbLine
 10
491.31717831393667
 20
938.00434085920551
 30
0.0
 11
491.36921521466331
 21
940.00366378483841
 31
0.0
  0
LINE
  5
33B
100
AcDbEntity
  8
0
  6
Continuous
 62
               4
100
AcDbLine
 10
497.97875328035536
 20
935.15726328216601
 30
0.0
 11
500.68735548172776
 21
937.96724768806075
 31
0.0
  0
LINE
  5
33C
100
AcDbEntity
  8
0
  6
Continuous
 62
               4
100
AcDbLine
 10
500.54054028116877
 20
945.9656069592022
 30
0.0
 11
500.57896256824426
 21
943.87326501838743
 31
0.0
  0
LINE
  5
33D
100
AcDbEntity
  8
0
  6
Continuous
 62
               4
100
AcDbLine
 10
500.65070469609907
 20
939.96644232626704
 30
0.0
 11
500.68741647144566
 21
937.96724880803299
 31
0.0
  0
LINE
  5
33E
100
AcDbEntity
  8
0
  6
Continuous
 62
               4
100
AcDbLine
 10
497.45099260584402
 20
935.14344338253591
 30
0.0
 11
497.97875328035536
 21
935.15726328216601
 31
0.0
  0
LINE
  5
33F
100
AcDbEntity
  8
0
  6
Continuous
 62
               4
100
AcDbLine
 10
493.83687024684161
 20
957.94553321481067
 30
0.0
 11
491.83754732120735
 21
957.99757011553788
 31
0.0
  0
LINE
  5
340
100
AcDbEntity
  8
0
  6
Continuous
 62
               4
100
AcDbLine
 10
493.88890714756747
 20
959.94485614044402
 30
0.0
 11
493.83687024684161
 21
957.94553321481067
 31
0.0
  0
LINE
  5
341
100
AcDbEntity
  8
0
  6
Continuous
 62
               4
100
AcDbLine
 10
491.94162112266145
 20
961.99621596680458
 30
0.0
 11
493.88890714756747
 21
959.94485614044402
 31
0.0
  0
LINE
  5
342
100
AcDbEntity
  8
0
  6
Continuous
 62
               4
100
AcDbLine
 10
492.14873284033501
 20
967.88882457754039
 30
0.0
 11
492.14746442000126
 21
976.88885447698499
 31
0.0
  0
LINE
  5
343
100
AcDbEntity
  8
0
  6
Continuous
 62
               4
100
AcDbLine
 10
493.99298094902235
 20
963.94350199171072
 30
0.0
 11
491.99365802338809
 21
963.99553889243793
 31
0.0
  0
LINE
  5
344
100
AcDbEntity
  8
0
  6
Continuous
 62
               4
100
AcDbLine
 10
494.04501784974957
 20
965.94282491734407
 30
0.0
 11
493.99298094902235
 21
963.94350199171072
 31
0.0
  0
LINE
  5
345
100
AcDbEntity
  8
0
  6
Continuous
 62
               4
100
AcDbLine
 10
492.09773182484332
 20
967.99418474370373
 30
0.0
 11
494.04501784974957
 21
965.94282491734407
 31
0.0
  0
LINE
  5
346
100
AcDbEntity
  8
0
  6
Continuous
 62
               4
100
AcDbLine
 10
491.94162112266145
 20
961.99621596680458
 30
0.0
 11
491.99365802338809
 21
963.99553889243793
 31
0.0
  0
LINE
  5
347
100
AcDbEntity
  8
0
  6
Continuous
 62
               4
100
AcDbLine
 10
491.78551042048059
 20
955.9982471899043
 30
0.0
 11
491.83754732120735
 21
957.99757011553788
 31
0.0
  0
LINE
  5
348
100
AcDbEntity
  8
0
  6
Continuous
 62
               4
100
AcDbLine
 10
489.78537287123447
 20
967.35643983999785
 30
0.0
 11
490.77186264990746
 21
967.8424724447666
 31
0.0
  0
LINE
  5
349
100
AcDbEntity
  8
0
  6
Continuous
 62
               4
100
AcDbLine
 10
493.14746436972439
 20
976.8894886847736
 30
0.0
 11
493.14746436972439
 21
970.98948868477351
 31
0.0
  0
LINE
  5
34A
100
AcDbEntity
  8
0
  6
Continuous
 62
               4
100
AcDbLine
 10
498.32054965392547
 20
957.92715716123143
 30
0.0
 11
500.32021252867355
 21
957.96387755550882
 31
0.0
  0
LINE
  5
34B
100
AcDbEntity
  8
0
  6
Continuous
 62
               4
100
AcDbLine
 10
498.28382925964843
 20
959.92682003597997
 30
0.0
 11
498.32054965392547
 21
957.92715716123143
 31
0.0
  0
LINE
  5
34C
100
AcDbEntity
  8
0
  6
Continuous
 62
               4
100
AcDbLine
 10
500.24677174011879
 20
961.9632033050043
 30
0.0
 11
498.28382925964843
 21
959.92682003597997
 31
0.0
  0
LINE
  5
34D
100
AcDbEntity
  8
0
  6
Continuous
 62
               4
100
AcDbLine
 10
496.54746436972448
 20
969.8894886847736
 30
0.0
 11
495.7474643697243
 21
969.8894886847736
 31
0.0
  0
LINE
  5
34E
100
AcDbEntity
  8
0
  6
Continuous
 62
               4
100
AcDbLine
 10
500.14734210589631
 20
976.85821416359408
 30
0.0
 11
500.08479282897599
 21
967.85842869216572
 31
0.0
  0
LINE
  5
34F
100
AcDbEntity
  8
0
  6
Continuous
 62
               4
100
AcDbLine
 10
500.32021252867355
 20
957.96387755550882
 30
0.0
 11
500.35693292295048
 21
955.96421468076142
 31
0.0
  0
LINE
  5
350
100
AcDbEntity
  8
0
  6
Continuous
 62
               4
100
AcDbLine
 10
500.21005134584141
 20
963.96286617975306
 30
0.0
 11
500.24677174011879
 21
961.9632033050043
 31
0.0
  0
LINE
  5
351
100
AcDbEntity
  8
0
  6
Continuous
 62
               4
100
AcDbLine
 10
502.44401648994847
 20
967.30675287452209
 30
0.0
 11
501.46127770407577
 21
967.80032779496173
 31
0.0
  0
LINE
  5
352
100
AcDbEntity
  8
0
  6
Continuous
 62
               4
100
AcDbLine
 10
773.35330761678699
 20
961.99558175901575
 30
0.0
 11
773.30127071606
 21
963.99490468464865
 31
0.0
  0
LINE
  5
353
100
AcDbEntity
  8
0
  6
Continuous
 62
               4
100
AcDbLine
 10
765.08543350844127
 20
963.99251602009463
 30
0.0
 11
765.04815699932999
 21
961.96256909721569
 31
0.0
  0
LINE
  5
354
100
AcDbEntity
  8
0
  6
Continuous
 62
               4
100
AcDbLine
 10
770.45077436552754
 20
935.15119424119348
 30
0.0
 11
769.54637796718509
 21
969.8992370300839
 31
0.0
  0
LINE
  5
355
100
AcDbEntity
  8
0
  6
Continuous
 62
               4
100
AcDbLine
 10
767.84393613360373
 20
935.14280917474707
 30
0.0
 11
768.74855077226391
 21
969.8992370300839
 31
0.0
  0
LINE
  5
356
100
AcDbEntity
  8
0
  6
Continuous
 62
               4
100
AcDbLine
 10
767.84393613360373
 20
935.14280917474707
 30
0.0
 11
767.31617545909296
 21
935.15662907437718
 31
0.0
  0
LINE
  5
357
100
AcDbEntity
  8
0
  6
Continuous
 62
               4
100
AcDbLine
 10
764.64423266228061
 20
939.96627747499133
 30
0.0
 11
764.60751226800323
 21
937.9666146002437
 31
0.0
  0
LINE
  5
358
100
AcDbEntity
  8
0
  6
Continuous
 62
               4
100
AcDbLine
 10
773.97775042551177
 20
938.00370665141645
 30
0.0
 11
773.92571352478478
 21
940.0030295770498
 31
0.0
  0
LINE
  5
359
100
AcDbEntity
  8
0
  6
Continuous
 62
               4
100
AcDbLine
 10
773.8216397233308
 20
944.0016754283165
 30
0.0
 11
773.76960282260359
 21
946.0009983539494
 31
0.0
  0
LINE
  5
35A
100
AcDbEntity
  8
0
  6
Continuous
 62
               4
100
AcDbLine
 10
773.66552902114938
 20
949.9996442052161
 30
0.0
 11
773.61349212042217
 21
951.99896713084945
 31
0.0
  0
LINE
  5
35B
100
AcDbEntity
  8
0
  6
Continuous
 62
               4
100
AcDbLine
 10
773.50941831896819
 20
955.9976129821157
 30
0.0
 11
773.45738141824097
 21
957.99693590774905
 31
0.0
  0
LINE
  5
35C
100
AcDbEntity
  8
0
  6
Continuous
 62
               4
100
AcDbLine
 10
764.97471621077545
 20
957.96324334772044
 30
0.0
 11
764.9379958164983
 21
955.96358047297281
 31
0.0
  0
LINE
  5
35D
100
AcDbEntity
  8
0
  6
Continuous
 62
               4
100
AcDbLine
 10
764.86455502794399
 20
951.9642547234771
 30
0.0
 11
764.82783463366661
 21
949.96459184872947
 31
0.0
  0
LINE
  5
35E
100
AcDbEntity
  8
0
  6
Continuous
 62
               4
100
AcDbLine
 10
764.7543938451123
 20
945.96526609923421
 30
0.0
 11
764.71767345083492
 21
943.96560322448659
 31
0.0
  0
LINE
  5
35F
100
AcDbEntity
  8
0
  6
Continuous
 62
               4
100
AcDbLine
 10
771.29069142615811
 20
935.17305498221867
 30
0.0
 11
773.97768944616257
 21
938.0037050642909
 31
0.0
  0
LINE
  5
360
100
AcDbEntity
  8
0
  6
Continuous
 62
               4
100
AcDbLine
 10
767.31617545909296
 20
935.15662907437718
 30
0.0
 11
764.60757325772113
 21
937.96661348027146
 31
0.0
  0
LINE
  5
361
100
AcDbEntity
  8
0
  6
Continuous
 62
               4
100
AcDbLine
 10
770.45077436552754
 20
935.15119424119348
 30
0.0
 11
771.29069142615811
 21
935.17305498221867
 31
0.0
  0
LINE
  5
362
100
AcDbEntity
  8
0
  6
Continuous
 62
               4
100
AcDbLine
 10
773.35330761678699
 20
961.99558175901575
 30
0.0
 11
771.40602159188063
 21
959.94422193265518
 31
0.0
  0
LINE
  5
363
100
AcDbEntity
  8
0
  6
Continuous
 62
               4
100
AcDbLine
 10
771.40602159188063
 20
959.94422193265518
 30
0.0
 11
771.45805849260762
 21
957.94489900702183
 31
0.0
  0
LINE
  5
364
100
AcDbEntity
  8
0
  6
Continuous
 62
               4
100
AcDbLine
 10
771.45805849260762
 20
957.94489900702183
 30
0.0
 11
773.45738141824097
 21
957.99693590774905
 31
0.0
  0
LINE
  5
365
100
AcDbEntity
  8
0
  6
Continuous
 62
               4
100
AcDbLine
 10
765.04815699932999
 20
961.96256909721569
 30
0.0
 11
767.01109947980024
 21
959.92618582819068
 31
0.0
  0
LINE
  5
366
100
AcDbEntity
  8
0
  6
Continuous
 62
               4
100
AcDbLine
 10
767.01109947980024
 20
959.92618582819068
 30
0.0
 11
766.97437908552331
 21
957.92652295344305
 31
0.0
  0
LINE
  5
367
100
AcDbEntity
  8
0
  6
Continuous
 62
               4
100
AcDbLine
 10
766.97437908552331
 20
957.92652295344305
 30
0.0
 11
764.97471621077545
 21
957.96324334772044
 31
0.0
  0
LINE
  5
368
100
AcDbEntity
  8
0
  6
Continuous
 62
               4
100
AcDbLine
 10
762.85091224950099
 20
967.3061186667328
 30
0.0
 11
763.83365103537346
 21
967.7996935871729
 31
0.0
  0
LINE
  5
369
100
AcDbEntity
  8
0
  6
Continuous
 62
               4
100
AcDbLine
 10
775.50955586821431
 20
967.35580563220901
 30
0.0
 11
774.52306608954098
 21
967.84183823697731
 31
0.0
  0
LINE
  5
36A
100
AcDbEntity
  8
0
  6
Continuous
 62
               4
100
AcDbLine
 10
773.14620317714991
 20
967.93983140935939
 30
0.0
 11
771.24991088969944
 21
965.94219070955523
 31
0.0
  0
LINE
  5
36B
100
AcDbEntity
  8
0
  6
Continuous
 62
               4
100
AcDbLine
 10
771.24991088969944
 20
965.94219070955523
 30
0.0
 11
771.30194779042642
 21
963.94286778392188
 31
0.0
  0
LINE
  5
36C
100
AcDbEntity
  8
0
  6
Continuous
 62
               4
100
AcDbLine
 10
771.30194779042642
 20
963.94286778392188
 30
0.0
 11
773.30127071606
 21
963.99490468464865
 31
0.0
  0
LINE
  5
36D
100
AcDbEntity
  8
0
  6
Continuous
 62
               4
100
AcDbLine
 10
773.14620317714991
 20
967.93983140935939
 30
0.0
 11
773.14746431944707
 21
976.88822026919615
 31
0.0
  0
LINE
  5
36E
100
AcDbEntity
  8
0
  6
Continuous
 62
               4
100
AcDbLine
 10
765.14758663355235
 20
976.85757995580434
 30
0.0
 11
765.21001447586548
 21
967.87526687519062
 31
0.0
  0
LINE
  5
36F
100
AcDbEntity
  8
0
  6
Continuous
 62
               4
100
AcDbLine
 10
768.7474643697243
 20
969.88885447698476
 30
0.0
 11
769.54746436972448
 21
969.88885447698476
 31
0.0
  0
LINE
  5
370
100
AcDbEntity
  8
0
  6
Continuous
 62
               4
100
AcDbLine
 10
870.14746436972439
 20
1025.888854476985
 30
0.0
 11
885.14746436972462
 21
1025.888854476985
 31
0.0
  0
LINE
  5
371
100
AcDbEntity
  8
0
  6
Continuous
 62
               6
100
AcDbLine
 10
739.14746436972462
 20
984.88885447698499
 30
0.0
 11
706.91553568667848
 21
984.88885447698499
 31
0.0
  0
LINE
  5
372
100
AcDbEntity
  8
0
  6
Continuous
 62
               6
100
AcDbLine
 10
599.14746436972462
 20
984.88885447698522
 30
0.0
 11
634.81852809137183
 21
984.88885447698522
 31
0.0
  0
LINE
  5
373
100
AcDbEntity
  8
0
  6
Continuous
 62
               6
100
AcDbLine
 10
634.81852809137183
 20
985.88885447698522
 30
0.0
 11
599.14746436972462
 21
985.88885447698522
 31
0.0
  0
LINE
  5
374
100
AcDbEntity
  8
0
  6
Continuous
 62
               7
100
AcDbLine
 10
823.11716056642456
 20
984.88885447698499
 30
0.0
 11
809.14746436972462
 21
970.91915828028527
 31
0.0
  0
LINE
  5
375
100
AcDbEntity
  8
0
  6
Continuous
 62
               7
100
AcDbLine
 10
829.14746436972462
 20
970.19368719747899
 30
0.0
 11
814.45229709021862
 21
984.88885447698499
 31
0.0
  0
LINE
  5
376
100
AcDbEntity
  8
0
  6
Continuous
 62
               7
100
AcDbLine
 10
816.04609275455925
 20
984.88885447698499
 30
0.0
 11
809.14746436972462
 21
977.99022609215058
 31
0.0
  0
LINE
  5
377
100
AcDbEntity
  8
0
  6
Continuous
 62
               7
100
AcDbLine
 10
829.14746436972462
 20
977.2647550093443
 30
0.0
 11
821.52336490208393
 21
984.88885447698499
 31
0.0
  0
LINE
  5
378
100
AcDbEntity
  8
0
  6
Continuous
 62
               7
100
AcDbLine
 10
829.14746436972462
 20
984.33582282120983
 30
0.0
 11
828.59443271394946
 21
984.88885447698499
 31
0.0
  0
LINE
  5
379
100
AcDbEntity
  8
0
  6
Continuous
 62
               4
100
AcDbLine
 10
493.68075954465951
 20
951.9475644379113
 30
0.0
 11
491.68143661902525
 21
951.99960133863851
 31
0.0
  0
LINE
  5
37A
100
AcDbEntity
  8
0
  6
Continuous
 62
               4
100
AcDbLine
 10
493.73279644538525
 20
953.94688736354465
 30
0.0
 11
493.68075954465951
 21
951.9475644379113
 31
0.0
  0
LINE
  5
37B
100
AcDbEntity
  8
0
  6
Continuous
 62
               4
100
AcDbLine
 10
491.78551042047923
 20
955.99824718990521
 30
0.0
 11
493.73279644538525
 21
953.94688736354465
 31
0.0
  0
LINE
  5
37C
100
AcDbEntity
  8
0
  6
Continuous
 62
               4
100
AcDbLine
 10
493.52464884247718
 20
945.94959566101215
 30
0.0
 11
491.52532591684303
 21
946.00163256173937
 31
0.0
  0
LINE
  5
37D
100
AcDbEntity
  8
0
  6
Continuous
 62
               4
100
AcDbLine
 10
493.57668574320303
 20
947.9489185866455
 30
0.0
 11
493.52464884247718
 21
945.94959566101215
 31
0.0
  0
LINE
  5
37E
100
AcDbEntity
  8
0
  6
Continuous
 62
               4
100
AcDbLine
 10
491.62939971829701
 20
950.00027841300607
 30
0.0
 11
493.57668574320303
 21
947.9489185866455
 31
0.0
  0
LINE
  5
37F
100
AcDbEntity
  8
0
  6
Continuous
 62
               4
100
AcDbLine
 10
493.36853814029507
 20
939.95162688411278
 30
0.0
 11
491.36921521466081
 21
940.00366378484
 31
0.0
  0
LINE
  5
380
100
AcDbEntity
  8
0
  6
Continuous
 62
               4
100
AcDbLine
 10
493.42057504102081
 20
941.95094980974636
 30
0.0
 11
493.36853814029507
 21
939.95162688411278
 31
0.0
  0
LINE
  5
381
100
AcDbEntity
  8
0
  6
Continuous
 62
               4
100
AcDbLine
 10
491.47328901611479
 20
944.00230963610693
 30
0.0
 11
493.42057504102081
 21
941.95094980974636
 31
0.0
  0
LINE
  5
382
100
AcDbEntity
  8
0
  6
Continuous
 62
               4
100
AcDbLine
 10
498.46168379877031
 20
951.9135319287675
 30
0.0
 11
500.46100672440446
 21
951.96556882949471
 31
0.0
  0
LINE
  5
383
100
AcDbEntity
  8
0
  6
Continuous
 62
               4
100
AcDbLine
 10
498.40964689804457
 20
953.91285485440085
 30
0.0
 11
498.46168379877031
 21
951.9135319287675
 31
0.0
  0
LINE
  5
384
100
AcDbEntity
  8
0
  6
Continuous
 62
               4
100
AcDbLine
 10
500.35693292295048
 20
955.96421468076142
 30
0.0
 11
498.40964689804457
 21
953.91285485440085
 31
0.0
  0
LINE
  5
385
100
AcDbEntity
  8
0
  6
Continuous
 62
               4
100
AcDbLine
 10
498.61779450095253
 20
945.91556315186835
 30
0.0
 11
500.54054028116877
 21
945.9656069592022
 31
0.0
  0
LINE
  5
386
100
AcDbEntity
  8
0
  6
Continuous
 62
               4
100
AcDbLine
 10
498.56575760022668
 20
947.91488607750171
 30
0.0
 11
498.61779450095253
 21
945.91556315186835
 31
0.0
  0
LINE
  5
387
100
AcDbEntity
  8
0
  6
Continuous
 62
               4
100
AcDbLine
 10
500.46794774559805
 20
949.9187398495751
 30
0.0
 11
498.56575760022668
 21
947.91488607750171
 31
0.0
  0
LINE
  5
388
100
AcDbEntity
  8
0
  6
Continuous
 62
               4
100
AcDbLine
 10
498.77390520313475
 20
939.91759437496898
 30
0.0
 11
500.65070469609907
 21
939.96644232626704
 31
0.0
  0
LINE
  5
389
100
AcDbEntity
  8
0
  6
Continuous
 62
               4
100
AcDbLine
 10
498.72186830240901
 20
941.91691730060234
 30
0.0
 11
498.77390520313475
 21
939.91759437496898
 31
0.0
  0
LINE
  5
38A
100
AcDbEntity
  8
0
  6
Continuous
 62
               4
100
AcDbLine
 10
500.57896256824426
 20
943.87326501838743
 30
0.0
 11
498.72186830240901
 21
941.91691730060234
 31
0.0
  0
LINE
  5
38B
100
AcDbEntity
  8
0
  6
Continuous
 62
               4
100
AcDbLine
 10
498.30194779042642
 20
963.94350199171072
 30
0.0
 11
500.30127071606069
 21
963.99553889243793
 31
0.0
  0
LINE
  5
38C
100
AcDbEntity
  8
0
  6
Continuous
 62
               4
100
AcDbLine
 10
498.24991088969921
 20
965.94282491734407
 30
0.0
 11
498.30194779042642
 21
963.94350199171072
 31
0.0
  0
LINE
  5
38D
100
AcDbEntity
  8
0
  6
Continuous
 62
               4
100
AcDbLine
 10
500.19719691460557
 20
967.99418474370373
 30
0.0
 11
498.24991088969921
 21
965.94282491734407
 31
0.0
  0
LINE
  5
38E
100
AcDbEntity
  8
0
  6
Continuous
 62
               4
100
AcDbLine
 10
495.39746436972439
 20
1001.8888544769852
 30
0.0
 11
495.39746436972439
 21
999.38885447698522
 31
0.0
  0
LINE
  5
38F
100
AcDbEntity
  8
0
  6
Continuous
 62
               4
100
AcDbLine
 10
496.89746436972439
 20
1001.8888544769852
 30
0.0
 11
496.89746436972439
 21
999.38885447698522
 31
0.0
  0
LINE
  5
390
100
AcDbEntity
  8
0
  6
Continuous
 62
               4
100
AcDbLine
 10
766.83324494067722
 20
951.9128977209798
 30
0.0
 11
764.83392201504296
 21
951.96493462170702
 31
0.0
  0
LINE
  5
391
100
AcDbEntity
  8
0
  6
Continuous
 62
               4
100
AcDbLine
 10
766.88528184140307
 20
953.91222064661315
 30
0.0
 11
766.83324494067722
 21
951.9128977209798
 31
0.0
  0
LINE
  5
392
100
AcDbEntity
  8
0
  6
Continuous
 62
               4
100
AcDbLine
 10
764.93799581649694
 20
955.96358047297372
 30
0.0
 11
766.88528184140307
 21
953.91222064661315
 31
0.0
  0
LINE
  5
393
100
AcDbEntity
  8
0
  6
Continuous
 62
               4
100
AcDbLine
 10
766.67713423849489
 20
945.91492894408043
 30
0.0
 11
764.67781131286085
 21
945.96696584480765
 31
0.0
  0
LINE
  5
394
100
AcDbEntity
  8
0
  6
Continuous
 62
               4
100
AcDbLine
 10
766.72917113922074
 20
947.91425186971378
 30
0.0
 11
766.67713423849489
 21
945.91492894408043
 31
0.0
  0
LINE
  5
395
100
AcDbEntity
  8
0
  6
Continuous
 62
               4
100
AcDbLine
 10
764.78188511431483
 20
949.96561169607435
 30
0.0
 11
766.72917113922074
 21
947.91425186971378
 31
0.0
  0
LINE
  5
396
100
AcDbEntity
  8
0
  6
Continuous
 62
               4
100
AcDbLine
 10
766.52102353631278
 20
939.91696016718129
 30
0.0
 11
764.52170061067875
 21
939.9689970679085
 31
0.0
  0
LINE
  5
397
100
AcDbEntity
  8
0
  6
Continuous
 62
               4
100
AcDbLine
 10
766.57306043703863
 20
941.91628309281464
 30
0.0
 11
766.52102353631278
 21
939.91696016718129
 31
0.0
  0
LINE
  5
398
100
AcDbEntity
  8
0
  6
Continuous
 62
               4
100
AcDbLine
 10
764.62577441213273
 20
943.9676429191752
 30
0.0
 11
766.57306043703863
 21
941.91628309281464
 31
0.0
  0
LINE
  5
399
100
AcDbEntity
  8
0
  6
Continuous
 62
               4
100
AcDbLine
 10
771.61416919478813
 20
951.87886521183577
 30
0.0
 11
773.61349212042217
 21
951.93090211256299
 31
0.0
  0
LINE
  5
39A
100
AcDbEntity
  8
0
  6
Continuous
 62
               4
100
AcDbLine
 10
771.56213229406228
 20
953.87818813746935
 30
0.0
 11
771.61416919478813
 21
951.87886521183577
 31
0.0
  0
LINE
  5
39B
100
AcDbEntity
  8
0
  6
Continuous
 62
               4
100
AcDbLine
 10
773.50941831896819
 20
955.92954796382992
 30
0.0
 11
771.56213229406228
 21
953.87818813746935
 31
0.0
  0
LINE
  5
39C
100
AcDbEntity
  8
0
  6
Continuous
 62
               4
100
AcDbLine
 10
771.77027989697024
 20
945.88089643493663
 30
0.0
 11
773.69302567718648
 21
945.93094024227048
 31
0.0
  0
LINE
  5
39D
100
AcDbEntity
  8
0
  6
Continuous
 62
               4
100
AcDbLine
 10
771.71824299624438
 20
947.88021936056998
 30
0.0
 11
771.77027989697024
 21
945.88089643493663
 31
0.0
  0
LINE
  5
39E
100
AcDbEntity
  8
0
  6
Continuous
 62
               4
100
AcDbLine
 10
773.62043314161576
 20
949.88407313264338
 30
0.0
 11
771.71824299624438
 21
947.88021936056998
 31
0.0
  0
LINE
  5
39F
100
AcDbEntity
  8
0
  6
Continuous
 62
               4
100
AcDbLine
 10
771.92639059915257
 20
939.88292765803749
 30
0.0
 11
773.80319009211678
 21
939.93177560933532
 31
0.0
  0
LINE
  5
3A0
100
AcDbEntity
  8
0
  6
Continuous
 62
               4
100
AcDbLine
 10
771.87435369842672
 20
941.88225058367084
 30
0.0
 11
771.92639059915257
 21
939.88292765803749
 31
0.0
  0
LINE
  5
3A1
100
AcDbEntity
  8
0
  6
Continuous
 62
               4
100
AcDbLine
 10
773.73144796426197
 20
943.83859830145593
 30
0.0
 11
771.87435369842672
 21
941.88225058367084
 31
0.0
  0
LINE
  5
3A2
100
AcDbEntity
  8
0
  6
Continuous
 62
               4
100
AcDbLine
 10
765.21001447586548
 20
967.87526687519062
 30
0.0
 11
767.04501784974934
 21
965.94219070955523
 31
0.0
  0
LINE
  5
3A3
100
AcDbEntity
  8
0
  6
Continuous
 62
               4
100
AcDbLine
 10
767.04501784974934
 20
965.94219070955523
 30
0.0
 11
766.99298094902258
 21
963.94286778392188
 31
0.0
  0
LINE
  5
3A4
100
AcDbEntity
  8
0
  6
Continuous
 62
               4
100
AcDbLine
 10
766.99298094902258
 20
963.94286778392188
 30
0.0
 11
765.08543350844127
 21
963.99251602009463
 31
0.0
  0
LINE
  5
3A5
100
AcDbEntity
  8
0
  6
Continuous
 62
               7
100
AcDbLine
 10
829.14746436972462
 20
821.21353079551386
 30
0.0
 11
809.14746436972462
 21
801.21353079551318
 31
0.0
  0
LINE
  5
3A6
100
AcDbEntity
  8
0
  6
Continuous
 62
               7
100
AcDbLine
 10
829.14746436972462
 20
800.48805971270758
 30
0.0
 11
809.14746436972462
 21
820.48805971270758
 31
0.0
  0
LINE
  5
3A7
100
AcDbEntity
  8
0
  6
Continuous
 62
               7
100
AcDbLine
 10
829.14746436972462
 20
814.14246298364833
 30
0.0
 11
809.14746436972462
 21
794.14246298364787
 31
0.0
  0
LINE
  5
3A8
100
AcDbEntity
  8
0
  6
Continuous
 62
               7
100
AcDbLine
 10
829.14746436972462
 20
793.41699190084205
 30
0.0
 11
809.14746436972462
 21
813.41699190084205
 31
0.0
  0
LINE
  5
3A9
100
AcDbEntity
  8
0
  6
Continuous
 62
               7
100
AcDbLine
 10
829.14746436972462
 20
807.0713951717828
 30
0.0
 11
809.14746436972462
 21
787.07139517178234
 31
0.0
  0
LINE
  5
3AA
100
AcDbEntity
  8
0
  6
Continuous
 62
               7
100
AcDbLine
 10
829.14746436972462
 20
786.34592408897652
 30
0.0
 11
809.14746436972462
 21
806.34592408897652
 31
0.0
  0
LINE
  5
3AB
100
AcDbEntity
  8
0
  6
Continuous
 62
               7
100
AcDbLine
 10
829.14746436972462
 20
800.00032735991726
 30
0.0
 11
809.14746436972462
 21
780.00032735991704
 31
0.0
  0
LINE
  5
3AC
100
AcDbEntity
  8
0
  6
Continuous
 62
               7
100
AcDbLine
 10
829.14746436972462
 20
779.27485627711121
 30
0.0
 11
809.14746436972462
 21
799.27485627711121
 31
0.0
  0
LINE
  5
3AD
100
AcDbEntity
  8
0
  6
Continuous
 62
               7
100
AcDbLine
 10
829.14746436972462
 20
792.92925954805196
 30
0.0
 11
809.14746436972462
 21
772.92925954805128
 31
0.0
  0
LINE
  5
3AE
100
AcDbEntity
  8
0
  6
Continuous
 62
               7
100
AcDbLine
 10
829.14746436972462
 20
772.20378846524568
 30
0.0
 11
809.14746436972462
 21
792.20378846524568
 31
0.0
  0
LINE
  5
3AF
100
AcDbEntity
  8
0
  6
Continuous
 62
               7
100
AcDbLine
 10
829.14746436972462
 20
785.85819173618643
 30
0.0
 11
810.67812711052363
 21
767.38885447698499
 31
0.0
  0
LINE
  5
3B0
100
AcDbEntity
  8
0
  6
Continuous
 62
               7
100
AcDbLine
 10
826.89133054611978
 20
767.38885447698499
 30
0.0
 11
809.14746436972462
 21
785.13272065338015
 31
0.0
  0
LINE
  5
3B1
100
AcDbEntity
  8
0
  6
Continuous
 62
               7
100
AcDbLine
 10
829.14746436972462
 20
778.78712392432089
 30
0.0
 11
817.74919492238917
 21
767.38885447698499
 31
0.0
  0
LINE
  5
3B2
100
AcDbEntity
  8
0
  6
Continuous
 62
               7
100
AcDbLine
 10
819.82026273425447
 20
767.38885447698499
 30
0.0
 11
809.14746436972462
 21
778.06165284151461
 31
0.0
  0
LINE
  5
3B3
100
AcDbEntity
  8
0
  6
Continuous
 62
               7
100
AcDbLine
 10
829.14746436972462
 20
771.71605611245536
 30
0.0
 11
824.82026273425447
 21
767.38885447698499
 31
0.0
  0
LINE
  5
3B4
100
AcDbEntity
  8
0
  6
Continuous
 62
               7
100
AcDbLine
 10
812.74919492238894
 20
767.38885447698499
 30
0.0
 11
809.14746436972462
 21
770.99058502964931
 31
0.0
  0
LINE
  5
3B5
100
AcDbEntity
  8
0
  6
Continuous
 62
               4
100
AcDbLine
 10
429.14746436972462
 20
876.88885447698499
 30
0.0
 11
419.14746436972462
 21
876.88885447698499
 31
0.0
  0
LINE
  5
3B6
100
AcDbEntity
  8
0
  6
Continuous
 62
               4
100
AcDbLine
 10
386.14746436972416
 20
874.88885447698499
 30
0.0
 11
386.14746436972416
 21
943.88885447698476
 31
0.0
  0
LINE
  5
3B7
100
AcDbEntity
  8
0
  6
Continuous
 62
               4
100
AcDbLine
 10
419.14746436972462
 20
876.88885447698499
 30
0.0
 11
386.14746436972416
 21
876.88885447698499
 31
0.0
  0
LINE
  5
3B8
100
AcDbEntity
  8
0
  6
Continuous
 62
               4
100
AcDbLine
 10
342.14746436972416
 20
948.88885447698476
 30
0.0
 11
383.14746436972416
 21
948.88885447698476
 31
0.0
  0
LINE
  5
3B9
100
AcDbEntity
  8
0
  6
Continuous
 62
               4
100
AcDbLine
 10
356.14746436972416
 20
985.88885447698499
 30
0.0
 11
435.14746436972462
 21
985.88885447698499
 31
0.0
  0
LINE
  5
3BA
100
AcDbEntity
  8
0
  6
Continuous
 62
               4
100
AcDbLine
 10
358.14746436972416
 20
948.88885447698476
 30
0.0
 11
358.14746436972416
 21
985.88885447698499
 31
0.0
  0
LINE
  5
3BB
100
AcDbEntity
  8
0
  6
Continuous
 62
               4
100
AcDbLine
 10
342.14746436972416
 20
1003.888854476985
 30
0.0
 11
382.14746436972462
 21
1003.888854476985
 31
0.0
  0
LINE
  5
3BC
100
AcDbEntity
  8
0
  6
Continuous
 62
               4
100
AcDbLine
 10
358.14746436972416
 20
985.88885447698499
 30
0.0
 11
358.14746436972416
 21
1003.888854476985
 31
0.0
  0
LINE
  5
3BD
100
AcDbEntity
  8
0
  6
Continuous
 62
               4
100
AcDbLine
 10
344.14746436972416
 20
948.88885447698476
 30
0.0
 11
344.14746436972416
 21
1003.888854476985
 31
0.0
  0
LINE
  5
3BE
100
AcDbEntity
  8
0
  6
Continuous
 62
               4
100
AcDbLine
 10
342.14746436972416
 20
1010.888854476985
 30
0.0
 11
865.14746436972439
 21
1010.888854476985
 31
0.0
  0
LINE
  5
3BF
100
AcDbEntity
  8
0
  6
Continuous
 62
               4
100
AcDbLine
 10
344.14746436972416
 20
1003.888854476985
 30
0.0
 11
344.14746436972416
 21
1010.888854476985
 31
0.0
  0
LINE
  5
3C0
100
AcDbEntity
  8
0
  6
Continuous
 62
               4
100
AcDbLine
 10
839.14746436972439
 20
1025.888854476985
 30
0.0
 11
866.14746436972439
 21
1025.888854476985
 31
0.0
  0
LINE
  5
3C1
100
AcDbEntity
  8
0
  6
Continuous
 62
               4
100
AcDbLine
 10
841.14746436972439
 20
1010.888854476985
 30
0.0
 11
841.14746436972439
 21
1025.888854476985
 31
0.0
  0
LINE
  5
3C2
100
AcDbEntity
  8
0
  6
Continuous
 62
               4
100
AcDbLine
 10
886.14746436972484
 20
874.88885447698499
 30
0.0
 11
886.14746436972484
 21
946.88885447698476
 31
0.0
  0
LINE
  5
3C3
100
AcDbEntity
  8
0
  6
Continuous
 62
               4
100
AcDbLine
 10
858.14746436972462
 20
876.88885447698499
 30
0.0
 11
886.14746436972484
 21
876.88885447698499
 31
0.0
  0
LINE
  5
3C4
100
AcDbEntity
  8
0
  6
Continuous
 62
               4
100
AcDbLine
 10
889.14746436972462
 20
1025.888854476985
 30
0.0
 11
944.14746436972484
 21
1025.888854476985
 31
0.0
  0
LINE
  5
3C5
100
AcDbEntity
  8
0
  6
Continuous
 62
               4
100
AcDbLine
 10
839.14746436972462
 20
984.88885447698499
 30
0.0
 11
930.14746436972484
 21
984.88885447698499
 31
0.0
  0
LINE
  5
3C6
100
AcDbEntity
  8
0
  6
Continuous
 62
               4
100
AcDbLine
 10
928.14746436972484
 20
1025.888854476985
 30
0.0
 11
928.14746436972484
 21
984.88885447698499
 31
0.0
  0
LINE
  5
3C7
100
AcDbEntity
  8
0
  6
Continuous
 62
               4
100
AcDbLine
 10
839.14746436972462
 20
984.88885447698499
 30
0.0
 11
930.14746436972484
 21
984.88885447698499
 31
0.0
  0
LINE
  5
3C8
100
AcDbEntity
  8
0
  6
Continuous
 62
               4
100
AcDbLine
 10
889.14746436972484
 20
950.88885447698476
 30
0.0
 11
944.14746436972484
 21
950.88885447698476
 31
0.0
  0
LINE
  5
3C9
100
AcDbEntity
  8
0
  6
Continuous
 62
               4
100
AcDbLine
 10
928.14746436972484
 20
984.88885447698499
 30
0.0
 11
928.14746436972484
 21
950.88885447698476
 31
0.0
  0
LINE
  5
3CA
100
AcDbEntity
  8
0
  6
Continuous
 62
               4
100
AcDbLine
 10
942.14746436972484
 20
950.88885447698476
 30
0.0
 11
942.14746436972484
 21
1025.888854476985
 31
0.0
  0
LINE
  5
3CB
100
AcDbEntity
  8
0
  6
Continuous
 62
               4
100
AcDbLine
 10
886.14746436972484
 20
1028.888854476985
 30
0.0
 11
886.14746436972484
 21
1055.888854476985
 31
0.0
  0
LINE
  5
3CC
100
AcDbEntity
  8
0
  6
Continuous
 62
               4
100
AcDbLine
 10
386.14746436972462
 20
1006.9032422161683
 30
0.0
 11
386.14746436972462
 21
1055.888854476985
 31
0.0
  0
LINE
  5
3CD
100
AcDbEntity
  8
0
  6
Continuous
 62
               4
100
AcDbLine
 10
886.14746436972484
 20
1053.888854476985
 30
0.0
 11
386.14746436972462
 21
1053.888854476985
 31
0.0
  0
LINE
  5
3CE
100
AcDbEntity
  8
0
  6
Continuous
 62
               4
100
AcDbLine
 10
648.9124243080081
 20
956.68526628466839
 30
0.0
 11
624.78125469968165
 21
914.88885447698499
 31
0.0
  0
LINE
  5
3CF
100
AcDbEntity
  8
0
  6
Continuous
 62
               4
100
AcDbLine
 10
525.65567507800949
 20
914.88885447698499
 30
0.0
 11
624.78125469968165
 21
914.88885447698499
 31
0.0
  0
LINE
  5
3D0
100
AcDbEntity
  8
0
  6
Continuous
 62
               4
100
AcDbLine
 10
648.9124243080081
 20
956.68526628466839
 30
0.0
 11
647.35951003739285
 21
950.88971132693382
 31
0.0
  0
LINE
  5
3D1
100
AcDbEntity
  8
0
  6
Continuous
 62
               4
100
AcDbLine
 10
648.9124243080081
 20
956.68526628466839
 30
0.0
 11
644.66978362088878
 21
952.44262559754907
 31
0.0
  0
LINE
  5
3D2
100
AcDbEntity
  8
0
  6
Continuous
 62
               4
100
AcDbLine
 10
869.14746436972439
 20
1028.888854476985
 30
0.0
 11
869.14746436972439
 21
1041.888854476985
 31
0.0
  0
LINE
  5
3D3
100
AcDbEntity
  8
0
  6
Continuous
 62
               4
100
AcDbLine
 10
886.14746436972484
 20
1039.888854476985
 30
0.0
 11
869.14746436972439
 21
1039.888854476985
 31
0.0
  0
LINE
  5
3D4
100
AcDbEntity
  8
0
  6
Continuous
 62
               6
100
AcDbLine
 10
815.14746436972484
 20
754.88885447698499
 30
0.0
 11
815.14746436972484
 21
767.38885447698499
 31
0.0
  0
LINE
  5
3D5
100
AcDbEntity
  8
0
  6
Continuous
 62
               6
100
AcDbLine
 10
822.14746436972484
 20
754.88885447698499
 30
0.0
 11
822.14746436972484
 21
767.38885447698499
 31
0.0
  0
LINE
  5
3D6
100
AcDbEntity
  8
0
  6
Continuous
 62
               6
100
AcDbLine
 10
815.14746436972484
 20
767.38885447698499
 30
0.0
 11
822.14746436972484
 21
767.38885447698499
 31
0.0
  0
LINE
  5
3D7
100
AcDbEntity
  8
0
  6
Continuous
 62
               6
100
AcDbLine
 10
815.14746436972484
 20
754.88885447698499
 30
0.0
 11
822.14746436972484
 21
754.88885447698499
 31
0.0
  0
LINE
  5
3D8
100
AcDbEntity
  8
0
  6
Continuous
 62
               6
100
AcDbLine
 10
829.14746436972484
 20
754.88885447698499
 30
0.0
 11
829.14746436972484
 21
765.80191165060887
 31
0.0
  0
LINE
  5
3D9
100
AcDbEntity
  8
0
  6
Continuous
 62
               6
100
AcDbLine
 10
822.14746436972484
 20
756.3060266321886
 30
0.0
 11
820.73029221452146
 21
754.88885447698499
 31
0.0
  0
LINE
  5
3DA
100
AcDbEntity
  8
0
  6
Continuous
 62
               6
100
AcDbLine
 10
822.14746436972484
 20
759.13445375693459
 30
0.0
 11
817.90186508977524
 21
754.88885447698499
 31
0.0
  0
LINE
  5
3DB
100
AcDbEntity
  8
0
  6
Continuous
 62
               6
100
AcDbLine
 10
822.14746436972484
 20
761.9628808816808
 30
0.0
 11
815.14746436972484
 21
754.9628808816808
 31
0.0
  0
LINE
  5
3DC
100
AcDbEntity
  8
0
  6
Continuous
 62
               6
100
AcDbLine
 10
822.14746436972484
 20
764.79130800642702
 30
0.0
 11
815.14746436972484
 21
757.79130800642702
 31
0.0
  0
LINE
  5
3DD
100
AcDbEntity
  8
0
  6
Continuous
 62
               6
100
AcDbLine
 10
821.9165837155366
 20
767.38885447698499
 30
0.0
 11
815.14746436972484
 21
760.61973513117323
 31
0.0
  0
LINE
  5
3DE
100
AcDbEntity
  8
0
  6
Continuous
 62
               6
100
AcDbLine
 10
819.08815659079039
 20
767.38885447698499
 30
0.0
 11
815.14746436972484
 21
763.44816225591944
 31
0.0
  0
LINE
  5
3DF
100
AcDbEntity
  8
0
  6
Continuous
 62
               6
100
AcDbLine
 10
816.25972946604418
 20
767.38885447698499
 30
0.0
 11
815.14746436972484
 21
766.27658938066565
 31
0.0
  0
LINE
  5
3E0
100
AcDbEntity
  8
0
  6
Continuous
 62
               6
100
AcDbLine
 10
817.90186508977524
 20
754.88885447698499
 30
0.0
 11
815.14746436972484
 21
757.64325519703539
 31
0.0
  0
LINE
  5
3E1
100
AcDbEntity
  8
0
  6
Continuous
 62
               6
100
AcDbLine
 10
820.73029221452146
 20
754.88885447698499
 30
0.0
 11
815.14746436972484
 21
760.4716823217816
 31
0.0
  0
LINE
  5
3E2
100
AcDbEntity
  8
0
  6
Continuous
 62
               6
100
AcDbLine
 10
822.14746436972484
 20
756.30010944652781
 30
0.0
 11
815.14746436972484
 21
763.30010944652781
 31
0.0
  0
LINE
  5
3E3
100
AcDbEntity
  8
0
  6
Continuous
 62
               6
100
AcDbLine
 10
822.14746436972484
 20
759.12853657127403
 30
0.0
 11
815.14746436972484
 21
766.12853657127403
 31
0.0
  0
LINE
  5
3E4
100
AcDbEntity
  8
0
  6
Continuous
 62
               6
100
AcDbLine
 10
822.14746436972484
 20
761.95696369602024
 30
0.0
 11
816.71557358876009
 21
767.38885447698499
 31
0.0
  0
LINE
  5
3E5
100
AcDbEntity
  8
0
  6
Continuous
 62
               6
100
AcDbLine
 10
822.14746436972484
 20
764.78539082076622
 30
0.0
 11
819.54400071350631
 21
767.38885447698499
 31
0.0
  0
LINE
  5
3E6
100
AcDbEntity
  8
0
  6
Continuous
 62
               6
100
AcDbLine
 10
836.14746436972462
 20
644.41970770075659
 30
0.0
 11
836.14746436972462
 21
652.88885447698499
 31
0.0
  0
LINE
  5
3E7
100
AcDbEntity
  8
0
  6
Continuous
 62
               6
100
AcDbLine
 10
829.14746436972462
 20
654.88885447698499
 30
0.0
 11
838.14746436972462
 21
654.88885447698499
 31
0.0
  0
LINE
  5
3E8
100
AcDbEntity
  8
0
  6
Continuous
 62
               6
100
AcDbLine
 10
836.14746436972462
 20
645.60963386340654
 30
0.0
 11
833.7092601356627
 21
643.17142962934463
 31
0.0
  0
LINE
  5
3E9
100
AcDbEntity
  8
0
  6
Continuous
 62
               6
100
AcDbLine
 10
836.14746436972462
 20
648.43806098815276
 30
0.0
 11
831.30480357627778
 21
643.59540019470569
 31
0.0
  0
LINE
  5
3EA
100
AcDbEntity
  8
0
  6
Continuous
 62
               6
100
AcDbLine
 10
836.14746436972462
 20
651.26648811289874
 30
0.0
 11
829.14746436972462
 21
644.26648811289897
 31
0.0
  0
LINE
  5
3EB
100
AcDbEntity
  8
0
  6
Continuous
 62
               6
100
AcDbLine
 10
836.94140360906465
 20
654.88885447698499
 30
0.0
 11
829.14746436972462
 21
647.09491523764495
 31
0.0
  0
LINE
  5
3EC
100
AcDbEntity
  8
0
  6
Continuous
 62
               6
100
AcDbLine
 10
834.11297648431844
 20
654.88885447698499
 30
0.0
 11
829.14746436972462
 21
649.92334236239117
 31
0.0
  0
LINE
  5
3ED
100
AcDbEntity
  8
0
  6
Continuous
 62
               6
100
AcDbLine
 10
831.28454935957222
 20
654.88885447698499
 30
0.0
 11
829.14746436972462
 21
652.75176948713738
 31
0.0
  0
LINE
  5
3EE
100
AcDbEntity
  8
0
  6
Continuous
 62
               6
100
AcDbLine
 10
830.7501975297788
 20
643.69319220436751
 30
0.0
 11
829.14746436972462
 21
645.29592536442169
 31
0.0
  0
LINE
  5
3EF
100
AcDbEntity
  8
0
  6
Continuous
 62
               6
100
AcDbLine
 10
834.18411737236272
 20
643.0876994865298
 30
0.0
 11
829.14746436972462
 21
648.1243524891679
 31
0.0
  0
LINE
  5
3F0
100
AcDbEntity
  8
0
  6
Continuous
 62
               6
100
AcDbLine
 10
829.14746436972462
 20
650.95277961391412
 30
0.0
 11
836.23901337515474
 21
643.86123060848399
 31
0.0
  0
LINE
  5
3F1
100
AcDbEntity
  8
0
  6
Continuous
 62
               6
100
AcDbLine
 10
836.14746436972462
 20
646.7812067386601
 30
0.0
 11
829.14746436972462
 21
653.7812067386601
 31
0.0
  0
LINE
  5
3F2
100
AcDbEntity
  8
0
  6
Continuous
 62
               6
100
AcDbLine
 10
836.14746436972462
 20
649.60963386340632
 30
0.0
 11
830.86824375614617
 21
654.88885447698499
 31
0.0
  0
LINE
  5
3F3
100
AcDbEntity
  8
0
  6
Continuous
 62
               6
100
AcDbLine
 10
836.14746436972462
 20
652.43806098815253
 30
0.0
 11
833.69667088089238
 21
654.88885447698499
 31
0.0
  0
LINE
  5
3F4
100
AcDbEntity
  8
0
  6
Continuous
 62
               6
100
AcDbLine
 10
836.93472911613492
 20
654.47922336648844
 30
0.0
 11
836.52509800563837
 21
654.88885447698499
 31
0.0
  0
LINE
  5
3F5
100
AcDbEntity
  8
0
  6
Continuous
 62
               6
100
AcDbLine
 10
815.14746436972462
 20
654.88885447698499
 30
0.0
 11
815.14746436972462
 21
642.38885447698499
 31
0.0
  0
LINE
  5
3F6
100
AcDbEntity
  8
0
  6
Continuous
 62
               6
100
AcDbLine
 10
822.14746436972462
 20
654.88885447698499
 30
0.0
 11
822.14746436972462
 21
642.38885447698499
 31
0.0
  0
LINE
  5
3F7
100
AcDbEntity
  8
0
  6
Continuous
 62
               6
100
AcDbLine
 10
815.14746436972462
 20
642.38885447698499
 30
0.0
 11
822.14746436972462
 21
642.38885447698499
 31
0.0
  0
LINE
  5
3F8
100
AcDbEntity
  8
0
  6
Continuous
 62
               6
100
AcDbLine
 10
815.14746436972462
 20
654.88885447698499
 30
0.0
 11
822.14746436972462
 21
654.88885447698499
 31
0.0
  0
LINE
  5
3F9
100
AcDbEntity
  8
0
  6
Continuous
 62
               6
100
AcDbLine
 10
829.14746436972462
 20
654.88885447698499
 30
0.0
 11
829.14746436972462
 21
643.97579730336111
 31
0.0
  0
LINE
  5
3FA
100
AcDbEntity
  8
0
  6
Continuous
 62
               6
100
AcDbLine
 10
822.14746436972462
 20
653.4716823217816
 30
0.0
 11
820.73029221452123
 21
654.88885447698499
 31
0.0
  0
LINE
  5
3FB
100
AcDbEntity
  8
0
  6
Continuous
 62
               6
100
AcDbLine
 10
822.14746436972462
 20
650.64325519703539
 30
0.0
 11
817.90186508977501
 21
654.88885447698499
 31
0.0
  0
LINE
  5
3FC
100
AcDbEntity
  8
0
  6
Continuous
 62
               6
100
AcDbLine
 10
822.14746436972462
 20
647.81482807228917
 30
0.0
 11
815.14746436972462
 21
654.81482807228917
 31
0.0
  0
LINE
  5
3FD
100
AcDbEntity
  8
0
  6
Continuous
 62
               6
100
AcDbLine
 10
822.14746436972462
 20
644.98640094754296
 30
0.0
 11
815.14746436972462
 21
651.98640094754296
 31
0.0
  0
LINE
  5
3FE
100
AcDbEntity
  8
0
  6
Continuous
 62
               6
100
AcDbLine
 10
821.91658371553638
 20
642.38885447698499
 30
0.0
 11
815.14746436972462
 21
649.15797382279675
 31
0.0
  0
LINE
  5
3FF
100
AcDbEntity
  8
0
  6
Continuous
 62
               6
100
AcDbLine
 10
819.08815659079016
 20
642.38885447698499
 30
0.0
 11
815.14746436972462
 21
646.32954669805054
 31
0.0
  0
LINE
  5
400
100
AcDbEntity
  8
0
  6
Continuous
 62
               6
100
AcDbLine
 10
816.25972946604418
 20
642.38885447698499
 30
0.0
 11
815.14746436972462
 21
643.50111957330432
 31
0.0
  0
LINE
  5
401
100
AcDbEntity
  8
0
  6
Continuous
 62
               6
100
AcDbLine
 10
817.90186508977501
 20
654.88885447698499
 30
0.0
 11
815.14746436972462
 21
652.13445375693459
 31
0.0
  0
LINE
  5
402
100
AcDbEntity
  8
0
  6
Continuous
 62
               6
100
AcDbLine
 10
820.73029221452123
 20
654.88885447698499
 30
0.0
 11
815.14746436972462
 21
649.30602663218838
 31
0.0
  0
LINE
  5
403
100
AcDbEntity
  8
0
  6
Continuous
 62
               6
100
AcDbLine
 10
822.14746436972462
 20
653.47759950744239
 30
0.0
 11
815.14746436972462
 21
646.47759950744239
 31
0.0
  0
LINE
  5
404
100
AcDbEntity
  8
0
  6
Continuous
 62
               6
100
AcDbLine
 10
822.14746436972462
 20
650.64917238269618
 30
0.0
 11
815.14746436972462
 21
643.64917238269618
 31
0.0
  0
LINE
  5
405
100
AcDbEntity
  8
0
  6
Continuous
 62
               6
100
AcDbLine
 10
822.14746436972462
 20
647.82074525794997
 30
0.0
 11
816.71557358875964
 21
642.38885447698499
 31
0.0
  0
LINE
  5
406
100
AcDbEntity
  8
0
  6
Continuous
 62
               6
100
AcDbLine
 10
822.14746436972462
 20
644.99231813320375
 30
0.0
 11
819.54400071350585
 21
642.38885447698499
 31
0.0
  0
LINE
  5
407
100
AcDbEntity
  8
0
  6
Continuous
 62
               2
100
AcDbLine
 10
818.45130930948073
 20
645.86181803032355
 30
0.0
 11
838.14746436972484
 21
642.38885447698499
 31
0.0
  0
LINE
  5
408
100
AcDbEntity
  8
0
  6
DASHED
 62
               6
100
AcDbLine
 10
835.64746436972462
 20
985.88885447698499
 30
0.0
 11
744.14746436972462
 21
985.88885447698499
 31
0.0
  0
LINE
  5
409
100
AcDbEntity
  8
0
  6
DASHED
 62
               6
100
AcDbLine
 10
713.33361750135157
 20
988.4888544769849
 30
0.0
 11
739.14746436972462
 21
988.4888544769849
 31
0.0
  0
LINE
  5
40A
100
AcDbEntity
  8
0
  6
DASHED
 62
               6
100
AcDbLine
 10
739.14746436972462
 20
988.4888544769849
 30
0.0
 11
744.14746436972462
 21
985.88885447698499
 31
0.0
  0
LINE
  5
40B
100
AcDbEntity
  8
0
  6
DASHED
 62
               6
100
AcDbLine
 10
435.95507621429942
 20
995.88885447698499
 30
0.0
 11
609.27056999534227
 21
995.88885447698499
 31
0.0
  0
LINE
  5
40C
100
AcDbEntity
  8
0
  6
DASHED
 62
               6
100
AcDbLine
 10
609.27056999534227
 20
995.88885447698499
 30
0.0
 11
633.44579863639558
 21
989.84504731672178
 31
0.0
  0
LINE
  5
40D
100
AcDbEntity
  8
0
  6
DASHED
 62
               6
100
AcDbLine
 10
432.41954230836666
 20
994.42438838291787
 30
0.0
 11
418.08680419794473
 21
980.09165027249583
 31
0.0
  0
CIRCLE
  5
40E
100
AcDbEntity
  8
0
  6
Continuous
 62
               4
100
AcDbCircle
 10
309.14746436972462
 20
202.8888544769851
 30
0.0
 40
1.0
  0
CIRCLE
  5
40F
100
AcDbEntity
  8
0
  6
Continuous
 62
               4
100
AcDbCircle
 10
759.14746436972462
 20
202.8888544769851
 30
0.0
 40
1.0
  0
CIRCLE
  5
410
100
AcDbEntity
  8
0
  6
Continuous
 62
               4
100
AcDbCircle
 10
759.14746436972462
 20
216.88885447698505
 30
0.0
 40
1.0
  0
CIRCLE
  5
411
100
AcDbEntity
  8
0
  6
Continuous
 62
               4
100
AcDbCircle
 10
684.14746436972439
 20
216.88885447698505
 30
0.0
 40
1.0
  0
CIRCLE
  5
412
100
AcDbEntity
  8
0
  6
Continuous
 62
               4
100
AcDbCircle
 10
684.14746436972439
 20
216.88885447698505
 30
0.0
 40
1.0
  0
CIRCLE
  5
413
100
AcDbEntity
  8
0
  6
Continuous
 62
               4
100
AcDbCircle
 10
309.14746436972462
 20
216.88885447698505
 30
0.0
 40
1.0
  0
CIRCLE
  5
414
100
AcDbEntity
  8
0
  6
Continuous
 62
               4
100
AcDbCircle
 10
684.14746436972462
 20
278.88885447698505
 30
0.0
 40
1.0
  0
CIRCLE
  5
415
100
AcDbEntity
  8
0
  6
Continuous
 62
               4
100
AcDbCircle
 10
709.14746436972462
 20
278.88885447698505
 30
0.0
 40
1.0
  0
CIRCLE
  5
416
100
AcDbEntity
  8
0
  6
Continuous
 62
               4
100
AcDbCircle
 10
192.1474643697245
 20
799.88885447698499
 30
0.0
 40
1.0
  0
CIRCLE
  5
417
100
AcDbEntity
  8
0
  6
Continuous
 62
               4
100
AcDbCircle
 10
192.1474643697245
 20
669.88885447698499
 30
0.0
 40
1.0
  0
CIRCLE
  5
418
100
AcDbEntity
  8
0
  6
Continuous
 62
               4
100
AcDbCircle
 10
192.1474643697245
 20
669.88885447698499
 30
0.0
 40
1.0
  0
CIRCLE
  5
419
100
AcDbEntity
  8
0
  6
Continuous
 62
               4
100
AcDbCircle
 10
192.1474643697245
 20
469.88885447698505
 30
0.0
 40
1.0
  0
CIRCLE
  5
41A
100
AcDbEntity
  8
0
  6
Continuous
 62
               4
100
AcDbCircle
 10
164.1474643697245
 20
799.88885447698499
 30
0.0
 40
1.0
  0
CIRCLE
  5
41B
100
AcDbEntity
  8
0
  6
Continuous
 62
               4
100
AcDbCircle
 10
164.1474643697245
 20
594.88885447698499
 30
0.0
 40
1.0
  0
CIRCLE
  5
41C
100
AcDbEntity
  8
0
  6
Continuous
 62
               4
100
AcDbCircle
 10
429.14746436972462
 20
876.88885447698499
 30
0.0
 40
1.0
  0
CIRCLE
  5
41D
100
AcDbEntity
  8
0
  6
Continuous
 62
               4
100
AcDbCircle
 10
629.14746436972462
 20
876.88885447698499
 30
0.0
 40
1.0
  0
CIRCLE
  5
41E
100
AcDbEntity
  8
0
  6
Continuous
 62
               4
100
AcDbCircle
 10
629.14746436972462
 20
876.88885447698499
 30
0.0
 40
1.0
  0
CIRCLE
  5
41F
100
AcDbEntity
  8
0
  6
Continuous
 62
               4
100
AcDbCircle
 10
709.14746436972462
 20
876.88885447698499
 30
0.0
 40
1.0
  0
CIRCLE
  5
420
100
AcDbEntity
  8
0
  6
Continuous
 62
               4
100
AcDbCircle
 10
309.14746436972462
 20
539.88885447698499
 30
0.0
 40
1.0
  0
CIRCLE
  5
421
100
AcDbEntity
  8
0
  6
Continuous
 62
               4
100
AcDbCircle
 10
709.14746436972462
 20
539.88885447698499
 30
0.0
 40
1.0
  0
CIRCLE
  5
422
100
AcDbEntity
  8
0
  6
Continuous
 62
               4
100
AcDbCircle
 10
709.14746436972462
 20
539.88885447698499
 30
0.0
 40
1.0
  0
CIRCLE
  5
423
100
AcDbEntity
  8
0
  6
Continuous
 62
               4
100
AcDbCircle
 10
809.14746436972462
 20
539.88885447698499
 30
0.0
 40
1.0
  0
CIRCLE
  5
424
100
AcDbEntity
  8
0
  6
Continuous
 62
               4
100
AcDbCircle
 10
809.14746436972462
 20
539.88885447698499
 30
0.0
 40
1.0
  0
CIRCLE
  5
425
100
AcDbEntity
  8
0
  6
Continuous
 62
               4
100
AcDbCircle
 10
838.14746436972462
 20
539.88885447698499
 30
0.0
 40
1.0
  0
CIRCLE
  5
426
100
AcDbEntity
  8
0
  6
Continuous
 62
               4
100
AcDbCircle
 10
838.14746436972462
 20
539.88885447698499
 30
0.0
 40
1.0
  0
CIRCLE
  5
427
100
AcDbEntity
  8
0
  6
Continuous
 62
               4
100
AcDbCircle
 10
858.14746436972462
 20
539.88885447698499
 30
0.0
 40
1.0
  0
CIRCLE
  5
428
100
AcDbEntity
  8
0
  6
Continuous
 62
               4
100
AcDbCircle
 10
709.14746436972462
 20
525.88885447698499
 30
0.0
 40
1.0
  0
CIRCLE
  5
429
100
AcDbEntity
  8
0
  6
Continuous
 62
               4
100
AcDbCircle
 10
759.14746436972462
 20
525.88885447698499
 30
0.0
 40
1.0
  0
CIRCLE
  5
42A
100
AcDbEntity
  8
0
  6
Continuous
 62
               4
100
AcDbCircle
 10
759.14746436972462
 20
525.88885447698499
 30
0.0
 40
1.0
  0
CIRCLE
  5
42B
100
AcDbEntity
  8
0
  6
Continuous
 62
               4
100
AcDbCircle
 10
809.14746436972462
 20
525.88885447698499
 30
0.0
 40
1.0
  0
CIRCLE
  5
42C
100
AcDbEntity
  8
0
  6
Continuous
 62
               4
100
AcDbCircle
 10
809.14746436972462
 20
525.88885447698499
 30
0.0
 40
1.0
  0
CIRCLE
  5
42D
100
AcDbEntity
  8
0
  6
Continuous
 62
               4
100
AcDbCircle
 10
829.14746436972462
 20
525.88885447698499
 30
0.0
 40
1.0
  0
CIRCLE
  5
42E
100
AcDbEntity
  8
0
  6
Continuous
 62
               4
100
AcDbCircle
 10
829.14746436972462
 20
525.88885447698499
 30
0.0
 40
1.0
  0
CIRCLE
  5
42F
100
AcDbEntity
  8
0
  6
Continuous
 62
               4
100
AcDbCircle
 10
835.14746436972462
 20
525.88885447698499
 30
0.0
 40
1.0
  0
CIRCLE
  5
430
100
AcDbEntity
  8
0
  6
Continuous
 62
               4
100
AcDbCircle
 10
819.14746436972462
 20
434.88885447698505
 30
0.0
 40
1.0
  0
CIRCLE
  5
431
100
AcDbEntity
  8
0
  6
Continuous
 62
               4
100
AcDbCircle
 10
832.14746436972462
 20
434.88885447698505
 30
0.0
 40
1.0
  0
CIRCLE
  5
432
100
AcDbEntity
  8
0
  6
Continuous
 62
               4
100
AcDbCircle
 10
836.64746436972462
 20
434.88885447698505
 30
0.0
 40
1.0
  0
CIRCLE
  5
433
100
AcDbEntity
  8
0
  6
Continuous
 62
               4
100
AcDbCircle
 10
838.14746436972462
 20
434.88885447698505
 30
0.0
 40
1.0
  0
CIRCLE
  5
434
100
AcDbEntity
  8
0
  6
Continuous
 62
               4
100
AcDbCircle
 10
309.14746436972462
 20
1084.8888542963884
 30
0.0
 40
14.0
  0
CIRCLE
  5
435
100
AcDbEntity
  8
0
  6
Continuous
 62
               4
100
AcDbCircle
 10
907.14746436972484
 20
986.38885447698499
 30
0.0
 40
1.0
  0
CIRCLE
  5
436
100
AcDbEntity
  8
0
  6
Continuous
 62
               4
100
AcDbCircle
 10
907.14746436972484
 20
936.38885447698499
 30
0.0
 40
1.0
  0
CIRCLE
  5
437
100
AcDbEntity
  8
0
  6
Continuous
 62
               4
100
AcDbCircle
 10
894.64746436972484
 20
642.38885447698499
 30
0.0
 40
1.0
  0
CIRCLE
  5
438
100
AcDbEntity
  8
0
  6
Continuous
 62
               4
100
AcDbCircle
 10
894.64746436972484
 20
654.88885447698499
 30
0.0
 40
1.0
  0
CIRCLE
  5
439
100
AcDbEntity
  8
0
  6
Continuous
 62
               4
100
AcDbCircle
 10
894.64746436972484
 20
654.88885447698499
 30
0.0
 40
1.0
  0
CIRCLE
  5
43A
100
AcDbEntity
  8
0
  6
Continuous
 62
               4
100
AcDbCircle
 10
894.64746436972484
 20
754.88885447698499
 30
0.0
 40
1.0
  0
CIRCLE
  5
43B
100
AcDbEntity
  8
0
  6
Continuous
 62
               4
100
AcDbCircle
 10
894.64746436972484
 20
754.88885447698499
 30
0.0
 40
1.0
  0
CIRCLE
  5
43C
100
AcDbEntity
  8
0
  6
Continuous
 62
               4
100
AcDbCircle
 10
894.64746436972484
 20
767.38885447698499
 30
0.0
 40
1.0
  0
CIRCLE
  5
43D
100
AcDbEntity
  8
0
  6
Continuous
 62
               7
100
AcDbCircle
 10
1473.1474643697243
 20
704.88885447698499
 30
0.0
 40
50.0
  0
CIRCLE
  5
43E
100
AcDbEntity
  8
0
  6
Continuous
 62
               4
100
AcDbCircle
 10
1360.6474643697243
 20
802.88885447698499
 30
0.0
 40
1.0
  0
CIRCLE
  5
43F
100
AcDbEntity
  8
0
  6
Continuous
 62
               4
100
AcDbCircle
 10
1585.6474643697238
 20
802.88885447698499
 30
0.0
 40
1.0
  0
CIRCLE
  5
440
100
AcDbEntity
  8
0
  6
Continuous
 62
               4
100
AcDbCircle
 10
1360.6474643697243
 20
788.88885447698499
 30
0.0
 40
1.0
  0
CIRCLE
  5
441
100
AcDbEntity
  8
0
  6
Continuous
 62
               4
100
AcDbCircle
 10
1473.1474643697243
 20
788.88885447698499
 30
0.0
 40
1.0
  0
CIRCLE
  5
442
100
AcDbEntity
  8
0
  6
Continuous
 62
               4
100
AcDbCircle
 10
1412.777095496439
 20
688.71268181149412
 30
0.0
 40
1.0
  0
CIRCLE
  5
443
100
AcDbEntity
  8
0
  6
Continuous
 62
               4
100
AcDbCircle
 10
1424.8511683250522
 20
691.94791987527583
 30
0.0
 40
1.0
  0
CIRCLE
  5
444
100
AcDbEntity
  8
0
  6
Continuous
 62
               4
100
AcDbCircle
 10
1521.4437509539594
 20
717.82982438552767
 30
0.0
 40
1.0
  0
CIRCLE
  5
445
100
AcDbEntity
  8
0
  6
Continuous
 62
               4
100
AcDbCircle
 10
1533.517823782573
 20
721.06506244930938
 30
0.0
 40
1.0
  0
CIRCLE
  5
446
100
AcDbEntity
  8
0
  6
Continuous
 62
               4
100
AcDbCircle
 10
1585.6474643697238
 20
788.88885447698499
 30
0.0
 40
1.0
  0
CIRCLE
  5
447
100
AcDbEntity
  8
0
  6
Continuous
 62
               4
100
AcDbCircle
 10
1473.1474643697243
 20
788.88885447698499
 30
0.0
 40
1.0
  0
CIRCLE
  5
448
100
AcDbEntity
  8
0
  6
Continuous
 62
               2
100
AcDbCircle
 10
1473.1474643697243
 20
704.88885447698499
 30
0.0
 40
62.5
  0
CIRCLE
  5
449
100
AcDbEntity
  8
0
  6
Continuous
 62
               4
100
AcDbCircle
 10
709.14746436972462
 20
876.88885447698499
 30
0.0
 40
1.0
  0
CIRCLE
  5
44A
100
AcDbEntity
  8
0
  6
Continuous
 62
               4
100
AcDbCircle
 10
809.14746436972462
 20
876.88885447698499
 30
0.0
 40
1.0
  0
CIRCLE
  5
44B
100
AcDbEntity
  8
0
  6
Continuous
 62
               4
100
AcDbCircle
 10
809.14746436972462
 20
876.88885447698499
 30
0.0
 40
1.0
  0
CIRCLE
  5
44C
100
AcDbEntity
  8
0
  6
Continuous
 62
               4
100
AcDbCircle
 10
838.14746436972462
 20
876.88885447698499
 30
0.0
 40
1.0
  0
CIRCLE
  5
44D
100
AcDbEntity
  8
0
  6
Continuous
 62
               4
100
AcDbCircle
 10
838.14746436972462
 20
876.88885447698499
 30
0.0
 40
1.0
  0
CIRCLE
  5
44E
100
AcDbEntity
  8
0
  6
Continuous
 62
               4
100
AcDbCircle
 10
858.14746436972462
 20
876.88885447698499
 30
0.0
 40
1.0
  0
CIRCLE
  5
44F
100
AcDbEntity
  8
0
  6
Continuous
 62
               4
100
AcDbCircle
 10
220.1474643697245
 20
669.88885447698499
 30
0.0
 40
1.0
  0
CIRCLE
  5
450
100
AcDbEntity
  8
0
  6
Continuous
 62
               4
100
AcDbCircle
 10
220.1474643697245
 20
679.88885447698499
 30
0.0
 40
1.0
  0
CIRCLE
  5
451
100
AcDbEntity
  8
0
  6
Continuous
 62
               4
100
AcDbCircle
 10
220.1474643697245
 20
679.88885447698499
 30
0.0
 40
1.0
  0
CIRCLE
  5
452
100
AcDbEntity
  8
0
  6
Continuous
 62
               4
100
AcDbCircle
 10
220.1474643697245
 20
729.88885447698499
 30
0.0
 40
1.0
  0
CIRCLE
  5
453
100
AcDbEntity
  8
0
  6
Continuous
 62
               4
100
AcDbCircle
 10
220.1474643697245
 20
729.88885447698499
 30
0.0
 40
1.0
  0
CIRCLE
  5
454
100
AcDbEntity
  8
0
  6
Continuous
 62
               4
100
AcDbCircle
 10
220.1474643697245
 20
799.88885447698499
 30
0.0
 40
1.0
  0
CIRCLE
  5
455
100
AcDbEntity
  8
0
  6
Continuous
 62
               4
100
AcDbCircle
 10
429.14746436972462
 20
876.88885447698499
 30
0.0
 40
1.0
  0
CIRCLE
  5
456
100
AcDbEntity
  8
0
  6
Continuous
 62
               4
100
AcDbCircle
 10
419.14746436972462
 20
876.88885447698499
 30
0.0
 40
1.0
  0
CIRCLE
  5
457
100
AcDbEntity
  8
0
  6
Continuous
 62
               4
100
AcDbCircle
 10
419.14746436972462
 20
876.88885447698499
 30
0.0
 40
1.0
  0
CIRCLE
  5
458
100
AcDbEntity
  8
0
  6
Continuous
 62
               4
100
AcDbCircle
 10
386.14746436972416
 20
876.88885447698499
 30
0.0
 40
1.0
  0
CIRCLE
  5
459
100
AcDbEntity
  8
0
  6
Continuous
 62
               4
100
AcDbCircle
 10
358.14746436972416
 20
948.88885447698476
 30
0.0
 40
1.0
  0
CIRCLE
  5
45A
100
AcDbEntity
  8
0
  6
Continuous
 62
               4
100
AcDbCircle
 10
358.14746436972416
 20
985.88885447698499
 30
0.0
 40
1.0
  0
CIRCLE
  5
45B
100
AcDbEntity
  8
0
  6
Continuous
 62
               4
100
AcDbCircle
 10
358.14746436972416
 20
985.88885447698499
 30
0.0
 40
1.0
  0
CIRCLE
  5
45C
100
AcDbEntity
  8
0
  6
Continuous
 62
               4
100
AcDbCircle
 10
358.14746436972416
 20
1003.888854476985
 30
0.0
 40
1.0
  0
CIRCLE
  5
45D
100
AcDbEntity
  8
0
  6
Continuous
 62
               4
100
AcDbCircle
 10
344.14746436972416
 20
948.88885447698476
 30
0.0
 40
1.0
  0
CIRCLE
  5
45E
100
AcDbEntity
  8
0
  6
Continuous
 62
               4
100
AcDbCircle
 10
344.14746436972416
 20
1003.888854476985
 30
0.0
 40
1.0
  0
CIRCLE
  5
45F
100
AcDbEntity
  8
0
  6
Continuous
 62
               4
100
AcDbCircle
 10
344.14746436972416
 20
1003.888854476985
 30
0.0
 40
1.0
  0
CIRCLE
  5
460
100
AcDbEntity
  8
0
  6
Continuous
 62
               4
100
AcDbCircle
 10
344.14746436972416
 20
1010.888854476985
 30
0.0
 40
1.0
  0
CIRCLE
  5
461
100
AcDbEntity
  8
0
  6
Continuous
 62
               4
100
AcDbCircle
 10
841.14746436972439
 20
1010.888854476985
 30
0.0
 40
1.0
  0
CIRCLE
  5
462
100
AcDbEntity
  8
0
  6
Continuous
 62
               4
100
AcDbCircle
 10
841.14746436972439
 20
1025.888854476985
 30
0.0
 40
1.0
  0
CIRCLE
  5
463
100
AcDbEntity
  8
0
  6
Continuous
 62
               4
100
AcDbCircle
 10
858.14746436972462
 20
876.88885447698499
 30
0.0
 40
1.0
  0
CIRCLE
  5
464
100
AcDbEntity
  8
0
  6
Continuous
 62
               4
100
AcDbCircle
 10
886.14746436972484
 20
876.88885447698499
 30
0.0
 40
1.0
  0
CIRCLE
  5
465
100
AcDbEntity
  8
0
  6
Continuous
 62
               4
100
AcDbCircle
 10
928.14746436972484
 20
1025.888854476985
 30
0.0
 40
1.0
  0
CIRCLE
  5
466
100
AcDbEntity
  8
0
  6
Continuous
 62
               4
100
AcDbCircle
 10
928.14746436972484
 20
984.88885447698499
 30
0.0
 40
1.0
  0
CIRCLE
  5
467
100
AcDbEntity
  8
0
  6
Continuous
 62
               4
100
AcDbCircle
 10
928.14746436972484
 20
984.88885447698499
 30
0.0
 40
1.0
  0
CIRCLE
  5
468
100
AcDbEntity
  8
0
  6
Continuous
 62
               4
100
AcDbCircle
 10
928.14746436972484
 20
950.88885447698476
 30
0.0
 40
1.0
  0
CIRCLE
  5
469
100
AcDbEntity
  8
0
  6
Continuous
 62
               4
100
AcDbCircle
 10
942.14746436972484
 20
950.88885447698476
 30
0.0
 40
1.0
  0
CIRCLE
  5
46A
100
AcDbEntity
  8
0
  6
Continuous
 62
               4
100
AcDbCircle
 10
942.14746436972484
 20
1025.888854476985
 30
0.0
 40
1.0
  0
CIRCLE
  5
46B
100
AcDbEntity
  8
0
  6
Continuous
 62
               4
100
AcDbCircle
 10
886.14746436972484
 20
1053.888854476985
 30
0.0
 40
1.0
  0
CIRCLE
  5
46C
100
AcDbEntity
  8
0
  6
Continuous
 62
               4
100
AcDbCircle
 10
386.14746436972462
 20
1053.888854476985
 30
0.0
 40
1.0
  0
CIRCLE
  5
46D
100
AcDbEntity
  8
0
  6
Continuous
 62
               4
100
AcDbCircle
 10
309.14746436972462
 20
244.88885447698505
 30
0.0
 40
14.0
  0
CIRCLE
  5
46E
100
AcDbEntity
  8
0
  6
Continuous
 62
               4
100
AcDbCircle
 10
886.14746436972484
 20
1039.888854476985
 30
0.0
 40
1.0
  0
CIRCLE
  5
46F
100
AcDbEntity
  8
0
  6
Continuous
 62
               4
100
AcDbCircle
 10
869.14746436972439
 20
1039.888854476985
 30
0.0
 40
1.0
  0
ARC
  5
470
100
AcDbEntity
  8
0
  6
Continuous
 62
               6
100
AcDbCircle
 10
292.8974643697245
 20
572.88885447698499
 30
0.0
 40
13.0
100
AcDbArc
 50
0.0
 51
90.000000000000028
  0
ARC
  5
471
100
AcDbEntity
  8
0
  6
Continuous
 62
               6
100
AcDbCircle
 10
325.39746436972462
 20
572.88885447698499
 30
0.0
 40
13.0
100
AcDbArc
 50
90.000000000000028
 51
180.0
  0
ARC
  5
472
100
AcDbEntity
  8
0
  6
Continuous
 62
               6
100
AcDbCircle
 10
292.8974643697245
 20
316.88885447698505
 30
0.0
 40
13.0
100
AcDbArc
 50
270.0
 51
0.0
  0
ARC
  5
473
100
AcDbEntity
  8
0
  6
Continuous
 62
               6
100
AcDbCircle
 10
325.39746436972462
 20
316.88885447698505
 30
0.0
 40
13.0
100
AcDbArc
 50
180.0
 51
270.0
  0
ARC
  5
474
100
AcDbEntity
  8
0
  6
Continuous
 62
               6
100
AcDbCircle
 10
648.14746436972462
 20
596.88885447698499
 30
0.0
 40
4.0
100
AcDbArc
 50
90.000000000000028
 51
180.0
  0
ARC
  5
475
100
AcDbEntity
  8
0
  6
Continuous
 62
               6
100
AcDbCircle
 10
707.14746436972462
 20
655.88885447698499
 30
0.0
 40
4.0
100
AcDbArc
 50
90.000000000000028
 51
180.0
  0
ARC
  5
476
100
AcDbEntity
  8
0
  6
Continuous
 62
               6
100
AcDbCircle
 10
694.64746436972462
 20
609.38885447698499
 30
0.0
 40
8.5
100
AcDbArc
 50
270.0
 51
0.0
  0
ARC
  5
477
100
AcDbEntity
  8
0
  6
Continuous
 62
               6
100
AcDbCircle
 10
677.14746436972462
 20
594.35593410744309
 30
0.0
 40
7.0
100
AcDbArc
 50
274.53226170870158
 51
0.0
  0
ARC
  5
478
100
AcDbEntity
  8
0
  6
Continuous
 62
               6
100
AcDbCircle
 10
677.14746436972439
 20
395.42177484652694
 30
0.0
 40
7.0
100
AcDbArc
 50
0.0
 51
85.467738291298716
  0
ARC
  5
479
100
AcDbEntity
  8
0
  6
Continuous
 62
               6
100
AcDbCircle
 10
616.14746436972439
 20
421.32301373790136
 30
0.0
 40
14.0
100
AcDbArc
 50
180.0
 51
265.46773829129847
  0
ARC
  5
47A
100
AcDbEntity
  8
0
  6
Continuous
 62
               6
100
AcDbCircle
 10
616.14746436972462
 20
568.45469521606879
 30
0.0
 40
14.0
100
AcDbArc
 50
94.532261708701625
 51
180.0
  0
ARC
  5
47B
100
AcDbEntity
  8
0
  6
Continuous
 62
               6
100
AcDbCircle
 10
303.89746436972462
 20
374.88885447698505
 30
0.0
 40
5.0
100
AcDbArc
 50
180.0
 51
270.0
  0
ARC
  5
47C
100
AcDbEntity
  8
0
  6
Continuous
 62
               6
100
AcDbCircle
 10
210.8974643697245
 20
467.88885447698505
 30
0.0
 40
5.0
100
AcDbArc
 50
180.0
 51
270.0
  0
ARC
  5
47D
100
AcDbEntity
  8
0
  6
Continuous
 62
               6
100
AcDbCircle
 10
288.8974643697245
 20
452.88885447698505
 30
0.0
 40
10.0
100
AcDbArc
 50
0.0
 51
90.000000000000256
  0
ARC
  5
47E
100
AcDbEntity
  8
0
  6
Continuous
 62
               2
100
AcDbCircle
 10
839.14746436972462
 20
983.88885447698499
 30
0.0
 40
1.0
100
AcDbArc
 50
90.000000000000028
 51
180.0
  0
ARC
  5
47F
100
AcDbEntity
  8
0
  6
DOT
 62
               7
100
AcDbCircle
 10
784.14746436972462
 20
707.38885447698499
 30
0.0
 40
10.0
100
AcDbArc
 50
323.13010235415601
 51
36.869897645844013
  0
ARC
  5
480
100
AcDbEntity
  8
0
  6
DOT
 62
               7
100
AcDbCircle
 10
790.89746436972462
 20
698.38885447698499
 30
0.0
 40
3.25
100
AcDbArc
 50
0.0
 51
67.380135051959741
  0
ARC
  5
481
100
AcDbEntity
  8
0
  6
DOT
 62
               7
100
AcDbCircle
 10
790.89746436972462
 20
716.38885447698499
 30
0.0
 40
3.25
100
AcDbArc
 50
292.61986494804017
 51
0.0
  0
ARC
  5
482
100
AcDbEntity
  8
0
  6
Continuous
 62
               7
100
AcDbCircle
 10
702.14746436972439
 20
707.38885447698499
 30
0.0
 40
10.0
100
AcDbArc
 50
143.13010235415592
 51
216.86989764584399
  0
ARC
  5
483
100
AcDbEntity
  8
0
  6
Continuous
 62
               7
100
AcDbCircle
 10
695.39746436972439
 20
698.38885447698499
 30
0.0
 40
3.25
100
AcDbArc
 50
112.61986494804019
 51
180.0
  0
ARC
  5
484
100
AcDbEntity
  8
0
  6
Continuous
 62
               7
100
AcDbCircle
 10
695.39746436972439
 20
716.38885447698499
 30
0.0
 40
3.25
100
AcDbArc
 50
180.0
 51
247.38013505195971
  0
ARC
  5
485
100
AcDbEntity
  8
0
  6
Continuous
 62
               2
100
AcDbCircle
 10
860.54746436972471
 20
936.98885447698513
 30
0.0
 40
0.599999999999994
100
AcDbArc
 50
180.0
 51
0.0
  0
ARC
  5
486
100
AcDbEntity
  8
0
  6
Continuous
 62
               6
100
AcDbCircle
 10
838.14746436972484
 20
756.88885447698499
 30
0.0
 40
2.0
100
AcDbArc
 50
180.0
 51
269.99999999999937
  0
ARC
  5
487
100
AcDbEntity
  8
0
  6
DIVIDE
 62
               4
100
AcDbCircle
 10
1021.6474643697246
 20
271.13885447698505
 30
0.0
 40
36.25
100
AcDbArc
 50
226.39718102729637
 51
313.60281897270357
  0
ARC
  5
488
100
AcDbEntity
  8
0
  6
DIVIDE
 62
               4
100
AcDbCircle
 10
1071.6474643697243
 20
271.13885447698505
 30
0.0
 40
36.25
100
AcDbArc
 50
226.39718102729637
 51
313.60281897270357
  0
ARC
  5
489
100
AcDbEntity
  8
0
  6
DIVIDE
 62
               4
100
AcDbCircle
 10
1071.6474643697243
 20
218.63885447698505
 30
0.0
 40
36.25
100
AcDbArc
 50
46.397181027296384
 51
133.6028189727036
  0
ARC
  5
48A
100
AcDbEntity
  8
0
  6
Continuous
 62
               6
100
AcDbCircle
 10
670.86703188902504
 20
978.6398738656851
 30
0.0
 40
30.048503797653211
100
AcDbArc
 50
180.0
 51
0.0
  0
ARC
  5
48B
100
AcDbEntity
  8
0
  6
Continuous
 62
               6
100
AcDbCircle
 10
670.86703188902504
 20
978.6398738656851
 30
0.0
 40
31.048503797653211
100
AcDbArc
 50
180.0
 51
0.0
  0
ARC
  5
48C
100
AcDbEntity
  8
0
  6
Continuous
 62
               6
100
AcDbCircle
 10
706.91553568667825
 20
979.88885447698499
 30
0.0
 40
5.0
100
AcDbArc
 50
89.999999999999957
 51
180.0
  0
ARC
  5
48D
100
AcDbEntity
  8
0
  6
Continuous
 62
               6
100
AcDbCircle
 10
706.91553568667825
 20
979.88885447698499
 30
0.0
 40
6.0
100
AcDbArc
 50
89.999999999999957
 51
180.0
  0
ARC
  5
48E
100
AcDbEntity
  8
0
  6
Continuous
 62
               6
100
AcDbCircle
 10
634.81852809137183
 20
979.88885447698522
 30
0.0
 40
6.0
100
AcDbArc
 50
0.0
 51
89.999999999999957
  0
ARC
  5
48F
100
AcDbEntity
  8
0
  6
Continuous
 62
               6
100
AcDbCircle
 10
634.81852809137183
 20
979.88885447698499
 30
0.0
 40
5.0
100
AcDbArc
 50
0.0
 51
89.999999999999957
  0
ARC
  5
490
100
AcDbEntity
  8
0
  6
Continuous
 62
               4
100
AcDbCircle
 10
762.14746436972439
 20
998.88885447698522
 30
0.0
 40
0.5
100
AcDbArc
 50
89.999999999999957
 51
180.0
  0
ARC
  5
491
100
AcDbEntity
  8
0
  6
Continuous
 62
               4
100
AcDbCircle
 10
776.14746436972439
 20
998.88885447698522
 30
0.0
 40
0.5
100
AcDbArc
 50
0.0
 51
89.999999999999957
  0
ARC
  5
492
100
AcDbEntity
  8
0
  6
Continuous
 62
               4
100
AcDbCircle
 10
774.63134655113993
 20
999.88885447698522
 30
0.0
 40
0.5
100
AcDbArc
 50
186.15063982794311
 51
270.0
  0
ARC
  5
493
100
AcDbEntity
  8
0
  6
Continuous
 62
               4
100
AcDbCircle
 10
763.66358218830885
 20
999.88885447698522
 30
0.0
 40
0.5
100
AcDbArc
 50
270.0
 51
353.84936017205678
  0
ARC
  5
494
100
AcDbEntity
  8
0
  6
Continuous
 62
               4
100
AcDbCircle
 10
766.4474643697248
 20
999.58885447698526
 30
0.0
 40
2.2999999999999989
100
AcDbArc
 50
89.999999999999957
 51
173.84936017205669
  0
ARC
  5
495
100
AcDbEntity
  8
0
  6
Continuous
 62
               4
100
AcDbCircle
 10
771.84746436972421
 20
999.58885447698526
 30
0.0
 40
2.2999999999999989
100
AcDbArc
 50
6.150639827943122
 51
89.999999999999957
  0
ARC
  5
496
100
AcDbEntity
  8
0
  6
Continuous
 62
               4
100
AcDbCircle
 10
489.14746436972439
 20
998.88885447698522
 30
0.0
 40
0.5
100
AcDbArc
 50
89.999999999999957
 51
180.0
  0
ARC
  5
497
100
AcDbEntity
  8
0
  6
Continuous
 62
               4
100
AcDbCircle
 10
503.14746436972439
 20
998.88885447698522
 30
0.0
 40
0.5
100
AcDbArc
 50
0.0
 51
89.999999999999957
  0
ARC
  5
498
100
AcDbEntity
  8
0
  6
Continuous
 62
               4
100
AcDbCircle
 10
501.63134655113981
 20
999.88885447698522
 30
0.0
 40
0.5
100
AcDbArc
 50
186.15063982794311
 51
270.0
  0
ARC
  5
499
100
AcDbEntity
  8
0
  6
Continuous
 62
               4
100
AcDbCircle
 10
490.66358218830896
 20
999.88885447698522
 30
0.0
 40
0.5
100
AcDbArc
 50
270.0
 51
353.84936017205678
  0
ARC
  5
49A
100
AcDbEntity
  8
0
  6
Continuous
 62
               4
100
AcDbCircle
 10
493.44746436972457
 20
999.58885447698526
 30
0.0
 40
2.2999999999999989
100
AcDbArc
 50
89.999999999999957
 51
173.84936017205669
  0
ARC
  5
49B
100
AcDbEntity
  8
0
  6
Continuous
 62
               4
100
AcDbCircle
 10
498.84746436972421
 20
999.58885447698526
 30
0.0
 40
2.2999999999999989
100
AcDbArc
 50
6.150639827943122
 51
89.999999999999957
  0
ARC
  5
49C
100
AcDbEntity
  8
0
  6
Continuous
 62
               6
100
AcDbCircle
 10
397.72547734438183
 20
997.67676959805135
 30
0.0
 40
3.0
100
AcDbArc
 50
90.801417730009888
 51
174.55966796899398
  0
ARC
  5
49D
100
AcDbEntity
  8
0
  6
Continuous
 62
               7
100
AcDbCircle
 10
441.70735251298481
 20
990.57890748658565
 30
0.0
 40
15.0
100
AcDbArc
 50
15.703730910982891
 51
57.775434330742144
  0
ARC
  5
49E
100
AcDbEntity
  8
0
  6
Continuous
 62
               7
100
AcDbCircle
 10
438.80924259417225
 20
990.23256393787142
 30
0.0
 40
15.0
100
AcDbArc
 50
17.082759028636659
 51
49.406717876358186
  0
ARC
  5
49F
100
AcDbEntity
  8
0
  6
Continuous
 62
               7
100
AcDbCircle
 10
449.14746436972439
 20
1002.4388544769852
 30
0.0
 40
1.0
100
AcDbArc
 50
56.049693782486905
 51
234.69394001109148
  0
ARC
  5
4A0
100
AcDbEntity
  8
0
  6
Continuous
 62
               7
100
AcDbCircle
 10
823.14746436972462
 20
1006.6517960860408
 30
0.0
 40
1.0
100
AcDbArc
 50
318.80024752211449
 51
137.02904280540074
  0
ARC
  5
4A1
100
AcDbEntity
  8
0
  6
Continuous
 62
               7
100
AcDbCircle
 10
839.07760192077751
 20
992.9686397614139
 30
0.0
 40
20.0
100
AcDbArc
 50
139.31219863952052
 51
175.20960818745448
  0
ARC
  5
4A2
100
AcDbEntity
  8
0
  6
Continuous
 62
               7
100
AcDbCircle
 10
836.05369670636094
 20
992.70445168545871
 30
0.0
 40
20.0
100
AcDbArc
 50
132.5674869043695
 51
174.44966746564299
  0
ARC
  5
4A3
100
AcDbEntity
  8
0
  6
Continuous
 62
               6
100
AcDbCircle
 10
877.64746436972462
 20
1001.5965961119246
 30
0.0
 40
3.0
100
AcDbArc
 50
0.0
 51
90.801417730009888
  0
ARC
  5
4A4
100
AcDbEntity
  8
0
  6
Continuous
 62
               4
100
AcDbCircle
 10
870.14746436972439
 20
1024.888854476985
 30
0.0
 40
1.0
100
AcDbArc
 50
89.999999999999957
 51
180.0
  0
ARC
  5
4A5
100
AcDbEntity
  8
0
  6
Continuous
 62
               4
100
AcDbCircle
 10
885.14746436972462
 20
1024.888854476985
 30
0.0
 40
1.0
100
AcDbArc
 50
0.0
 51
89.999999999999957
  0
ARC
  5
4A6
100
AcDbEntity
  8
0
  6
Continuous
 62
               4
100
AcDbCircle
 10
870.14746436972439
 20
1009.9065379697281
 30
0.0
 40
1.0
100
AcDbArc
 50
270.830315486259
 51
0.0
  0
ARC
  5
4A7
100
AcDbEntity
  8
0
  6
Continuous
 62
               4
100
AcDbCircle
 10
885.14746436972484
 20
951.88885447698476
 30
0.0
 40
1.0
100
AcDbArc
 50
270.0
 51
0.0
  0
ARC
  5
4A8
100
AcDbEntity
  8
0
  6
Continuous
 62
               4
100
AcDbCircle
 10
387.14746436972462
 20
1002.9032422161683
 30
0.0
 40
1.0
100
AcDbArc
 50
90.830315486257987
 51
179.99999999999963
  0
ARC
  5
4A9
100
AcDbEntity
  8
0
  6
Continuous
 62
               4
100
AcDbCircle
 10
387.14746436972416
 20
949.88885447698453
 30
0.0
 40
1.0
100
AcDbArc
 50
179.99999999999963
 51
270.0
  0
ARC
  5
4AA
100
AcDbEntity
  8
0
  6
Continuous
 62
               4
100
AcDbCircle
 10
471.84431806487567
 20
958.51793912280891
 30
0.0
 40
20.0
100
AcDbArc
 50
358.50908435744299
 51
26.226827357410322
  0
ARC
  5
4AB
100
AcDbEntity
  8
0
  6
Continuous
 62
               4
100
AcDbCircle
 10
490.81605246545246
 20
967.7527613236939
 30
0.0
 40
0.1
100
AcDbArc
 50
25.950002357418434
 51
116.22364935744068
  0
ARC
  5
4AC
100
AcDbEntity
  8
0
  6
Continuous
 62
               4
100
AcDbCircle
 10
471.84431806487567
 20
958.51793912280891
 30
0.0
 40
21.20000099999999
100
AcDbArc
 50
14.949575357437812
 51
25.955282357422195
  0
ARC
  5
4AD
100
AcDbEntity
  8
0
  6
Continuous
 62
               4
100
AcDbCircle
 10
471.84431806487567
 20
958.51793912280891
 30
0.0
 40
21.20000099999999
100
AcDbArc
 50
358.50908435744299
 51
6.6867733574435384
  0
ARC
  5
4AE
100
AcDbEntity
  8
0
  6
Continuous
 62
               4
100
AcDbCircle
 10
520.31684127614938
 20
958.33108149828217
 30
0.0
 40
21.20000099999999
100
AcDbArc
 50
172.8743289182031
 51
181.05202091820246
  0
ARC
  5
4AF
100
AcDbEntity
  8
0
  6
Continuous
 62
               4
100
AcDbCircle
 10
520.31684127614938
 20
958.33108149828217
 30
0.0
 40
20.0
100
AcDbArc
 50
153.33427591820532
 51
181.05202091820246
  0
ARC
  5
4B0
100
AcDbEntity
  8
0
  6
Continuous
 62
               4
100
AcDbCircle
 10
520.31684127614938
 20
958.33108149828217
 30
0.0
 40
21.20000099999999
100
AcDbArc
 50
153.60581991823301
 51
164.61153191820176
  0
ARC
  5
4B1
100
AcDbEntity
  8
0
  6
Continuous
 62
               4
100
AcDbCircle
 10
744.97808746329872
 20
958.33044729049243
 30
0.0
 40
20.0
100
AcDbArc
 50
358.94797908179743
 51
26.665724081794561
  0
ARC
  5
4B2
100
AcDbEntity
  8
0
  6
Continuous
 62
               4
100
AcDbCircle
 10
793.45061067457357
 20
958.51730491501985
 30
0.0
 40
20.0
100
AcDbArc
 50
153.77317264257499
 51
181.49091564255679
  0
ARC
  5
4B3
100
AcDbEntity
  8
0
  6
Continuous
 62
               4
100
AcDbCircle
 10
744.97808746329872
 20
958.33044729049243
 30
0.0
 40
21.20000099999999
100
AcDbArc
 50
358.94797908179743
 51
7.1256710817968143
  0
ARC
  5
4B4
100
AcDbEntity
  8
0
  6
Continuous
 62
               4
100
AcDbCircle
 10
793.45061067457357
 20
958.51730491501985
 30
0.0
 40
21.20000099999999
100
AcDbArc
 50
173.3132266425564
 51
181.49091564255679
  0
ARC
  5
4B5
100
AcDbEntity
  8
0
  6
Continuous
 62
               4
100
AcDbCircle
 10
744.97808746329872
 20
958.33044729049243
 30
0.0
 40
21.20000099999999
100
AcDbArc
 50
15.388468081798163
 51
26.39418008177277
  0
ARC
  5
4B6
100
AcDbEntity
  8
0
  6
Continuous
 62
               4
100
AcDbCircle
 10
793.45061067457357
 20
958.51730491501985
 30
0.0
 40
21.20000099999999
100
AcDbArc
 50
154.0447176425719
 51
165.05042464256212
  0
ARC
  5
4B7
100
AcDbEntity
  8
0
  6
Continuous
 62
               4
100
AcDbCircle
 10
774.47887627399598
 20
967.7521271159053
 30
0.0
 40
0.1
100
AcDbArc
 50
63.776350642559187
 51
154.04999764257281
  0
ARC
  5
4B8
100
AcDbEntity
  8
0
  6
DIVIDE
 62
               4
100
AcDbCircle
 10
986.64746436972484
 20
644.88885447698499
 30
0.0
 40
10.0
100
AcDbArc
 50
0.0
 51
90.000000000000028
  0
ARC
  5
4B9
100
AcDbEntity
  8
0
  6
DIVIDE
 62
               4
100
AcDbCircle
 10
986.64746436972484
 20
644.88885447698499
 30
0.0
 40
110.0
100
AcDbArc
 50
0.0
 51
90.000000000000028
  0
ARC
  5
4BA
100
AcDbEntity
  8
0
  6
Continuous
 62
               6
100
AcDbCircle
 10
838.14746436972484
 20
765.35800125321362
 30
0.0
 40
2.0
100
AcDbArc
 50
99.999999999999858
 51
180.0
  0
ARC
  5
4BB
100
AcDbEntity
  8
0
  6
Continuous
 62
               6
100
AcDbCircle
 10
838.14746436972462
 20
652.88885447698499
 30
0.0
 40
2.0
100
AcDbArc
 50
90.000000000000597
 51
180.0
  0
ARC
  5
4BC
100
AcDbEntity
  8
0
  6
Continuous
 62
               6
100
AcDbCircle
 10
838.14746436972462
 20
644.41970770075659
 30
0.0
 40
2.0
100
AcDbArc
 50
180.0
 51
260.00000000000011
  0
ARC
  5
4BD
100
AcDbEntity
  8
0
  6
DASHED
 62
               6
100
AcDbCircle
 10
835.64746436972462
 20
984.88885447698499
 30
0.0
 40
1.0
100
AcDbArc
 50
0.0
 51
90.000000000000028
  0
ARC
  5
4BE
100
AcDbEntity
  8
0
  6
DASHED
 62
               6
100
AcDbCircle
 10
671.64746436972439
 20
1058.9529469912923
 30
0.0
 40
78.067993537295735
100
AcDbArc
 50
246.06345704230907
 51
290.67514662651797
  0
ARC
  5
4BF
100
AcDbEntity
  8
0
  6
DASHED
 62
               6
100
AcDbCircle
 10
713.33361750135157
 20
948.4888544769849
 30
0.0
 40
40.0
100
AcDbArc
 50
90.000000000000028
 51
110.67514662651787
  0
ARC
  5
4C0
100
AcDbEntity
  8
0
  6
DASHED
 62
               6
100
AcDbCircle
 10
623.74437363494246
 20
951.0393473109084
 30
0.0
 40
40.0
100
AcDbArc
 50
66.063457042308997
 51
75.96375653207356
  0
ARC
  5
4C1
100
AcDbEntity
  8
0
  6
DASHED
 62
               6
100
AcDbCircle
 10
435.95507621429942
 20
990.88885447698499
 30
0.0
 40
5.0
100
AcDbArc
 50
90.000000000000028
 51
135.0
  0
ELLIPSE
  5
4C2
100
AcDbEntity
  8
0
  6
Continuous
 62
               6
100
AcDbEllipse
 10
812.14746436972484
 20
761.13885447698499
 30
0.0
 11
-0.0000000000000011
 21
-6.25
 31
0.0
210
0.0
220
0.0
230
1.0
 40
0.48
 41
0.0
 42
6.2831853071795862
  0
ELLIPSE
  5
4C3
100
AcDbEntity
  8
0
  6
Continuous
 62
               6
100
AcDbEllipse
 10
826.14746436972484
 20
760.08089259273424
 30
0.0
 11
-0.000000000000001
 21
-5.192038115749213
 31
0.0
210
0.0
220
0.0
230
1.0
 40
0.5778077766609575
 41
0.0
 42
6.2831853071795862
  0
ELLIPSE
  5
4C4
100
AcDbEntity
  8
0
  6
Continuous
 62
               6
100
AcDbEllipse
 10
812.14746436972462
 20
648.63885447698499
 30
0.0
 11
-0.0000000000000024
 21
6.25
 31
0.0
210
0.0
220
0.0
230
1.0
 40
0.48
 41
0.0
 42
6.2831853071795862
  0
ELLIPSE
  5
4C5
100
AcDbEntity
  8
0
  6
Continuous
 62
               6
100
AcDbEllipse
 10
826.14746436972462
 20
649.69681636123573
 30
0.0
 11
-0.000000000000002
 21
5.192038115749213
 31
0.0
210
0.0
220
0.0
230
1.0
 40
0.5778077766609575
 41
0.0
 42
6.2831853071795862
  0
TEXT
  5
4C6
100
AcDbEntity
  8
0
 62
               7
100
AcDbText
 10
528.14710727383419
 20
203.8888347094865
 30
0.0
 40
8.0
  1
450
 41
0.7695
  7
FontTableH_0
 72
               5
 11
537.14710727383419
 21
203.8888347094865
 31
0.0
100
AcDbText
  0
TEXT
  5
4C7
100
AcDbEntity
  8
0
 62
               7
100
AcDbText
 10
717.64716827383415
 20
217.88881270948644
 30
0.0
 40
8.0
  1
75
 41
0.7695
  7
FontTableH_0
 72
               5
 11
723.64716827383415
 21
217.88881270948644
 31
0.0
100
AcDbText
  0
TEXT
  5
4C8
100
AcDbEntity
  8
0
 62
               7
100
AcDbText
 10
490.64710727383419
 20
217.88881270948644
 30
0.0
 40
8.0
  1
375
 41
0.7695
  7
FontTableH_0
 72
               5
 11
499.64710727383419
 21
217.88881270948644
 31
0.0
100
AcDbText
  0
TEXT
  5
4C9
100
AcDbEntity
  8
0
 62
               7
100
AcDbText
 10
692.64735127383403
 20
279.88888870948648
 30
0.0
 40
8.0
  1
25
 41
0.7695
  7
FontTableH_0
 72
               5
 11
698.64735127383403
 21
279.88888870948648
 31
0.0
100
AcDbText
  0
TEXT
  5
4CA
100
AcDbEntity
  8
0
 62
               7
100
AcDbText
 10
191.14738227383407
 20
728.88887370948646
 30
0.0
 40
7.9999999999999716
  1
130
 50
89.999981276031491
 41
0.7695
  7
FontTableH_0
 72
               5
 11
191.14738521498816
 21
737.88887370948601
 31
0.0
100
AcDbText
  0
TEXT
  5
4CB
100
AcDbEntity
  8
0
 62
               7
100
AcDbText
 10
191.14738227383407
 20
563.88868970948647
 30
0.0
 40
7.9999999999999716
  1
200
 50
89.999981276031491
 41
0.7695
  7
FontTableH_0
 72
               5
 11
191.14738521498816
 21
572.88868970948602
 31
0.0
100
AcDbText
  0
TEXT
  5
4CC
100
AcDbEntity
  8
0
 62
               7
100
AcDbText
 10
163.14738227383418
 20
691.38887370948646
 30
0.0
 40
7.9999999999999716
  1
205
 50
89.999981276031491
 41
0.7695
  7
FontTableH_0
 72
               5
 11
163.14738521498828
 21
700.38887370948601
 31
0.0
100
AcDbText
  0
TEXT
  5
4CD
100
AcDbEntity
  8
0
 62
               7
100
AcDbText
 10
523.14735127383403
 20
877.8888127094865
 30
0.0
 40
8.0
  1
200
 41
0.7695
  7
FontTableH_0
 72
               5
 11
532.14735127383403
 21
877.8888127094865
 31
0.0
100
AcDbText
  0
TEXT
  5
4CE
100
AcDbEntity
  8
0
 62
               7
100
AcDbText
 10
665.14735127383403
 20
877.8888127094865
 30
0.0
 40
8.0
  1
80
 41
0.7695
  7
FontTableH_0
 72
               5
 11
671.14735127383403
 21
877.8888127094865
 31
0.0
100
AcDbText
  0
TEXT
  5
4CF
100
AcDbEntity
  8
0
 62
               7
100
AcDbText
 10
503.14735127383415
 20
540.88868970948647
 30
0.0
 40
8.0
  1
400
 41
0.7695
  7
FontTableH_0
 72
               5
 11
512.14735127383415
 21
540.88868970948647
 31
0.0
100
AcDbText
  0
TEXT
  5
4D0
100
AcDbEntity
  8
0
 62
               7
100
AcDbText
 10
753.14765627383406
 20
540.88868970948647
 30
0.0
 40
8.0
  1
100
 41
0.7695
  7
FontTableH_0
 72
               5
 11
762.14765627383406
 21
540.88868970948647
 31
0.0
100
AcDbText
  0
TEXT
  5
4D1
100
AcDbEntity
  8
0
 62
               7
100
AcDbText
 10
819.64747327383418
 20
540.88868970948647
 30
0.0
 40
8.0
  1
27
 41
0.7695
  7
FontTableH_0
 72
               5
 11
825.64747327383418
 21
540.88868970948647
 31
0.0
100
AcDbText
  0
TEXT
  5
4D2
100
AcDbEntity
  8
0
 62
               7
100
AcDbText
 10
844.14765627383406
 20
540.88868970948647
 30
0.0
 40
8.0
  1
20
 41
0.7695
  7
FontTableH_0
 72
               5
 11
850.14765627383406
 21
540.88868970948647
 31
0.0
100
AcDbText
  0
TEXT
  5
4D3
100
AcDbEntity
  8
0
 62
               7
100
AcDbText
 10
730.14753427383414
 20
526.88868970948647
 30
0.0
 40
8.0
  1
50
 41
0.7695
  7
FontTableH_0
 72
               5
 11
736.14753427383414
 21
526.88868970948647
 31
0.0
100
AcDbText
  0
TEXT
  5
4D4
100
AcDbEntity
  8
0
 62
               7
100
AcDbText
 10
780.14765627383406
 20
526.88868970948647
 30
0.0
 40
8.0
  1
50
 41
0.7695
  7
FontTableH_0
 72
               5
 11
786.14765627383406
 21
526.88868970948647
 31
0.0
100
AcDbText
  0
TEXT
  5
4D5
100
AcDbEntity
  8
0
 62
               7
100
AcDbText
 10
815.14765627383406
 20
526.88868970948647
 30
0.0
 40
8.0
  1
20
 41
0.7695
  7
FontTableH_0
 72
               5
 11
821.14765627383406
 21
526.88868970948647
 31
0.0
100
AcDbText
  0
TEXT
  5
4D6
100
AcDbEntity
  8
0
 62
               7
100
AcDbText
 10
830.14765627383406
 20
526.88868970948647
 30
0.0
 40
8.0
  1
6
 41
0.7695
  7
FontTableH_0
 72
               5
 11
833.14765627383406
 21
526.88868970948647
 31
0.0
100
AcDbText
  0
TEXT
  5
4D7
100
AcDbEntity
  8
0
 62
               7
100
AcDbText
 10
923.14765627383406
 20
435.88878170948652
 30
0.0
 40
8.0000000000002274
  1
外壁材：立ハゼ葺(W=225） フッ素ステンレス t0.4
 41
0.7695
  7
FontTableH_0
 72
               5
 11
1099.2713204063139
 21
435.88878170948652
 31
0.0
100
AcDbText
  0
TEXT
  5
4D8
100
AcDbEntity
  8
0
 62
               7
100
AcDbText
 10
923.14765627383406
 20
421.88878170948652
 30
0.0
 40
8.0
  1
下葺材：ゴムアスファルトル－フィング t1.0
 41
0.7695
  7
FontTableH_0
 72
               5
 11
1085.2100428384206
 21
421.88878170948652
 31
0.0
100
AcDbText
  0
TEXT
  5
4D9
100
AcDbEntity
  8
0
 62
               7
100
AcDbText
 10
923.14765627383406
 20
407.88878170948652
 30
0.0
 40
8.0
  1
フレキシブルボ－ド t6（別途工事）
 41
0.7695
  7
FontTableH_0
 72
               5
 11
1054.230992448322
 21
407.88878170948652
 31
0.0
100
AcDbText
  0
TEXT
  5
4DA
100
AcDbEntity
  8
0
 62
               7
100
AcDbText
 10
923.14765627383406
 20
393.88878170948652
 30
0.0
 40
8.0
  1
ネオマフォ－ム t20（別途工事）
 41
0.7695
  7
FontTableH_0
 72
               5
 11
1041.4867575603296
 21
393.88878170948652
 31
0.0
100
AcDbText
  0
TEXT
  5
4DB
100
AcDbEntity
  8
0
 62
               7
100
AcDbText
 10
923.14765627383406
 20
379.88878170948652
 30
0.0
 40
8.0000000000001137
  1
ＡＬＣ板 t100（別途工事）
 41
0.7695
  7
FontTableH_0
 72
               5
 11
1020.3698761780978
 21
379.88878170948652
 31
0.0
100
AcDbText
  0
TEXT
  5
4DC
100
AcDbEntity
  8
0
 62
               7
100
AcDbText
 10
476.58924627383419
 20
349.88887370948652
 30
0.0
 40
8.0
  1
［－200×90×8×13.5（別途工事）
 41
0.7695
  7
FontTableH_0
 72
               5
 11
597.33301269519768
 21
349.88887370948652
 31
0.0
100
AcDbText
  0
TEXT
  5
4DD
100
AcDbEntity
  8
0
 62
               7
100
AcDbText
 10
522.61274427383421
 20
637.88868970948647
 30
0.0
 40
8.0
  1
Ｌ－65×65×6 通シ（別途工事）
 41
0.7695
  7
FontTableH_0
 72
               5
 11
639.27940815895079
 21
637.88868970948647
 31
0.0
100
AcDbText
  0
TEXT
  5
4DE
100
AcDbEntity
  8
0
 62
               7
100
AcDbText
 10
558.51740727383424
 20
679.88868970948647
 30
0.0
 40
7.9999999999997717
  1
イナズマプレ－ト（別途工事）
 41
0.7695
  7
FontTableH_0
 72
               5
 11
670.51740727383424
 21
679.88868970948647
 31
0.0
100
AcDbText
  0
TEXT
  5
4DF
100
AcDbEntity
  8
0
 62
               7
100
AcDbText
 10
111.39869427383417
 20
253.88887370948652
 30
0.0
 40
8.0
  1
Ｈ－300×150×6.5×9（別途工事）
 41
0.7695
  7
FontTableH_0
 72
               5
 11
232.14246069519766
 21
253.88887370948652
 31
0.0
100
AcDbText
  0
TEXT
  5
4E0
100
AcDbEntity
  8
0
 62
               7
100
AcDbText
 10
407.59010027383408
 20
1074.8892397094864
 30
0.0
 40
8.0
  1
アルミ笠木(SAC-500)（別途工事）
 41
0.7695
  7
FontTableH_0
 72
               5
 11
525.31259665225582
 21
1074.8892397094864
 31
0.0
100
AcDbText
  0
TEXT
  5
4E1
100
AcDbEntity
  8
0
 62
               7
100
AcDbText
 10
895.87971227383412
 20
916.38948370948651
 30
0.0
 40
8.0
  1
水切リ：外壁同材
 41
0.7695
  7
FontTableH_0
 72
               5
 11
959.87971227383412
 21
916.38948370948651
 31
0.0
100
AcDbText
  0
TEXT
  5
4E2
100
AcDbEntity
  8
0
 62
               7
100
AcDbText
 10
906.14741227383422
 20
957.38887370948646
 30
0.0
 40
7.999999999999746
  1
50
 50
89.999981276031491
 41
0.7695
  7
FontTableH_0
 72
               5
 11
906.14741423460362
 21
963.38887370948623
 31
0.0
100
AcDbText
  0
TEXT
  5
4E3
100
AcDbEntity
  8
0
 62
               7
100
AcDbText
 10
1111.9790772738343
 20
274.8889497094865
 30
0.0
 40
8.0
  1
タテ樋（別途工事）
 41
0.7695
  7
FontTableH_0
 72
               5
 11
1183.9790772738343
 21
274.8889497094865
 31
0.0
100
AcDbText
  0
TEXT
  5
4E4
100
AcDbEntity
  8
0
 62
               7
100
AcDbText
 10
893.64802327383416
 20
636.63887370948646
 30
0.0
 40
8.0000000000004263
  1
≒12.5
 50
89.999981276031491
 41
0.7695
  7
FontTableH_0
 72
               5
 11
893.6480298620196
 21
656.79887451057175
 31
0.0
100
AcDbText
  0
TEXT
  5
4E5
100
AcDbEntity
  8
0
 62
               7
100
AcDbText
 10
893.64802327383416
 20
674.88997170948642
 30
0.0
 40
7.9999999999999716
  1
パイプ径(φ100)
 50
89.999981276031775
 41
0.7695
  7
FontTableH_0
 72
               5
 11
893.64804165604698
 21
731.13997170948346
 31
0.0
100
AcDbText
  0
TEXT
  5
4E6
100
AcDbEntity
  8
0
 62
               7
100
AcDbText
 10
893.64802327383416
 20
749.13887370948646
 30
0.0
 40
7.9999999999995177
  1
≒12.5
 50
89.999981276031491
 41
0.7695
  7
FontTableH_0
 72
               5
 11
893.6480298620196
 21
769.29887451057175
 31
0.0
100
AcDbText
  0
TEXT
  5
4E7
100
AcDbEntity
  8
0
 62
               7
100
AcDbText
 10
871.5926642738342
 20
809.65993070948639
 30
0.0
 40
8.0
  1
コ－キング（別途工事）
 41
0.7695
  7
FontTableH_0
 72
               5
 11
959.5926642738342
 21
809.65993070948639
 31
0.0
100
AcDbText
  0
TEXT
  5
4E8
100
AcDbEntity
  8
0
 62
               7
100
AcDbText
 10
1467.1474122738341
 20
803.88893470948642
 30
0.0
 40
8.0
  1
225
 41
0.7695
  7
FontTableH_0
 72
               5
 11
1476.1474122738341
 21
803.88893470948642
 31
0.0
100
AcDbText
  0
TEXT
  5
4E9
100
AcDbEntity
  8
0
 62
               7
100
AcDbText
 10
1443.9108402738343
 20
698.09022870948638
 30
0.0
 40
8.000000000000032
  1
パイプ径(φ100)
 50
14.999977780745496
 41
0.7695
  7
FontTableH_0
 72
               5
 11
1498.244173648392
 21
712.64877892608388
 31
0.0
100
AcDbText
  0
TEXT
  5
4EA
100
AcDbEntity
  8
0
 62
               7
100
AcDbText
 10
1395.373120273834
 20
685.08449070948632
 30
0.0
 40
8.000000000000032
  1
≒12
 50
14.999977780745782
 41
0.7695
  7
FontTableH_0
 72
               5
 11
1409.1107338623942
 21
688.76546746654503
 31
0.0
100
AcDbText
  0
TEXT
  5
4EB
100
AcDbEntity
  8
0
 62
               7
100
AcDbText
 10
1534.949414273834
 20
722.48396570948648
 30
0.0
 40
8.000000000000032
  1
≒12
 50
14.999977780745782
 41
0.7695
  7
FontTableH_0
 72
               5
 11
1548.6870278623942
 21
726.1649424665452
 31
0.0
100
AcDbText
  0
TEXT
  5
4EC
100
AcDbEntity
  8
0
 62
               7
100
AcDbText
 10
1362.5243652738341
 20
625.13612670948646
 30
0.0
 40
7.9999999999997717
  1
コ－キング目地
 41
0.7695
  7
FontTableH_0
 72
               5
 11
1418.5243652738341
 21
625.13612670948646
 31
0.0
100
AcDbText
  0
TEXT
  5
4ED
100
AcDbEntity
  8
0
 62
               7
100
AcDbText
 10
1370.5243652738341
 20
615.13612670948646
 30
0.0
 40
8.0
  1
（別途工事）
 41
0.7695
  7
FontTableH_0
 72
               5
 11
1418.5243652738341
 21
615.13612670948646
 31
0.0
100
AcDbText
  0
TEXT
  5
4EE
100
AcDbEntity
  8
0
 62
               7
100
AcDbText
 10
1325.6474122738341
 20
803.88887370948646
 30
0.0
 40
8.0
  1
＠225
 41
0.7695
  7
FontTableH_0
 72
               5
 11
1342.8349122738341
 21
803.88887370948646
 31
0.0
100
AcDbText
  0
TEXT
  5
4EF
100
AcDbEntity
  8
0
 62
               7
100
AcDbText
 10
1600.6474122738341
 20
803.88887370948646
 30
0.0
 40
8.0
  1
＠225
 41
0.7695
  7
FontTableH_0
 72
               5
 11
1617.8349122738341
 21
803.88887370948646
 31
0.0
100
AcDbText
  0
TEXT
  5
4F0
100
AcDbEntity
  8
0
 62
               7
100
AcDbText
 10
1586.6474122738341
 20
534.88890370948639
 30
0.0
 40
8.0000000000000018
  1
▽立ハゼライン
 50
270.00000112387431
 41
0.7695
  7
FontTableH_0
 72
               5
 11
1586.6474133722913
 21
478.88890370948639
 31
0.0
100
AcDbText
  0
TEXT
  5
4F1
100
AcDbEntity
  8
0
 62
               7
100
AcDbText
 10
1412.8974122738341
 20
789.88893470948642
 30
0.0
 40
8.0
  1
※
 41
0.7695
  7
FontTableH_0
 72
               5
 11
1420.8974122738341
 21
789.88893470948642
 31
0.0
100
AcDbText
  0
TEXT
  5
4F2
100
AcDbEntity
  8
0
 62
               7
100
AcDbText
 10
1525.3974122738341
 20
789.88893470948642
 30
0.0
 40
7.9999999999999218
  1
※
 50
359.99998239990595
 41
0.7695
  7
FontTableH_0
 72
               5
 11
1533.3974122738337
 21
789.8889322520497
 31
0.0
100
AcDbText
  0
TEXT
  5
4F3
100
AcDbEntity
  8
0
 62
               7
100
AcDbText
 10
1381.1474122738341
 20
440.88926970948643
 30
0.0
 40
8.0000000000002274
  1
※ 立ハゼにパイプがぶつからないように調整する｡
 41
0.7695
  7
FontTableH_0
 72
               5
 11
1564.827964021315
 21
440.88926970948643
 31
0.0
100
AcDbText
  0
TEXT
  5
4F4
100
AcDbEntity
  8
0
 62
               7
100
AcDbText
 10
462.13142127383412
 20
769.88997170948642
 30
0.0
 40
8.0
  1
呼樋（別途工事）
 41
0.7695
  7
FontTableH_0
 72
               5
 11
526.13142127383412
 21
769.88997170948642
 31
0.0
100
AcDbText
  0
TEXT
  5
4F5
100
AcDbEntity
  8
0
 62
               7
100
AcDbText
 10
753.14747327383418
 20
877.88887370948646
 30
0.0
 40
8.0
  1
100
 41
0.7695
  7
FontTableH_0
 72
               5
 11
762.14747327383418
 21
877.88887370948646
 31
0.0
100
AcDbText
  0
TEXT
  5
4F6
100
AcDbEntity
  8
0
 62
               7
100
AcDbText
 10
819.64747327383418
 20
877.88887370948646
 30
0.0
 40
8.0000000000002274
  1
27
 41
0.7695
  7
FontTableH_0
 72
               5
 11
825.64747327383418
 21
877.88887370948646
 31
0.0
100
AcDbText
  0
TEXT
  5
4F7
100
AcDbEntity
  8
0
 62
               7
100
AcDbText
 10
844.14747327383418
 20
877.88887370948646
 30
0.0
 40
8.0000000000002274
  1
20
 41
0.7695
  7
FontTableH_0
 72
               5
 11
850.14747327383418
 21
877.88887370948646
 31
0.0
100
AcDbText
  0
TEXT
  5
4F8
100
AcDbEntity
  8
0
 62
               7
100
AcDbText
 10
219.14747327383418
 20
670.88887370948646
 30
0.0
 40
8.0000000000000284
  1
10
 50
89.999981276031491
 41
0.7695
  7
FontTableH_0
 72
               5
 11
219.14747523460358
 21
676.88887370948623
 31
0.0
100
AcDbText
  0
TEXT
  5
4F9
100
AcDbEntity
  8
0
 62
               7
100
AcDbText
 10
219.14747327383418
 20
700.88887370948646
 30
0.0
 40
8.0000000000000284
  1
50
 50
89.999981276031491
 41
0.7695
  7
FontTableH_0
 72
               5
 11
219.14747523460358
 21
706.88887370948623
 31
0.0
100
AcDbText
  0
TEXT
  5
4FA
100
AcDbEntity
  8
0
 62
               7
100
AcDbText
 10
219.14747327383418
 20
760.88887370948646
 30
0.0
 40
8.0000000000000284
  1
70
 50
89.999981276031491
 41
0.7695
  7
FontTableH_0
 72
               5
 11
219.14747523460358
 21
766.88887370948623
 31
0.0
100
AcDbText
  0
TEXT
  5
4FB
100
AcDbEntity
  8
0
 62
               7
100
AcDbText
 10
420.14747327383418
 20
877.88887370948646
 30
0.0
 40
8.0000000000002274
  1
10
 41
0.7695
  7
FontTableH_0
 72
               5
 11
426.14747327383418
 21
877.88887370948646
 31
0.0
100
AcDbText
  0
TEXT
  5
4FC
100
AcDbEntity
  8
0
 62
               7
100
AcDbText
 10
398.64747327383418
 20
877.88887370948646
 30
0.0
 40
8.0000000000002274
  1
33
 41
0.7695
  7
FontTableH_0
 72
               5
 11
404.64747327383418
 21
877.88887370948646
 31
0.0
100
AcDbText
  0
TEXT
  5
4FD
100
AcDbEntity
  8
0
 62
               7
100
AcDbText
 10
357.14771727383413
 20
963.38893470948642
 30
0.0
 40
7.9999999999999716
  1
47
 50
89.999981276031491
 41
0.7695
  7
FontTableH_0
 72
               5
 11
357.14771923460353
 21
969.38893470948619
 31
0.0
100
AcDbText
  0
TEXT
  5
4FE
100
AcDbEntity
  8
0
 62
               7
100
AcDbText
 10
357.14771727383413
 20
992.88893470948642
 30
0.0
 40
8.0000000000000853
  1
8
 50
89.999981276031491
 41
0.7695
  7
FontTableH_0
 72
               5
 11
357.14771825421883
 21
995.88893470948619
 31
0.0
100
AcDbText
  0
TEXT
  5
4FF
100
AcDbEntity
  8
0
 62
               7
100
AcDbText
 10
343.14771727383413
 20
972.38893470948642
 30
0.0
 40
7.9999999999999716
  1
55
 50
89.999981276031491
 41
0.7695
  7
FontTableH_0
 72
               5
 11
343.14771923460353
 21
978.38893470948619
 31
0.0
100
AcDbText
  0
TEXT
  5
500
100
AcDbEntity
  8
0
 62
               7
100
AcDbText
 10
343.14771727383413
 20
1005.3889347094864
 30
0.0
 40
7.9999999999999716
  1
7
 50
89.999981276031491
 41
0.7695
  7
FontTableH_0
 72
               5
 11
343.14771825421883
 21
1008.3889347094862
 31
0.0
100
AcDbText
  0
TEXT
  5
501
100
AcDbEntity
  8
0
 62
               7
100
AcDbText
 10
840.14777827383398
 20
1014.3892397094864
 30
0.0
 40
8.0000000000002007
  1
15
 50
89.999981276031491
 41
0.7695
  7
FontTableH_0
 72
               5
 11
840.14778023460337
 21
1020.3892397094862
 31
0.0
100
AcDbText
  0
TEXT
  5
502
100
AcDbEntity
  8
0
 62
               7
100
AcDbText
 10
868.14747327383418
 20
877.88887370948646
 30
0.0
 40
8.0000000000002274
  1
30
 41
0.7695
  7
FontTableH_0
 72
               5
 11
874.14747327383418
 21
877.88887370948646
 31
0.0
100
AcDbText
  0
TEXT
  5
503
100
AcDbEntity
  8
0
 62
               7
100
AcDbText
 10
927.14747327383418
 20
1001.3888737094865
 30
0.0
 40
7.9999999999999716
  1
30
 50
89.999981276031491
 41
0.7695
  7
FontTableH_0
 72
               5
 11
927.14747523460358
 21
1007.3888737094862
 31
0.0
100
AcDbText
  0
TEXT
  5
504
100
AcDbEntity
  8
0
 62
               7
100
AcDbText
 10
927.14747327383418
 20
963.88887370948646
 30
0.0
 40
7.999999999999746
  1
45
 50
89.999981276031491
 41
0.7695
  7
FontTableH_0
 72
               5
 11
927.14747523460358
 21
969.88887370948623
 31
0.0
100
AcDbText
  0
TEXT
  5
505
100
AcDbEntity
  8
0
 62
               7
100
AcDbText
 10
941.14747327383418
 20
984.38893470948642
 30
0.0
 40
8.0000000000002007
  1
75
 50
89.999981276031491
 41
0.7695
  7
FontTableH_0
 72
               5
 11
941.14747523460358
 21
990.38893470948619
 31
0.0
100
AcDbText
  0
TEXT
  5
506
100
AcDbEntity
  8
0
 62
               7
100
AcDbText
 10
630.14747327383418
 20
1054.8889347094864
 30
0.0
 40
7.9999999999995461
  1
500
 41
0.7695
  7
FontTableH_0
 72
               5
 11
639.14747327383418
 21
1054.8889347094864
 31
0.0
100
AcDbText
  0
TEXT
  5
507
100
AcDbEntity
  8
0
 62
               7
100
AcDbText
 10
528.78126227383416
 20
915.88887370948646
 30
0.0
 40
8.0
  1
止水シ－ト（別途工事）
 41
0.7695
  7
FontTableH_0
 72
               5
 11
616.78126227383416
 21
915.88887370948646
 31
0.0
100
AcDbText
  0
TEXT
  5
508
100
AcDbEntity
  8
0
 62
               7
100
AcDbText
 10
873.64747327383418
 20
1040.8889347094864
 30
0.0
 40
7.9999999999995461
  1
17
 41
0.7695
  7
FontTableH_0
 72
               5
 11
879.64747327383418
 21
1040.8889347094864
 31
0.0
100
AcDbText
  0
TEXT
  5
509
100
AcDbEntity
  8
0
 62
               7
100
AcDbText
 10
297.14747327383418
 20
240.88887370948652
 30
0.0
 40
8.0
  1
通リ芯
 41
0.7695
  7
FontTableH_0
 72
               5
 11
321.14747327383418
 21
240.88887370948652
 31
0.0
100
AcDbText
  0
TEXT
  5
50A
100
AcDbEntity
  8
0
 62
               7
100
AcDbText
 10
297.14747327383418
 20
1080.8888737094865
 30
0.0
 40
8.0
  1
通リ芯
 41
0.7695
  7
FontTableH_0
 72
               5
 11
321.14747327383418
 21
1080.8888737094865
 31
0.0
100
AcDbText
  0
LINE
  5
50B
100
AcDbEntity
  8
1
  6
Continuous
 62
               7
100
AcDbLine
 10
530.4893797823803
 20
511.206432710667
 30
0.0
 11
530.4893797823803
 21
575.03218966022564
 31
0.0
  0
LINE
  5
50C
100
AcDbEntity
  8
1
  6
Continuous
 62
               7
100
AcDbLine
 10
630.48937978238052
 20
447.03218966022501
 30
0.0
 11
630.48937978238052
 21
585.03218966022564
 31
0.0
  0
LINE
  5
50D
100
AcDbEntity
  8
1
  6
Continuous
 62
               7
100
AcDbLine
 10
620.48937978238052
 20
585.03218966022564
 30
0.0
 11
540.4893797823803
 21
585.03218966022564
 31
0.0
  0
LINE
  5
50E
100
AcDbEntity
  8
1
  6
Continuous
 62
               7
100
AcDbLine
 10
530.4893797823803
 20
575.03218966022564
 30
0.0
 11
540.4893797823803
 21
585.03218966022564
 31
0.0
  0
LINE
  5
50F
100
AcDbEntity
  8
1
  6
Continuous
 62
               7
100
AcDbLine
 10
620.48937978238052
 20
585.03218966022564
 30
0.0
 11
630.48937978238052
 21
575.03218966022564
 31
0.0
  0
LINE
  5
510
100
AcDbEntity
  8
1
  6
Continuous
 62
               7
100
AcDbLine
 10
650.48937978238052
 20
448.86565139630551
 30
0.0
 11
650.48937978238052
 21
585.03218966022564
 31
0.0
  0
LINE
  5
511
100
AcDbEntity
  8
1
  6
Continuous
 62
               7
100
AcDbLine
 10
656.48937978238052
 20
450.14907593312597
 30
0.0
 11
656.48937978238052
 21
585.03218966022564
 31
0.0
  0
LINE
  5
512
100
AcDbEntity
  8
1
  6
Continuous
 62
               7
100
AcDbLine
 10
630.48937978238052
 20
585.03218966022564
 30
0.0
 11
650.48937978238052
 21
585.03218966022564
 31
0.0
  0
LINE
  5
513
100
AcDbEntity
  8
1
  6
Continuous
 62
               7
100
AcDbLine
 10
656.48937978238052
 20
585.03218966022564
 30
0.0
 11
650.48937978238052
 21
585.03218966022564
 31
0.0
  0
LINE
  5
514
100
AcDbEntity
  8
1
  6
Continuous
 62
               7
100
AcDbLine
 10
630.48937978238052
 20
448.56032708408276
 30
0.0
 11
530.4893797823803
 21
548.5603270840827
 31
0.0
  0
LINE
  5
515
100
AcDbEntity
  8
1
  6
Continuous
 62
               7
100
AcDbLine
 10
630.48937978238052
 20
462.70246270781371
 30
0.0
 11
530.4893797823803
 21
562.70246270781354
 31
0.0
  0
LINE
  5
516
100
AcDbEntity
  8
1
  6
Continuous
 62
               7
100
AcDbLine
 10
659.48937978238052
 20
450.92375455726079
 30
0.0
 11
659.48937978238052
 21
584.13218966022555
 31
0.0
  0
LINE
  5
517
100
AcDbEntity
  8
1
  6
Continuous
 62
               7
100
AcDbLine
 10
679.48937978238052
 20
458.54868850394001
 30
0.0
 11
679.48937978238052
 21
585.03218966022564
 31
0.0
  0
LINE
  5
518
100
AcDbEntity
  8
1
  6
Continuous
 62
               7
100
AcDbLine
 10
682.48937978238052
 20
588.53218966022496
 30
0.0
 11
682.48937978238052
 21
538.63218966022555
 31
0.0
  0
LINE
  5
519
100
AcDbEntity
  8
1
  6
Continuous
 62
               7
100
AcDbLine
 10
650.4893797823803
 20
456.71220503808178
 30
0.0
 11
641.3464784143606
 21
447.56930367006197
 31
0.0
  0
LINE
  5
51A
100
AcDbEntity
  8
1
  6
Continuous
 62
               7
100
AcDbLine
 10
633.78775910491015
 20
447.08165217247694
 30
0.0
 11
650.48937978238052
 21
463.78327284994731
 31
0.0
  0
LINE
  5
51B
100
AcDbEntity
  8
1
  6
Continuous
 62
               7
100
AcDbLine
 10
650.4893797823803
 20
470.85434066181284
 30
0.0
 11
630.48937978238052
 21
450.85434066181284
 31
0.0
  0
LINE
  5
51C
100
AcDbEntity
  8
1
  6
Continuous
 62
               7
100
AcDbLine
 10
650.4893797823803
 20
477.92540847367826
 30
0.0
 11
630.48937978238052
 21
457.92540847367826
 31
0.0
  0
LINE
  5
51D
100
AcDbEntity
  8
1
  6
Continuous
 62
               7
100
AcDbLine
 10
650.4893797823803
 20
484.99647628554368
 30
0.0
 11
630.48937978238052
 21
464.99647628554379
 31
0.0
  0
LINE
  5
51E
100
AcDbEntity
  8
1
  6
Continuous
 62
               7
100
AcDbLine
 10
650.4893797823803
 20
492.06754409740921
 30
0.0
 11
630.48937978238052
 21
472.06754409740921
 31
0.0
  0
LINE
  5
51F
100
AcDbEntity
  8
1
  6
Continuous
 62
               7
100
AcDbLine
 10
650.4893797823803
 20
499.13861190927474
 30
0.0
 11
630.48937978238052
 21
479.13861190927474
 31
0.0
  0
LINE
  5
520
100
AcDbEntity
  8
1
  6
Continuous
 62
               7
100
AcDbLine
 10
650.4893797823803
 20
506.20967972114016
 30
0.0
 11
630.48937978238052
 21
486.20967972114016
 31
0.0
  0
LINE
  5
521
100
AcDbEntity
  8
1
  6
Continuous
 62
               7
100
AcDbLine
 10
650.4893797823803
 20
513.28074753300575
 30
0.0
 11
630.48937978238052
 21
493.28074753300569
 31
0.0
  0
LINE
  5
522
100
AcDbEntity
  8
1
  6
Continuous
 62
               7
100
AcDbLine
 10
650.4893797823803
 20
520.35181534487106
 30
0.0
 11
630.48937978238052
 21
500.35181534487111
 31
0.0
  0
LINE
  5
523
100
AcDbEntity
  8
1
  6
Continuous
 62
               7
100
AcDbLine
 10
650.4893797823803
 20
527.42288315673659
 30
0.0
 11
630.48937978238052
 21
507.42288315673665
 31
0.0
  0
LINE
  5
524
100
AcDbEntity
  8
1
  6
Continuous
 62
               7
100
AcDbLine
 10
650.4893797823803
 20
534.49395096860212
 30
0.0
 11
630.48937978238052
 21
514.49395096860212
 31
0.0
  0
LINE
  5
525
100
AcDbEntity
  8
1
  6
Continuous
 62
               7
100
AcDbLine
 10
650.4893797823803
 20
541.56501878046765
 30
0.0
 11
630.48937978238052
 21
521.56501878046765
 31
0.0
  0
LINE
  5
526
100
AcDbEntity
  8
1
  6
Continuous
 62
               7
100
AcDbLine
 10
650.4893797823803
 20
548.63608659233296
 30
0.0
 11
630.48937978238052
 21
528.63608659233296
 31
0.0
  0
LINE
  5
527
100
AcDbEntity
  8
1
  6
Continuous
 62
               7
100
AcDbLine
 10
650.4893797823803
 20
555.70715440419849
 30
0.0
 11
630.48937978238052
 21
535.70715440419849
 31
0.0
  0
LINE
  5
528
100
AcDbEntity
  8
1
  6
Continuous
 62
               7
100
AcDbLine
 10
650.4893797823803
 20
562.7782222160638
 30
0.0
 11
630.48937978238052
 21
542.77822221606402
 31
0.0
  0
LINE
  5
529
100
AcDbEntity
  8
1
  6
Continuous
 62
               7
100
AcDbLine
 10
650.48937978238052
 20
569.84929002792933
 30
0.0
 11
630.48937978238052
 21
549.84929002792933
 31
0.0
  0
LINE
  5
52A
100
AcDbEntity
  8
1
  6
Continuous
 62
               7
100
AcDbLine
 10
650.48937978238052
 20
576.92035783979486
 30
0.0
 11
630.48937978238052
 21
556.92035783979486
 31
0.0
  0
LINE
  5
52B
100
AcDbEntity
  8
1
  6
Continuous
 62
               7
100
AcDbLine
 10
650.48937978238052
 20
583.99142565166039
 30
0.0
 11
630.48937978238052
 21
563.99142565166039
 31
0.0
  0
LINE
  5
52C
100
AcDbEntity
  8
1
  6
Continuous
 62
               7
100
AcDbLine
 10
630.48937978238052
 20
455.98673395527572
 30
0.0
 11
639.10592796829485
 21
447.3701857693614
 31
0.0
  0
LINE
  5
52D
100
AcDbEntity
  8
1
  6
Continuous
 62
               7
100
AcDbLine
 10
630.48937978238052
 20
463.05780176714103
 30
0.0
 11
645.48769708669499
 21
448.05948446282667
 31
0.0
  0
LINE
  5
52E
100
AcDbEntity
  8
1
  6
Continuous
 62
               7
100
AcDbLine
 10
630.48937978238052
 20
470.12886957900656
 30
0.0
 11
650.48937978238052
 21
450.12886957900656
 31
0.0
  0
LINE
  5
52F
100
AcDbEntity
  8
1
  6
Continuous
 62
               7
100
AcDbLine
 10
650.4893797823803
 20
457.19993739087209
 30
0.0
 11
630.48937978238052
 21
477.19993739087209
 31
0.0
  0
LINE
  5
530
100
AcDbEntity
  8
1
  6
Continuous
 62
               7
100
AcDbLine
 10
650.4893797823803
 20
464.27100520273763
 30
0.0
 11
630.48937978238052
 21
484.27100520273763
 31
0.0
  0
LINE
  5
531
100
AcDbEntity
  8
1
  6
Continuous
 62
               7
100
AcDbLine
 10
650.4893797823803
 20
471.34207301460316
 30
0.0
 11
630.48937978238052
 21
491.34207301460293
 31
0.0
  0
LINE
  5
532
100
AcDbEntity
  8
1
  6
Continuous
 62
               7
100
AcDbLine
 10
650.4893797823803
 20
478.41314082646846
 30
0.0
 11
630.48937978238052
 21
498.41314082646846
 31
0.0
  0
LINE
  5
533
100
AcDbEntity
  8
1
  6
Continuous
 62
               7
100
AcDbLine
 10
650.4893797823803
 20
485.484208638334
 30
0.0
 11
630.48937978238052
 21
505.484208638334
 31
0.0
  0
LINE
  5
534
100
AcDbEntity
  8
1
  6
Continuous
 62
               7
100
AcDbLine
 10
650.4893797823803
 20
492.55527645019953
 30
0.0
 11
630.48937978238052
 21
512.55527645019947
 31
0.0
  0
LINE
  5
535
100
AcDbEntity
  8
1
  6
Continuous
 62
               7
100
AcDbLine
 10
650.4893797823803
 20
499.62634426206506
 30
0.0
 11
630.48937978238052
 21
519.62634426206478
 31
0.0
  0
LINE
  5
536
100
AcDbEntity
  8
1
  6
Continuous
 62
               7
100
AcDbLine
 10
650.4893797823803
 20
506.69741207393037
 30
0.0
 11
630.48937978238052
 21
526.69741207393031
 31
0.0
  0
LINE
  5
537
100
AcDbEntity
  8
1
  6
Continuous
 62
               7
100
AcDbLine
 10
650.4893797823803
 20
513.76847988579584
 30
0.0
 11
630.48937978238052
 21
533.76847988579584
 31
0.0
  0
LINE
  5
538
100
AcDbEntity
  8
1
  6
Continuous
 62
               7
100
AcDbLine
 10
650.4893797823803
 20
520.83954769766137
 30
0.0
 11
630.48937978238052
 21
540.83954769766137
 31
0.0
  0
LINE
  5
539
100
AcDbEntity
  8
1
  6
Continuous
 62
               7
100
AcDbLine
 10
650.4893797823803
 20
527.91061550952691
 30
0.0
 11
630.48937978238052
 21
547.91061550952668
 31
0.0
  0
LINE
  5
53A
100
AcDbEntity
  8
1
  6
Continuous
 62
               7
100
AcDbLine
 10
650.4893797823803
 20
534.98168332139221
 30
0.0
 11
630.48937978238052
 21
554.98168332139221
 31
0.0
  0
LINE
  5
53B
100
AcDbEntity
  8
1
  6
Continuous
 62
               7
100
AcDbLine
 10
650.4893797823803
 20
542.05275113325774
 30
0.0
 11
630.48937978238052
 21
562.05275113325774
 31
0.0
  0
LINE
  5
53C
100
AcDbEntity
  8
1
  6
Continuous
 62
               7
100
AcDbLine
 10
650.4893797823803
 20
549.12381894512328
 30
0.0
 11
630.48937978238052
 21
569.12381894512328
 31
0.0
  0
LINE
  5
53D
100
AcDbEntity
  8
1
  6
Continuous
 62
               7
100
AcDbLine
 10
650.4893797823803
 20
556.19488675698881
 30
0.0
 11
630.48937978238052
 21
576.19488675698858
 31
0.0
  0
LINE
  5
53E
100
AcDbEntity
  8
1
  6
Continuous
 62
               7
100
AcDbLine
 10
650.4893797823803
 20
563.26595456885411
 30
0.0
 11
630.48937978238052
 21
583.26595456885411
 31
0.0
  0
LINE
  5
53F
100
AcDbEntity
  8
1
  6
Continuous
 62
               7
100
AcDbLine
 10
679.65709519467703
 20
547.88936739460064
 30
0.0
 11
681.28937978238048
 21
538.63218966022555
 31
0.0
  0
LINE
  5
540
100
AcDbEntity
  8
1
  6
Continuous
 62
               6
100
AcDbLine
 10
524.3809446794163
 20
586.03218966022564
 30
0.0
 11
620.4893797823803
 21
586.03218966022519
 31
0.0
  0
LINE
  5
541
100
AcDbEntity
  8
1
  6
DIVIDE
 62
               4
100
AcDbLine
 10
531.85920759817975
 20
605.73628738223329
 30
0.0
 11
691.50387101421495
 21
608.04997815638171
 31
0.0
  0
LINE
  5
542
100
AcDbEntity
  8
1
  6
DIVIDE
 62
               4
100
AcDbLine
 10
532.8783690811357
 20
607.74797211383088
 30
0.0
 11
690.4893797823803
 21
610.03218966022564
 31
0.0
  0
LINE
  5
543
100
AcDbEntity
  8
1
  6
DIVIDE
 62
               4
100
AcDbLine
 10
705.4893797823803
 20
552.03218966022541
 30
0.0
 11
705.48937978238052
 21
623.03218966022587
 31
0.0
  0
LINE
  5
544
100
AcDbEntity
  8
1
  6
DIVIDE
 62
               4
100
AcDbLine
 10
707.48937978238075
 20
551.03218966022541
 30
0.0
 11
707.48937978238052
 21
624.03218966022587
 31
0.0
  0
LINE
  5
545
100
AcDbEntity
  8
1
  6
DIVIDE
 62
               4
100
AcDbLine
 10
697.4893797823803
 20
552.03218966022541
 30
0.0
 11
705.4893797823803
 21
552.03218966022541
 31
0.0
  0
LINE
  5
546
100
AcDbEntity
  8
1
  6
DIVIDE
 62
               4
100
AcDbLine
 10
697.4893797823803
 20
550.03218966022541
 30
0.0
 11
697.4893797823803
 21
552.03218966022541
 31
0.0
  0
LINE
  5
547
100
AcDbEntity
  8
1
  6
DIVIDE
 62
               4
100
AcDbLine
 10
697.4893797823803
 20
550.03218966022541
 30
0.0
 11
706.48937978238052
 21
550.03218966022541
 31
0.0
  0
LINE
  5
548
100
AcDbEntity
  8
1
  6
DIVIDE
 62
               4
100
AcDbLine
 10
692.4893797823803
 20
609.04987315296898
 30
0.0
 11
692.4893797823803
 21
623.03218966022587
 31
0.0
  0
LINE
  5
549
100
AcDbEntity
  8
1
  6
DIVIDE
 62
               4
100
AcDbLine
 10
690.4893797823803
 20
624.03218966022587
 30
0.0
 11
690.4893797823803
 21
610.03218966022564
 31
0.0
  0
LINE
  5
54A
100
AcDbEntity
  8
1
  6
DIVIDE
 62
               4
100
AcDbLine
 10
692.4893797823803
 20
623.03218966022587
 30
0.0
 11
705.4893797823803
 21
623.03218966022587
 31
0.0
  0
LINE
  5
54B
100
AcDbEntity
  8
1
  6
DIVIDE
 62
               4
100
AcDbLine
 10
691.4893797823803
 20
625.03218966022587
 30
0.0
 11
706.4893797823803
 21
625.03218966022587
 31
0.0
  0
LINE
  5
54C
100
AcDbEntity
  8
1
  6
Continuous
 62
               6
100
AcDbLine
 10
524.112690606603
 20
585.03218966022564
 30
0.0
 11
620.4893797823803
 21
585.03218966022564
 31
0.0
  0
LINE
  5
54D
100
AcDbEntity
  8
1
  6
Continuous
 62
               7
100
AcDbLine
 10
644.45907597908047
 20
585.03218966022564
 30
0.0
 11
630.48937978238052
 21
571.0624934635257
 31
0.0
  0
LINE
  5
54E
100
AcDbEntity
  8
1
  6
Continuous
 62
               7
100
AcDbLine
 10
650.4893797823803
 20
570.33702238071965
 30
0.0
 11
635.7942125028743
 21
585.03218966022564
 31
0.0
  0
LINE
  5
54F
100
AcDbEntity
  8
1
  6
Continuous
 62
               7
100
AcDbLine
 10
637.38800816721493
 20
585.03218966022564
 30
0.0
 11
630.48937978238052
 21
578.13356127539123
 31
0.0
  0
LINE
  5
550
100
AcDbEntity
  8
1
  6
Continuous
 62
               7
100
AcDbLine
 10
650.4893797823803
 20
577.40809019258495
 30
0.0
 11
642.86528031473983
 21
585.03218966022564
 31
0.0
  0
LINE
  5
551
100
AcDbEntity
  8
1
  6
Continuous
 62
               7
100
AcDbLine
 10
650.4893797823803
 20
584.47915800445048
 30
0.0
 11
649.93634812660514
 21
585.03218966022564
 31
0.0
  0
LINE
  5
552
100
AcDbEntity
  8
1
  6
Continuous
 62
               6
100
AcDbLine
 10
620.4893797823803
 20
585.03218966022564
 30
0.0
 11
620.4893797823803
 21
586.03218966022519
 31
0.0
  0
LINE
  5
553
100
AcDbEntity
  8
1
  6
Continuous
 62
               6
100
AcDbLine
 10
657.48937978238052
 20
450.39729855979778
 30
0.0
 11
657.48937978238052
 21
585.03218966022519
 31
0.0
  0
LINE
  5
554
100
AcDbEntity
  8
1
  6
Continuous
 62
               6
100
AcDbLine
 10
656.48937978238052
 20
585.03218966022564
 30
0.0
 11
657.48937978238052
 21
585.03218966022564
 31
0.0
  0
LINE
  5
555
100
AcDbEntity
  8
1
  6
Continuous
 62
               6
100
AcDbLine
 10
656.48937978238052
 20
587.03218966022519
 30
0.0
 11
524.112690606603
 21
587.03218966022541
 31
0.0
  0
LINE
  5
556
100
AcDbEntity
  8
1
  6
Continuous
 62
               6
100
AcDbLine
 10
656.48937978238052
 20
586.03218966022519
 30
0.0
 11
524.112690606603
 21
586.03218966022541
 31
0.0
  0
LINE
  5
557
100
AcDbEntity
  8
1
  6
Continuous
 62
               6
100
AcDbLine
 10
658.48937978238052
 20
585.03218966022496
 30
0.0
 11
658.48937978238052
 21
487.03218966022501
 31
0.0
  0
LINE
  5
558
100
AcDbEntity
  8
1
  6
Continuous
 62
               6
100
AcDbLine
 10
658.48937978238052
 20
487.03218966022501
 30
0.0
 11
657.48937978238052
 21
487.03218966022501
 31
0.0
  0
LINE
  5
559
100
AcDbEntity
  8
1
  6
Continuous
 62
               7
100
AcDbLine
 10
659.88937978238039
 20
451.03388778703476
 30
0.0
 11
659.88937978238039
 21
584.13218966022578
 31
0.0
  0
LINE
  5
55A
100
AcDbEntity
  8
1
  6
Continuous
 62
               7
100
AcDbLine
 10
660.38937978238039
 20
585.03218966022564
 30
0.0
 11
679.48937978238052
 21
585.03218966022564
 31
0.0
  0
LINE
  5
55B
100
AcDbEntity
  8
1
  6
Continuous
 62
               7
100
AcDbLine
 10
660.38937978238039
 20
584.63218966022578
 30
0.0
 11
679.48937978238052
 21
584.63218966022578
 31
0.0
  0
LINE
  5
55C
100
AcDbEntity
  8
1
  6
Continuous
 62
               7
100
AcDbLine
 10
681.58937978238043
 20
589.03218966022496
 30
0.0
 11
582.48937978238052
 21
589.03218966022541
 31
0.0
  0
LINE
  5
55D
100
AcDbEntity
  8
1
  6
Continuous
 62
               7
100
AcDbLine
 10
681.58937978238043
 20
589.43218966022505
 30
0.0
 11
582.48937978238052
 21
589.4321896602255
 31
0.0
  0
LINE
  5
55E
100
AcDbEntity
  8
1
  6
Continuous
 62
               7
100
AcDbLine
 10
682.08937978238043
 20
588.53218966022496
 30
0.0
 11
682.08937978238043
 21
538.63218966022555
 31
0.0
  0
LINE
  5
55F
100
AcDbEntity
  8
1
  6
Continuous
 62
               7
100
AcDbLine
 10
582.48937978238052
 20
589.43218966022505
 30
0.0
 11
582.48937978238052
 21
589.03218966022541
 31
0.0
  0
LINE
  5
560
100
AcDbEntity
  8
1
  6
Continuous
 62
               7
100
AcDbLine
 10
680.05101833672109
 20
547.95882643405616
 30
0.0
 11
681.68330292442454
 21
538.7016486996813
 31
0.0
  0
LINE
  5
561
100
AcDbEntity
  8
1
  6
Continuous
 62
               7
100
AcDbLine
 10
679.65709519467703
 20
547.88936739460064
 30
0.0
 11
680.05101833672109
 21
547.95882643405616
 31
0.0
  0
LINE
  5
562
100
AcDbEntity
  8
1
  6
Continuous
 62
               6
100
AcDbLine
 10
658.48937978238052
 20
487.26768767240861
 30
0.0
 11
658.25388177019693
 21
487.03218966022501
 31
0.0
  0
LINE
  5
563
100
AcDbEntity
  8
1
  6
Continuous
 62
               6
100
AcDbLine
 10
658.48937978238052
 20
488.68190123478172
 30
0.0
 11
657.4893797823803
 21
487.68190123478172
 31
0.0
  0
LINE
  5
564
100
AcDbEntity
  8
1
  6
Continuous
 62
               6
100
AcDbLine
 10
658.48937978238052
 20
490.09611479715483
 30
0.0
 11
657.4893797823803
 21
489.09611479715483
 31
0.0
  0
LINE
  5
565
100
AcDbEntity
  8
1
  6
Continuous
 62
               6
100
AcDbLine
 10
658.48937978238052
 20
491.51032835952793
 30
0.0
 11
657.4893797823803
 21
490.51032835952793
 31
0.0
  0
LINE
  5
566
100
AcDbEntity
  8
1
  6
Continuous
 62
               6
100
AcDbLine
 10
658.48937978238052
 20
492.92454192190104
 30
0.0
 11
657.4893797823803
 21
491.92454192190104
 31
0.0
  0
LINE
  5
567
100
AcDbEntity
  8
1
  6
Continuous
 62
               6
100
AcDbLine
 10
658.48937978238052
 20
494.33875548427415
 30
0.0
 11
657.4893797823803
 21
493.33875548427415
 31
0.0
  0
LINE
  5
568
100
AcDbEntity
  8
1
  6
Continuous
 62
               6
100
AcDbLine
 10
658.48937978238052
 20
495.75296904664725
 30
0.0
 11
657.4893797823803
 21
494.75296904664725
 31
0.0
  0
LINE
  5
569
100
AcDbEntity
  8
1
  6
Continuous
 62
               6
100
AcDbLine
 10
658.48937978238052
 20
497.16718260902036
 30
0.0
 11
657.4893797823803
 21
496.16718260902036
 31
0.0
  0
LINE
  5
56A
100
AcDbEntity
  8
1
  6
Continuous
 62
               6
100
AcDbLine
 10
658.48937978238052
 20
498.58139617139346
 30
0.0
 11
657.4893797823803
 21
497.58139617139346
 31
0.0
  0
LINE
  5
56B
100
AcDbEntity
  8
1
  6
Continuous
 62
               6
100
AcDbLine
 10
658.48937978238052
 20
499.99560973376657
 30
0.0
 11
657.4893797823803
 21
498.99560973376657
 31
0.0
  0
LINE
  5
56C
100
AcDbEntity
  8
1
  6
Continuous
 62
               6
100
AcDbLine
 10
658.48937978238052
 20
501.40982329613956
 30
0.0
 11
657.4893797823803
 21
500.40982329613956
 31
0.0
  0
LINE
  5
56D
100
AcDbEntity
  8
1
  6
Continuous
 62
               6
100
AcDbLine
 10
658.48937978238052
 20
502.82403685851267
 30
0.0
 11
657.4893797823803
 21
501.82403685851267
 31
0.0
  0
LINE
  5
56E
100
AcDbEntity
  8
1
  6
Continuous
 62
               6
100
AcDbLine
 10
658.48937978238052
 20
504.23825042088578
 30
0.0
 11
657.4893797823803
 21
503.23825042088578
 31
0.0
  0
LINE
  5
56F
100
AcDbEntity
  8
1
  6
Continuous
 62
               6
100
AcDbLine
 10
658.48937978238052
 20
505.65246398325888
 30
0.0
 11
657.4893797823803
 21
504.65246398325888
 31
0.0
  0
LINE
  5
570
100
AcDbEntity
  8
1
  6
Continuous
 62
               6
100
AcDbLine
 10
658.48937978238052
 20
507.06667754563199
 30
0.0
 11
657.4893797823803
 21
506.06667754563188
 31
0.0
  0
LINE
  5
571
100
AcDbEntity
  8
1
  6
Continuous
 62
               6
100
AcDbLine
 10
658.48937978238052
 20
508.4808911080051
 30
0.0
 11
657.4893797823803
 21
507.4808911080051
 31
0.0
  0
LINE
  5
572
100
AcDbEntity
  8
1
  6
Continuous
 62
               6
100
AcDbLine
 10
658.48937978238052
 20
509.8951046703782
 30
0.0
 11
657.4893797823803
 21
508.8951046703782
 31
0.0
  0
LINE
  5
573
100
AcDbEntity
  8
1
  6
Continuous
 62
               6
100
AcDbLine
 10
658.48937978238052
 20
511.30931823275131
 30
0.0
 11
657.4893797823803
 21
510.30931823275131
 31
0.0
  0
LINE
  5
574
100
AcDbEntity
  8
1
  6
Continuous
 62
               6
100
AcDbLine
 10
658.48937978238052
 20
512.72353179512425
 30
0.0
 11
657.4893797823803
 21
511.7235317951243
 31
0.0
  0
LINE
  5
575
100
AcDbEntity
  8
1
  6
Continuous
 62
               6
100
AcDbLine
 10
658.48937978238052
 20
514.13774535749735
 30
0.0
 11
657.4893797823803
 21
513.13774535749735
 31
0.0
  0
LINE
  5
576
100
AcDbEntity
  8
1
  6
Continuous
 62
               6
100
AcDbLine
 10
658.48937978238052
 20
515.55195891987046
 30
0.0
 11
657.4893797823803
 21
514.55195891987046
 31
0.0
  0
LINE
  5
577
100
AcDbEntity
  8
1
  6
Continuous
 62
               6
100
AcDbLine
 10
658.48937978238052
 20
516.96617248224356
 30
0.0
 11
657.4893797823803
 21
515.96617248224356
 31
0.0
  0
LINE
  5
578
100
AcDbEntity
  8
1
  6
Continuous
 62
               6
100
AcDbLine
 10
658.48937978238052
 20
518.38038604461667
 30
0.0
 11
657.4893797823803
 21
517.38038604461667
 31
0.0
  0
LINE
  5
579
100
AcDbEntity
  8
1
  6
Continuous
 62
               6
100
AcDbLine
 10
658.48937978238052
 20
519.79459960698978
 30
0.0
 11
657.4893797823803
 21
518.79459960698978
 31
0.0
  0
LINE
  5
57A
100
AcDbEntity
  8
1
  6
Continuous
 62
               6
100
AcDbLine
 10
658.48937978238052
 20
521.20881316936288
 30
0.0
 11
657.4893797823803
 21
520.20881316936288
 31
0.0
  0
LINE
  5
57B
100
AcDbEntity
  8
1
  6
Continuous
 62
               6
100
AcDbLine
 10
658.48937978238052
 20
522.62302673173599
 30
0.0
 11
657.4893797823803
 21
521.62302673173599
 31
0.0
  0
LINE
  5
57C
100
AcDbEntity
  8
1
  6
Continuous
 62
               6
100
AcDbLine
 10
658.48937978238052
 20
524.0372402941091
 30
0.0
 11
657.4893797823803
 21
523.0372402941091
 31
0.0
  0
LINE
  5
57D
100
AcDbEntity
  8
1
  6
Continuous
 62
               6
100
AcDbLine
 10
658.48937978238052
 20
525.4514538564822
 30
0.0
 11
657.4893797823803
 21
524.4514538564822
 31
0.0
  0
LINE
  5
57E
100
AcDbEntity
  8
1
  6
Continuous
 62
               6
100
AcDbLine
 10
658.48937978238052
 20
526.86566741885531
 30
0.0
 11
657.4893797823803
 21
525.86566741885531
 31
0.0
  0
LINE
  5
57F
100
AcDbEntity
  8
1
  6
Continuous
 62
               6
100
AcDbLine
 10
658.48937978238052
 20
528.27988098122842
 30
0.0
 11
657.4893797823803
 21
527.27988098122842
 31
0.0
  0
LINE
  5
580
100
AcDbEntity
  8
1
  6
Continuous
 62
               6
100
AcDbLine
 10
658.48937978238052
 20
529.69409454360152
 30
0.0
 11
657.4893797823803
 21
528.6940945436013
 31
0.0
  0
LINE
  5
581
100
AcDbEntity
  8
1
  6
Continuous
 62
               6
100
AcDbLine
 10
658.48937978238052
 20
531.1083081059744
 30
0.0
 11
657.4893797823803
 21
530.1083081059744
 31
0.0
  0
LINE
  5
582
100
AcDbEntity
  8
1
  6
Continuous
 62
               6
100
AcDbLine
 10
658.48937978238052
 20
532.52252166834751
 30
0.0
 11
657.4893797823803
 21
531.52252166834751
 31
0.0
  0
LINE
  5
583
100
AcDbEntity
  8
1
  6
Continuous
 62
               6
100
AcDbLine
 10
658.48937978238052
 20
533.93673523072061
 30
0.0
 11
657.4893797823803
 21
532.93673523072061
 31
0.0
  0
LINE
  5
584
100
AcDbEntity
  8
1
  6
Continuous
 62
               6
100
AcDbLine
 10
658.48937978238052
 20
535.35094879309372
 30
0.0
 11
657.4893797823803
 21
534.35094879309372
 31
0.0
  0
LINE
  5
585
100
AcDbEntity
  8
1
  6
Continuous
 62
               6
100
AcDbLine
 10
658.48937978238052
 20
536.76516235546683
 30
0.0
 11
657.4893797823803
 21
535.76516235546683
 31
0.0
  0
LINE
  5
586
100
AcDbEntity
  8
1
  6
Continuous
 62
               6
100
AcDbLine
 10
658.48937978238052
 20
538.17937591783993
 30
0.0
 11
657.4893797823803
 21
537.17937591783993
 31
0.0
  0
LINE
  5
587
100
AcDbEntity
  8
1
  6
Continuous
 62
               6
100
AcDbLine
 10
658.48937978238052
 20
539.59358948021304
 30
0.0
 11
657.4893797823803
 21
538.59358948021304
 31
0.0
  0
LINE
  5
588
100
AcDbEntity
  8
1
  6
Continuous
 62
               6
100
AcDbLine
 10
658.48937978238052
 20
541.00780304258615
 30
0.0
 11
657.4893797823803
 21
540.00780304258615
 31
0.0
  0
LINE
  5
589
100
AcDbEntity
  8
1
  6
Continuous
 62
               6
100
AcDbLine
 10
658.48937978238052
 20
542.42201660495925
 30
0.0
 11
657.4893797823803
 21
541.42201660495925
 31
0.0
  0
LINE
  5
58A
100
AcDbEntity
  8
1
  6
Continuous
 62
               6
100
AcDbLine
 10
658.48937978238052
 20
543.83623016733236
 30
0.0
 11
657.4893797823803
 21
542.83623016733236
 31
0.0
  0
LINE
  5
58B
100
AcDbEntity
  8
1
  6
Continuous
 62
               6
100
AcDbLine
 10
658.48937978238052
 20
545.25044372970547
 30
0.0
 11
657.4893797823803
 21
544.25044372970547
 31
0.0
  0
LINE
  5
58C
100
AcDbEntity
  8
1
  6
Continuous
 62
               6
100
AcDbLine
 10
658.48937978238052
 20
546.66465729207857
 30
0.0
 11
657.4893797823803
 21
545.66465729207857
 31
0.0
  0
LINE
  5
58D
100
AcDbEntity
  8
1
  6
Continuous
 62
               6
100
AcDbLine
 10
658.48937978238052
 20
548.07887085445168
 30
0.0
 11
657.4893797823803
 21
547.07887085445168
 31
0.0
  0
LINE
  5
58E
100
AcDbEntity
  8
1
  6
Continuous
 62
               6
100
AcDbLine
 10
658.48937978238052
 20
549.49308441682479
 30
0.0
 11
657.4893797823803
 21
548.49308441682456
 31
0.0
  0
LINE
  5
58F
100
AcDbEntity
  8
1
  6
Continuous
 62
               6
100
AcDbLine
 10
658.48937978238052
 20
550.90729797919789
 30
0.0
 11
657.4893797823803
 21
549.90729797919766
 31
0.0
  0
LINE
  5
590
100
AcDbEntity
  8
1
  6
Continuous
 62
               6
100
AcDbLine
 10
658.48937978238052
 20
552.321511541571
 30
0.0
 11
657.4893797823803
 21
551.321511541571
 31
0.0
  0
LINE
  5
591
100
AcDbEntity
  8
1
  6
Continuous
 62
               6
100
AcDbLine
 10
658.48937978238052
 20
553.73572510394411
 30
0.0
 11
657.4893797823803
 21
552.73572510394411
 31
0.0
  0
LINE
  5
592
100
AcDbEntity
  8
1
  6
Continuous
 62
               6
100
AcDbLine
 10
658.48937978238052
 20
555.14993866631721
 30
0.0
 11
657.4893797823803
 21
554.14993866631721
 31
0.0
  0
LINE
  5
593
100
AcDbEntity
  8
1
  6
Continuous
 62
               6
100
AcDbLine
 10
658.48937978238052
 20
556.56415222869009
 30
0.0
 11
657.4893797823803
 21
555.56415222869009
 31
0.0
  0
LINE
  5
594
100
AcDbEntity
  8
1
  6
Continuous
 62
               6
100
AcDbLine
 10
658.48937978238052
 20
557.9783657910632
 30
0.0
 11
657.4893797823803
 21
556.9783657910632
 31
0.0
  0
LINE
  5
595
100
AcDbEntity
  8
1
  6
Continuous
 62
               6
100
AcDbLine
 10
658.48937978238052
 20
559.3925793534363
 30
0.0
 11
657.4893797823803
 21
558.3925793534363
 31
0.0
  0
LINE
  5
596
100
AcDbEntity
  8
1
  6
Continuous
 62
               6
100
AcDbLine
 10
658.48937978238052
 20
560.80679291580941
 30
0.0
 11
657.4893797823803
 21
559.80679291580941
 31
0.0
  0
LINE
  5
597
100
AcDbEntity
  8
1
  6
Continuous
 62
               6
100
AcDbLine
 10
658.48937978238052
 20
562.22100647818252
 30
0.0
 11
657.4893797823803
 21
561.22100647818252
 31
0.0
  0
LINE
  5
598
100
AcDbEntity
  8
1
  6
Continuous
 62
               6
100
AcDbLine
 10
658.48937978238052
 20
563.63522004055562
 30
0.0
 11
657.4893797823803
 21
562.63522004055562
 31
0.0
  0
LINE
  5
599
100
AcDbEntity
  8
1
  6
Continuous
 62
               6
100
AcDbLine
 10
658.48937978238052
 20
565.04943360292873
 30
0.0
 11
657.4893797823803
 21
564.04943360292873
 31
0.0
  0
LINE
  5
59A
100
AcDbEntity
  8
1
  6
Continuous
 62
               6
100
AcDbLine
 10
658.48937978238052
 20
566.46364716530184
 30
0.0
 11
657.4893797823803
 21
565.46364716530184
 31
0.0
  0
LINE
  5
59B
100
AcDbEntity
  8
1
  6
Continuous
 62
               6
100
AcDbLine
 10
658.48937978238052
 20
567.87786072767494
 30
0.0
 11
657.4893797823803
 21
566.87786072767494
 31
0.0
  0
LINE
  5
59C
100
AcDbEntity
  8
1
  6
Continuous
 62
               6
100
AcDbLine
 10
658.48937978238052
 20
569.29207429004805
 30
0.0
 11
657.4893797823803
 21
568.29207429004805
 31
0.0
  0
LINE
  5
59D
100
AcDbEntity
  8
1
  6
Continuous
 62
               6
100
AcDbLine
 10
658.48937978238052
 20
570.70628785242116
 30
0.0
 11
657.4893797823803
 21
569.70628785242116
 31
0.0
  0
LINE
  5
59E
100
AcDbEntity
  8
1
  6
Continuous
 62
               6
100
AcDbLine
 10
658.48937978238052
 20
572.12050141479426
 30
0.0
 11
657.4893797823803
 21
571.12050141479426
 31
0.0
  0
LINE
  5
59F
100
AcDbEntity
  8
1
  6
Continuous
 62
               6
100
AcDbLine
 10
658.48937978238052
 20
573.53471497716737
 30
0.0
 11
657.4893797823803
 21
572.53471497716737
 31
0.0
  0
LINE
  5
5A0
100
AcDbEntity
  8
1
  6
Continuous
 62
               6
100
AcDbLine
 10
658.48937978238052
 20
574.94892853954047
 30
0.0
 11
657.4893797823803
 21
573.94892853954047
 31
0.0
  0
LINE
  5
5A1
100
AcDbEntity
  8
1
  6
Continuous
 62
               6
100
AcDbLine
 10
658.48937978238052
 20
576.36314210191358
 30
0.0
 11
657.4893797823803
 21
575.36314210191358
 31
0.0
  0
LINE
  5
5A2
100
AcDbEntity
  8
1
  6
Continuous
 62
               6
100
AcDbLine
 10
658.48937978238052
 20
577.77735566428669
 30
0.0
 11
657.4893797823803
 21
576.77735566428669
 31
0.0
  0
LINE
  5
5A3
100
AcDbEntity
  8
1
  6
Continuous
 62
               6
100
AcDbLine
 10
658.48937978238052
 20
579.19156922665979
 30
0.0
 11
657.4893797823803
 21
578.19156922665979
 31
0.0
  0
LINE
  5
5A4
100
AcDbEntity
  8
1
  6
Continuous
 62
               6
100
AcDbLine
 10
658.48937978238052
 20
580.6057827890329
 30
0.0
 11
657.4893797823803
 21
579.6057827890329
 31
0.0
  0
LINE
  5
5A5
100
AcDbEntity
  8
1
  6
Continuous
 62
               6
100
AcDbLine
 10
658.48937978238052
 20
582.01999635140601
 30
0.0
 11
657.4893797823803
 21
581.01999635140601
 31
0.0
  0
LINE
  5
5A6
100
AcDbEntity
  8
1
  6
Continuous
 62
               6
100
AcDbLine
 10
658.48937978238052
 20
583.43420991377911
 30
0.0
 11
657.4893797823803
 21
582.43420991377911
 31
0.0
  0
LINE
  5
5A7
100
AcDbEntity
  8
1
  6
Continuous
 62
               6
100
AcDbLine
 10
658.48937978238052
 20
584.84842347615199
 30
0.0
 11
657.4893797823803
 21
583.84842347615199
 31
0.0
  0
LINE
  5
5A8
100
AcDbEntity
  8
1
  6
Continuous
 62
               6
100
AcDbLine
 10
658.23501875735531
 20
586.00827601349988
 30
0.0
 11
657.46740746542321
 21
585.24066472156801
 31
0.0
  0
LINE
  5
5A9
100
AcDbEntity
  8
1
  6
Continuous
 62
               6
100
AcDbLine
 10
657.54403989585069
 20
586.7315107143686
 30
0.0
 11
656.79641650843462
 21
585.9838873269523
 31
0.0
  0
LINE
  5
5AA
100
AcDbEntity
  8
1
  6
Continuous
 62
               6
100
AcDbLine
 10
656.43050527933417
 20
587.03218966022519
 30
0.0
 11
655.43050527933417
 21
586.03218966022519
 31
0.0
  0
LINE
  5
5AB
100
AcDbEntity
  8
1
  6
Continuous
 62
               6
100
AcDbLine
 10
655.01629171696106
 20
587.03218966022519
 30
0.0
 11
654.01629171696106
 21
586.03218966022519
 31
0.0
  0
LINE
  5
5AC
100
AcDbEntity
  8
1
  6
Continuous
 62
               6
100
AcDbLine
 10
653.60207815458796
 20
587.03218966022519
 30
0.0
 11
652.60207815458796
 21
586.03218966022519
 31
0.0
  0
LINE
  5
5AD
100
AcDbEntity
  8
1
  6
Continuous
 62
               6
100
AcDbLine
 10
652.18786459221485
 20
587.03218966022519
 30
0.0
 11
651.18786459221485
 21
586.03218966022519
 31
0.0
  0
LINE
  5
5AE
100
AcDbEntity
  8
1
  6
Continuous
 62
               6
100
AcDbLine
 10
650.77365102984174
 20
587.03218966022519
 30
0.0
 11
649.77365102984197
 21
586.03218966022519
 31
0.0
  0
LINE
  5
5AF
100
AcDbEntity
  8
1
  6
Continuous
 62
               6
100
AcDbLine
 10
649.35943746746864
 20
587.03218966022519
 30
0.0
 11
648.35943746746864
 21
586.03218966022519
 31
0.0
  0
LINE
  5
5B0
100
AcDbEntity
  8
1
  6
Continuous
 62
               6
100
AcDbLine
 10
647.94522390509576
 20
587.03218966022519
 30
0.0
 11
646.94522390509576
 21
586.03218966022519
 31
0.0
  0
LINE
  5
5B1
100
AcDbEntity
  8
1
  6
Continuous
 62
               6
100
AcDbLine
 10
646.53101034272242
 20
587.03218966022519
 30
0.0
 11
645.53101034272242
 21
586.03218966022519
 31
0.0
  0
LINE
  5
5B2
100
AcDbEntity
  8
1
  6
Continuous
 62
               6
100
AcDbLine
 10
645.11679678034955
 20
587.03218966022519
 30
0.0
 11
644.11679678034955
 21
586.03218966022519
 31
0.0
  0
LINE
  5
5B3
100
AcDbEntity
  8
1
  6
Continuous
 62
               6
100
AcDbLine
 10
643.70258321797621
 20
587.03218966022519
 30
0.0
 11
642.70258321797621
 21
586.03218966022519
 31
0.0
  0
LINE
  5
5B4
100
AcDbEntity
  8
1
  6
Continuous
 62
               6
100
AcDbLine
 10
642.28836965560333
 20
587.03218966022519
 30
0.0
 11
641.28836965560333
 21
586.03218966022519
 31
0.0
  0
LINE
  5
5B5
100
AcDbEntity
  8
1
  6
Continuous
 62
               6
100
AcDbLine
 10
640.87415609323
 20
587.03218966022519
 30
0.0
 11
639.87415609323023
 21
586.03218966022519
 31
0.0
  0
LINE
  5
5B6
100
AcDbEntity
  8
1
  6
Continuous
 62
               6
100
AcDbLine
 10
639.45994253085712
 20
587.03218966022519
 30
0.0
 11
638.45994253085712
 21
586.03218966022519
 31
0.0
  0
LINE
  5
5B7
100
AcDbEntity
  8
1
  6
Continuous
 62
               6
100
AcDbLine
 10
638.04572896848401
 20
587.03218966022519
 30
0.0
 11
637.04572896848401
 21
586.03218966022519
 31
0.0
  0
LINE
  5
5B8
100
AcDbEntity
  8
1
  6
Continuous
 62
               6
100
AcDbLine
 10
636.63151540611091
 20
587.03218966022519
 30
0.0
 11
635.63151540611091
 21
586.03218966022519
 31
0.0
  0
LINE
  5
5B9
100
AcDbEntity
  8
1
  6
Continuous
 62
               6
100
AcDbLine
 10
635.2173018437378
 20
587.03218966022519
 30
0.0
 11
634.2173018437378
 21
586.03218966022519
 31
0.0
  0
LINE
  5
5BA
100
AcDbEntity
  8
1
  6
Continuous
 62
               6
100
AcDbLine
 10
633.80308828136469
 20
587.03218966022519
 30
0.0
 11
632.80308828136469
 21
586.03218966022519
 31
0.0
  0
LINE
  5
5BB
100
AcDbEntity
  8
1
  6
Continuous
 62
               6
100
AcDbLine
 10
632.38887471899159
 20
587.03218966022519
 30
0.0
 11
631.38887471899159
 21
586.03218966022519
 31
0.0
  0
LINE
  5
5BC
100
AcDbEntity
  8
1
  6
Continuous
 62
               6
100
AcDbLine
 10
630.97466115661848
 20
587.03218966022519
 30
0.0
 11
629.97466115661848
 21
586.03218966022519
 31
0.0
  0
LINE
  5
5BD
100
AcDbEntity
  8
1
  6
Continuous
 62
               6
100
AcDbLine
 10
629.56044759424537
 20
587.03218966022519
 30
0.0
 11
628.5604475942456
 21
586.03218966022519
 31
0.0
  0
LINE
  5
5BE
100
AcDbEntity
  8
1
  6
Continuous
 62
               6
100
AcDbLine
 10
628.14623403187227
 20
587.03218966022519
 30
0.0
 11
627.14623403187227
 21
586.03218966022519
 31
0.0
  0
LINE
  5
5BF
100
AcDbEntity
  8
1
  6
Continuous
 62
               6
100
AcDbLine
 10
626.73202046949939
 20
587.03218966022519
 30
0.0
 11
625.73202046949939
 21
586.03218966022519
 31
0.0
  0
LINE
  5
5C0
100
AcDbEntity
  8
1
  6
Continuous
 62
               6
100
AcDbLine
 10
625.31780690712606
 20
587.03218966022519
 30
0.0
 11
624.31780690712606
 21
586.03218966022519
 31
0.0
  0
LINE
  5
5C1
100
AcDbEntity
  8
1
  6
Continuous
 62
               6
100
AcDbLine
 10
623.90359334475318
 20
587.03218966022519
 30
0.0
 11
622.90359334475318
 21
586.03218966022519
 31
0.0
  0
LINE
  5
5C2
100
AcDbEntity
  8
1
  6
Continuous
 62
               6
100
AcDbLine
 10
622.48937978237984
 20
587.03218966022519
 30
0.0
 11
621.48937978237984
 21
586.03218966022519
 31
0.0
  0
LINE
  5
5C3
100
AcDbEntity
  8
1
  6
Continuous
 62
               6
100
AcDbLine
 10
621.07516622000696
 20
587.03218966022519
 30
0.0
 11
620.07516622000696
 21
586.03218966022519
 31
0.0
  0
LINE
  5
5C4
100
AcDbEntity
  8
1
  6
Continuous
 62
               6
100
AcDbLine
 10
619.66095265763386
 20
587.03218966022519
 30
0.0
 11
618.66095265763386
 21
586.03218966022519
 31
0.0
  0
LINE
  5
5C5
100
AcDbEntity
  8
1
  6
Continuous
 62
               6
100
AcDbLine
 10
618.24673909526075
 20
587.03218966022519
 30
0.0
 11
617.24673909526075
 21
586.03218966022519
 31
0.0
  0
LINE
  5
5C6
100
AcDbEntity
  8
1
  6
Continuous
 62
               6
100
AcDbLine
 10
616.83252553288764
 20
587.03218966022519
 30
0.0
 11
615.83252553288764
 21
586.03218966022519
 31
0.0
  0
LINE
  5
5C7
100
AcDbEntity
  8
1
  6
Continuous
 62
               6
100
AcDbLine
 10
615.41831197051454
 20
587.03218966022519
 30
0.0
 11
614.41831197051454
 21
586.03218966022541
 31
0.0
  0
LINE
  5
5C8
100
AcDbEntity
  8
1
  6
Continuous
 62
               6
100
AcDbLine
 10
614.00409840814143
 20
587.03218966022519
 30
0.0
 11
613.00409840814143
 21
586.03218966022541
 31
0.0
  0
LINE
  5
5C9
100
AcDbEntity
  8
1
  6
Continuous
 62
               6
100
AcDbLine
 10
612.58988484576832
 20
587.03218966022541
 30
0.0
 11
611.58988484576832
 21
586.03218966022541
 31
0.0
  0
LINE
  5
5CA
100
AcDbEntity
  8
1
  6
Continuous
 62
               6
100
AcDbLine
 10
611.17567128339522
 20
587.03218966022541
 30
0.0
 11
610.17567128339522
 21
586.03218966022541
 31
0.0
  0
LINE
  5
5CB
100
AcDbEntity
  8
1
  6
Continuous
 62
               6
100
AcDbLine
 10
609.76145772102211
 20
587.03218966022541
 30
0.0
 11
608.76145772102211
 21
586.03218966022541
 31
0.0
  0
LINE
  5
5CC
100
AcDbEntity
  8
1
  6
Continuous
 62
               6
100
AcDbLine
 10
608.34724415864923
 20
587.03218966022541
 30
0.0
 11
607.34724415864923
 21
586.03218966022541
 31
0.0
  0
LINE
  5
5CD
100
AcDbEntity
  8
1
  6
Continuous
 62
               6
100
AcDbLine
 10
606.9330305962759
 20
587.03218966022541
 30
0.0
 11
605.9330305962759
 21
586.03218966022541
 31
0.0
  0
LINE
  5
5CE
100
AcDbEntity
  8
1
  6
Continuous
 62
               6
100
AcDbLine
 10
605.51881703390302
 20
587.03218966022541
 30
0.0
 11
604.51881703390302
 21
586.03218966022541
 31
0.0
  0
LINE
  5
5CF
100
AcDbEntity
  8
1
  6
Continuous
 62
               6
100
AcDbLine
 10
604.10460347152969
 20
587.03218966022541
 30
0.0
 11
603.10460347152969
 21
586.03218966022541
 31
0.0
  0
LINE
  5
5D0
100
AcDbEntity
  8
1
  6
Continuous
 62
               6
100
AcDbLine
 10
602.69038990915681
 20
587.03218966022541
 30
0.0
 11
601.69038990915681
 21
586.03218966022541
 31
0.0
  0
LINE
  5
5D1
100
AcDbEntity
  8
1
  6
Continuous
 62
               6
100
AcDbLine
 10
601.27617634678347
 20
587.03218966022541
 30
0.0
 11
600.27617634678347
 21
586.03218966022541
 31
0.0
  0
LINE
  5
5D2
100
AcDbEntity
  8
1
  6
Continuous
 62
               6
100
AcDbLine
 10
599.86196278441059
 20
587.03218966022541
 30
0.0
 11
598.86196278441059
 21
586.03218966022541
 31
0.0
  0
LINE
  5
5D3
100
AcDbEntity
  8
1
  6
Continuous
 62
               6
100
AcDbLine
 10
598.44774922203749
 20
587.03218966022541
 30
0.0
 11
597.44774922203749
 21
586.03218966022541
 31
0.0
  0
LINE
  5
5D4
100
AcDbEntity
  8
1
  6
Continuous
 62
               6
100
AcDbLine
 10
597.03353565966438
 20
587.03218966022541
 30
0.0
 11
596.03353565966438
 21
586.03218966022541
 31
0.0
  0
LINE
  5
5D5
100
AcDbEntity
  8
1
  6
Continuous
 62
               6
100
AcDbLine
 10
595.61932209729127
 20
587.03218966022541
 30
0.0
 11
594.61932209729127
 21
586.03218966022541
 31
0.0
  0
LINE
  5
5D6
100
AcDbEntity
  8
1
  6
Continuous
 62
               6
100
AcDbLine
 10
594.20510853491817
 20
587.03218966022541
 30
0.0
 11
593.20510853491817
 21
586.03218966022541
 31
0.0
  0
LINE
  5
5D7
100
AcDbEntity
  8
1
  6
Continuous
 62
               6
100
AcDbLine
 10
592.79089497254506
 20
587.03218966022541
 30
0.0
 11
591.79089497254506
 21
586.03218966022541
 31
0.0
  0
LINE
  5
5D8
100
AcDbEntity
  8
1
  6
Continuous
 62
               6
100
AcDbLine
 10
591.37668141017195
 20
587.03218966022541
 30
0.0
 11
590.37668141017195
 21
586.03218966022541
 31
0.0
  0
LINE
  5
5D9
100
AcDbEntity
  8
1
  6
Continuous
 62
               6
100
AcDbLine
 10
589.96246784779885
 20
587.03218966022541
 30
0.0
 11
588.96246784779885
 21
586.03218966022541
 31
0.0
  0
LINE
  5
5DA
100
AcDbEntity
  8
1
  6
Continuous
 62
               6
100
AcDbLine
 10
588.54825428542574
 20
587.03218966022541
 30
0.0
 11
587.54825428542574
 21
586.03218966022541
 31
0.0
  0
LINE
  5
5DB
100
AcDbEntity
  8
1
  6
Continuous
 62
               6
100
AcDbLine
 10
587.13404072305286
 20
587.03218966022541
 30
0.0
 11
586.13404072305286
 21
586.03218966022541
 31
0.0
  0
LINE
  5
5DC
100
AcDbEntity
  8
1
  6
Continuous
 62
               6
100
AcDbLine
 10
585.71982716067953
 20
587.03218966022541
 30
0.0
 11
584.71982716067953
 21
586.03218966022541
 31
0.0
  0
LINE
  5
5DD
100
AcDbEntity
  8
1
  6
Continuous
 62
               6
100
AcDbLine
 10
584.30561359830665
 20
587.03218966022541
 30
0.0
 11
583.30561359830665
 21
586.03218966022541
 31
0.0
  0
LINE
  5
5DE
100
AcDbEntity
  8
1
  6
Continuous
 62
               6
100
AcDbLine
 10
582.89140003593332
 20
587.03218966022541
 30
0.0
 11
581.89140003593332
 21
586.03218966022541
 31
0.0
  0
LINE
  5
5DF
100
AcDbEntity
  8
1
  6
Continuous
 62
               6
100
AcDbLine
 10
581.47718647356044
 20
587.03218966022541
 30
0.0
 11
580.47718647356044
 21
586.03218966022541
 31
0.0
  0
LINE
  5
5E0
100
AcDbEntity
  8
1
  6
Continuous
 62
               6
100
AcDbLine
 10
580.0629729111871
 20
587.03218966022541
 30
0.0
 11
579.06297291118733
 21
586.03218966022541
 31
0.0
  0
LINE
  5
5E1
100
AcDbEntity
  8
1
  6
Continuous
 62
               6
100
AcDbLine
 10
578.64875934881422
 20
587.03218966022541
 30
0.0
 11
577.64875934881422
 21
586.03218966022541
 31
0.0
  0
LINE
  5
5E2
100
AcDbEntity
  8
1
  6
Continuous
 62
               6
100
AcDbLine
 10
577.23454578644112
 20
587.03218966022541
 30
0.0
 11
576.23454578644112
 21
586.03218966022541
 31
0.0
  0
LINE
  5
5E3
100
AcDbEntity
  8
1
  6
Continuous
 62
               6
100
AcDbLine
 10
575.82033222406801
 20
587.03218966022541
 30
0.0
 11
574.82033222406801
 21
586.03218966022541
 31
0.0
  0
LINE
  5
5E4
100
AcDbEntity
  8
1
  6
Continuous
 62
               6
100
AcDbLine
 10
574.4061186616949
 20
587.03218966022541
 30
0.0
 11
573.4061186616949
 21
586.03218966022541
 31
0.0
  0
LINE
  5
5E5
100
AcDbEntity
  8
1
  6
Continuous
 62
               6
100
AcDbLine
 10
572.9919050993218
 20
587.03218966022541
 30
0.0
 11
571.9919050993218
 21
586.03218966022541
 31
0.0
  0
LINE
  5
5E6
100
AcDbEntity
  8
1
  6
Continuous
 62
               6
100
AcDbLine
 10
571.57769153694869
 20
587.03218966022541
 30
0.0
 11
570.57769153694869
 21
586.03218966022541
 31
0.0
  0
LINE
  5
5E7
100
AcDbEntity
  8
1
  6
Continuous
 62
               6
100
AcDbLine
 10
570.16347797457558
 20
587.03218966022541
 30
0.0
 11
569.16347797457558
 21
586.03218966022541
 31
0.0
  0
LINE
  5
5E8
100
AcDbEntity
  8
1
  6
Continuous
 62
               6
100
AcDbLine
 10
568.74926441220248
 20
587.03218966022541
 30
0.0
 11
567.74926441220271
 21
586.03218966022541
 31
0.0
  0
LINE
  5
5E9
100
AcDbEntity
  8
1
  6
Continuous
 62
               6
100
AcDbLine
 10
567.33505084982937
 20
587.03218966022541
 30
0.0
 11
566.33505084982937
 21
586.03218966022541
 31
0.0
  0
LINE
  5
5EA
100
AcDbEntity
  8
1
  6
Continuous
 62
               6
100
AcDbLine
 10
565.92083728745649
 20
587.03218966022541
 30
0.0
 11
564.92083728745649
 21
586.03218966022541
 31
0.0
  0
LINE
  5
5EB
100
AcDbEntity
  8
1
  6
Continuous
 62
               6
100
AcDbLine
 10
564.50662372508316
 20
587.03218966022541
 30
0.0
 11
563.50662372508316
 21
586.03218966022541
 31
0.0
  0
LINE
  5
5EC
100
AcDbEntity
  8
1
  6
Continuous
 62
               6
100
AcDbLine
 10
563.09241016271028
 20
587.03218966022541
 30
0.0
 11
562.09241016271028
 21
586.03218966022541
 31
0.0
  0
LINE
  5
5ED
100
AcDbEntity
  8
1
  6
Continuous
 62
               6
100
AcDbLine
 10
561.67819660033695
 20
587.03218966022541
 30
0.0
 11
560.67819660033695
 21
586.03218966022541
 31
0.0
  0
LINE
  5
5EE
100
AcDbEntity
  8
1
  6
Continuous
 62
               6
100
AcDbLine
 10
560.26398303796407
 20
587.03218966022541
 30
0.0
 11
559.26398303796407
 21
586.03218966022541
 31
0.0
  0
LINE
  5
5EF
100
AcDbEntity
  8
1
  6
Continuous
 62
               6
100
AcDbLine
 10
558.84976947559073
 20
587.03218966022541
 30
0.0
 11
557.84976947559096
 21
586.03218966022541
 31
0.0
  0
LINE
  5
5F0
100
AcDbEntity
  8
1
  6
Continuous
 62
               6
100
AcDbLine
 10
557.43555591321785
 20
587.03218966022541
 30
0.0
 11
556.43555591321785
 21
586.03218966022541
 31
0.0
  0
LINE
  5
5F1
100
AcDbEntity
  8
1
  6
Continuous
 62
               6
100
AcDbLine
 10
556.02134235084475
 20
587.03218966022541
 30
0.0
 11
555.02134235084475
 21
586.03218966022541
 31
0.0
  0
LINE
  5
5F2
100
AcDbEntity
  8
1
  6
Continuous
 62
               6
100
AcDbLine
 10
554.60712878847164
 20
587.03218966022541
 30
0.0
 11
553.60712878847164
 21
586.03218966022541
 31
0.0
  0
LINE
  5
5F3
100
AcDbEntity
  8
1
  6
Continuous
 62
               6
100
AcDbLine
 10
553.19291522609853
 20
587.03218966022541
 30
0.0
 11
552.19291522609853
 21
586.03218966022541
 31
0.0
  0
LINE
  5
5F4
100
AcDbEntity
  8
1
  6
Continuous
 62
               6
100
AcDbLine
 10
551.77870166372543
 20
587.03218966022541
 30
0.0
 11
550.77870166372543
 21
586.03218966022541
 31
0.0
  0
LINE
  5
5F5
100
AcDbEntity
  8
1
  6
Continuous
 62
               4
100
AcDbLine
 10
611.48937978238052
 20
589.03218966022541
 30
0.0
 11
593.48937978238052
 21
589.03218966022541
 31
0.0
  0
LINE
  5
5F6
100
AcDbEntity
  8
1
  6
Continuous
 62
               4
100
AcDbLine
 10
593.48937978238052
 20
587.03218966022541
 30
0.0
 11
611.48937978238052
 21
587.03218966022541
 31
0.0
  0
LINE
  5
5F7
100
AcDbEntity
  8
1
  6
Continuous
 62
               4
100
AcDbLine
 10
592.84119415948373
 20
587.27070729124353
 30
0.0
 11
592.72789741339864
 21
587.38400403732885
 31
0.0
  0
LINE
  5
5F8
100
AcDbEntity
  8
1
  6
Continuous
 62
               4
100
AcDbLine
 10
593.78681857168851
 20
587.03218966022541
 30
0.0
 11
592.52442015970712
 21
588.29458807220681
 31
0.0
  0
LINE
  5
5F9
100
AcDbEntity
  8
1
  6
Continuous
 62
               4
100
AcDbLine
 10
594.49392535287518
 20
587.03218966022541
 30
0.0
 11
592.78454943904819
 21
588.7415655740524
 31
0.0
  0
LINE
  5
5FA
100
AcDbEntity
  8
1
  6
Continuous
 62
               4
100
AcDbLine
 10
595.20103213406185
 20
587.03218966022541
 30
0.0
 11
593.23415135134326
 21
588.99907044294378
 31
0.0
  0
LINE
  5
5FB
100
AcDbEntity
  8
1
  6
Continuous
 62
               4
100
AcDbLine
 10
595.90813891524829
 20
587.03218966022541
 30
0.0
 11
593.90813891524829
 21
589.03218966022541
 31
0.0
  0
LINE
  5
5FC
100
AcDbEntity
  8
1
  6
Continuous
 62
               4
100
AcDbLine
 10
596.61524569643473
 20
587.03218966022541
 30
0.0
 11
594.61524569643473
 21
589.03218966022541
 31
0.0
  0
LINE
  5
5FD
100
AcDbEntity
  8
1
  6
Continuous
 62
               4
100
AcDbLine
 10
597.32235247762139
 20
587.03218966022541
 30
0.0
 11
595.32235247762139
 21
589.03218966022541
 31
0.0
  0
LINE
  5
5FE
100
AcDbEntity
  8
1
  6
Continuous
 62
               4
100
AcDbLine
 10
598.02945925880806
 20
587.03218966022541
 30
0.0
 11
596.02945925880806
 21
589.03218966022541
 31
0.0
  0
LINE
  5
5FF
100
AcDbEntity
  8
1
  6
Continuous
 62
               4
100
AcDbLine
 10
598.7365660399945
 20
587.03218966022541
 30
0.0
 11
596.7365660399945
 21
589.03218966022541
 31
0.0
  0
LINE
  5
600
100
AcDbEntity
  8
1
  6
Continuous
 62
               4
100
AcDbLine
 10
599.44367282118094
 20
587.03218966022541
 30
0.0
 11
597.44367282118094
 21
589.03218966022541
 31
0.0
  0
LINE
  5
601
100
AcDbEntity
  8
1
  6
Continuous
 62
               4
100
AcDbLine
 10
600.15077960236761
 20
587.03218966022541
 30
0.0
 11
598.15077960236761
 21
589.03218966022541
 31
0.0
  0
LINE
  5
602
100
AcDbEntity
  8
1
  6
Continuous
 62
               4
100
AcDbLine
 10
600.85788638355427
 20
587.03218966022541
 30
0.0
 11
598.85788638355427
 21
589.03218966022541
 31
0.0
  0
LINE
  5
603
100
AcDbEntity
  8
1
  6
Continuous
 62
               4
100
AcDbLine
 10
601.56499316474071
 20
587.03218966022541
 30
0.0
 11
599.56499316474071
 21
589.03218966022541
 31
0.0
  0
LINE
  5
604
100
AcDbEntity
  8
1
  6
Continuous
 62
               4
100
AcDbLine
 10
602.27209994592715
 20
587.03218966022541
 30
0.0
 11
600.27209994592715
 21
589.03218966022541
 31
0.0
  0
LINE
  5
605
100
AcDbEntity
  8
1
  6
Continuous
 62
               4
100
AcDbLine
 10
602.97920672711382
 20
587.03218966022541
 30
0.0
 11
600.97920672711382
 21
589.03218966022541
 31
0.0
  0
LINE
  5
606
100
AcDbEntity
  8
1
  6
Continuous
 62
               4
100
AcDbLine
 10
603.68631350830049
 20
587.03218966022541
 30
0.0
 11
601.68631350830049
 21
589.03218966022541
 31
0.0
  0
LINE
  5
607
100
AcDbEntity
  8
1
  6
Continuous
 62
               4
100
AcDbLine
 10
604.39342028948693
 20
587.03218966022541
 30
0.0
 11
602.39342028948693
 21
589.03218966022541
 31
0.0
  0
LINE
  5
608
100
AcDbEntity
  8
1
  6
Continuous
 62
               4
100
AcDbLine
 10
605.10052707067337
 20
587.03218966022541
 30
0.0
 11
603.10052707067337
 21
589.03218966022541
 31
0.0
  0
LINE
  5
609
100
AcDbEntity
  8
1
  6
Continuous
 62
               4
100
AcDbLine
 10
605.80763385186003
 20
587.03218966022541
 30
0.0
 11
603.80763385186003
 21
589.03218966022541
 31
0.0
  0
LINE
  5
60A
100
AcDbEntity
  8
1
  6
Continuous
 62
               4
100
AcDbLine
 10
606.5147406330467
 20
587.03218966022541
 30
0.0
 11
604.5147406330467
 21
589.03218966022541
 31
0.0
  0
LINE
  5
60B
100
AcDbEntity
  8
1
  6
Continuous
 62
               4
100
AcDbLine
 10
607.22184741423314
 20
587.03218966022541
 30
0.0
 11
605.22184741423314
 21
589.03218966022541
 31
0.0
  0
LINE
  5
60C
100
AcDbEntity
  8
1
  6
Continuous
 62
               4
100
AcDbLine
 10
607.92895419541981
 20
587.03218966022541
 30
0.0
 11
605.92895419541958
 21
589.03218966022541
 31
0.0
  0
LINE
  5
60D
100
AcDbEntity
  8
1
  6
Continuous
 62
               4
100
AcDbLine
 10
608.63606097660625
 20
587.03218966022541
 30
0.0
 11
606.63606097660625
 21
589.03218966022541
 31
0.0
  0
LINE
  5
60E
100
AcDbEntity
  8
1
  6
Continuous
 62
               4
100
AcDbLine
 10
609.34316775779291
 20
587.03218966022541
 30
0.0
 11
607.34316775779291
 21
589.03218966022541
 31
0.0
  0
LINE
  5
60F
100
AcDbEntity
  8
1
  6
Continuous
 62
               4
100
AcDbLine
 10
610.05027453897935
 20
587.03218966022541
 30
0.0
 11
608.05027453897935
 21
589.03218966022541
 31
0.0
  0
LINE
  5
610
100
AcDbEntity
  8
1
  6
Continuous
 62
               4
100
AcDbLine
 10
610.75738132016602
 20
587.03218966022541
 30
0.0
 11
608.75738132016602
 21
589.03218966022541
 31
0.0
  0
LINE
  5
611
100
AcDbEntity
  8
1
  6
Continuous
 62
               4
100
AcDbLine
 10
611.46448810135246
 20
587.03218966022541
 30
0.0
 11
609.46448810135246
 21
589.03218966022541
 31
0.0
  0
LINE
  5
612
100
AcDbEntity
  8
1
  6
Continuous
 62
               4
100
AcDbLine
 10
612.01951069153995
 20
587.18427385122436
 30
0.0
 11
610.17159488253913
 21
589.03218966022541
 31
0.0
  0
LINE
  5
613
100
AcDbEntity
  8
1
  6
Continuous
 62
               4
100
AcDbLine
 10
612.36382533465905
 20
587.5470659892917
 30
0.0
 11
610.87870166372579
 21
589.03218966022519
 31
0.0
  0
LINE
  5
614
100
AcDbEntity
  8
1
  6
Continuous
 62
               4
100
AcDbLine
 10
612.48420473487556
 20
588.13379337026186
 30
0.0
 11
611.59098349241719
 21
589.02701461272022
 31
0.0
  0
LINE
  5
615
100
AcDbEntity
  8
1
  6
Continuous
 62
               4
100
AcDbLine
 10
530.4893797823803
 20
515.03218966022564
 30
0.0
 11
580.4893797823803
 21
515.03218966022564
 31
0.0
  0
LINE
  5
616
100
AcDbEntity
  8
1
  6
Continuous
 62
               4
100
AcDbLine
 10
580.4893797823803
 20
515.03218966022564
 30
0.0
 11
630.48937978238052
 21
515.03218966022564
 31
0.0
  0
LINE
  5
617
100
AcDbEntity
  8
1
  6
Continuous
 62
               4
100
AcDbLine
 10
630.48937978238052
 20
515.03218966022564
 30
0.0
 11
650.4893797823803
 21
515.03218966022564
 31
0.0
  0
LINE
  5
618
100
AcDbEntity
  8
1
  6
Continuous
 62
               4
100
AcDbLine
 10
650.4893797823803
 20
515.03218966022564
 30
0.0
 11
656.48937978238052
 21
515.03218966022564
 31
0.0
  0
LINE
  5
619
100
AcDbEntity
  8
1
  6
Continuous
 62
               4
100
AcDbLine
 10
656.48937978238052
 20
515.03218966022564
 30
0.0
 11
659.48937978238052
 21
515.03218966022564
 31
0.0
  0
LINE
  5
61A
100
AcDbEntity
  8
1
  6
Continuous
 62
               4
100
AcDbLine
 10
659.48937978238052
 20
515.03218966022564
 30
0.0
 11
679.48937978238052
 21
515.03218966022564
 31
0.0
  0
LINE
  5
61B
100
AcDbEntity
  8
1
  6
Continuous
 62
               4
100
AcDbLine
 10
643.4893797823803
 20
587.03218966022519
 30
0.0
 11
667.7380910883445
 21
629.03218966022541
 31
0.0
  0
LINE
  5
61C
100
AcDbEntity
  8
1
  6
Continuous
 62
               4
100
AcDbLine
 10
667.7380910883445
 20
629.03218966022541
 30
0.0
 11
596.06963012975723
 21
629.03218966022541
 31
0.0
  0
LINE
  5
61D
100
AcDbEntity
  8
1
  6
Continuous
 62
               4
100
AcDbLine
 10
602.48937978238052
 20
589.03218966022541
 30
0.0
 11
587.47827278345028
 21
615.03218966022541
 31
0.0
  0
LINE
  5
61E
100
AcDbEntity
  8
1
  6
Continuous
 62
               4
100
AcDbLine
 10
587.47827278345028
 20
615.03218966022541
 30
0.0
 11
538.68895783622759
 21
615.03218966022541
 31
0.0
  0
LINE
  5
61F
100
AcDbEntity
  8
1
  6
Continuous
 62
               4
100
AcDbLine
 10
602.48937978238052
 20
589.03218966022541
 30
0.0
 11
600.36805943882075
 21
591.15351000378496
 31
0.0
  0
LINE
  5
620
100
AcDbEntity
  8
1
  6
Continuous
 62
               4
100
AcDbLine
 10
602.48937978238052
 20
589.03218966022541
 30
0.0
 11
601.71292264707301
 21
591.92996713909247
 31
0.0
  0
LINE
  5
621
100
AcDbEntity
  8
1
  6
Continuous
 62
               4
100
AcDbLine
 10
643.4893797823803
 20
587.03218966022519
 30
0.0
 11
645.61070012594007
 21
589.15351000378496
 31
0.0
  0
LINE
  5
622
100
AcDbEntity
  8
1
  6
Continuous
 62
               4
100
AcDbLine
 10
643.4893797823803
 20
587.03218966022519
 30
0.0
 11
644.26583691768803
 21
589.92996713909247
 31
0.0
  0
LINE
  5
623
100
AcDbEntity
  8
1
  6
Continuous
 62
               4
100
AcDbLine
 10
682.48937978238052
 20
563.58218966022537
 30
0.0
 11
700.06969547920437
 21
594.03218966022519
 31
0.0
  0
LINE
  5
624
100
AcDbEntity
  8
1
  6
Continuous
 62
               4
100
AcDbLine
 10
700.06969547920437
 20
594.03218966022519
 30
0.0
 11
737.63234239860174
 21
594.03218966022519
 31
0.0
  0
LINE
  5
625
100
AcDbEntity
  8
1
  6
Continuous
 62
               4
100
AcDbLine
 10
682.48937978238052
 20
563.58218966022537
 30
0.0
 11
683.26583691768803
 21
566.47996713909242
 31
0.0
  0
LINE
  5
626
100
AcDbEntity
  8
1
  6
Continuous
 62
               4
100
AcDbLine
 10
682.48937978238052
 20
563.58218966022537
 30
0.0
 11
684.61070012594007
 21
565.70351000378491
 31
0.0
  0
LINE
  5
627
100
AcDbEntity
  8
1
  6
Continuous
 62
               4
100
AcDbLine
 10
658.43050527933417
 20
587.03218966022519
 30
0.0
 11
694.48937978238052
 21
587.03218966022519
 31
0.0
  0
LINE
  5
628
100
AcDbEntity
  8
1
  6
Continuous
 62
               4
100
AcDbLine
 10
660.25388177019693
 20
487.03218966022501
 30
0.0
 11
694.48937978238052
 21
487.03218966022501
 31
0.0
  0
LINE
  5
629
100
AcDbEntity
  8
1
  6
Continuous
 62
               4
100
AcDbLine
 10
693.48937978238052
 20
587.03218966022519
 30
0.0
 11
693.48937978238052
 21
487.03218966022501
 31
0.0
  0
LINE
  5
62A
100
AcDbEntity
  8
1
  6
DASHDOT
 62
               4
100
AcDbLine
 10
580.4893797823803
 20
459.05259994889803
 30
0.0
 11
580.4893797823803
 21
629.03218966022541
 31
0.0
  0
LINE
  5
62B
100
AcDbEntity
  8
1
  6
Continuous
 62
               4
100
AcDbLine
 10
580.4893797823803
 20
537.03218966022496
 30
0.0
 11
694.48937978238052
 21
537.03218966022496
 31
0.0
  0
LINE
  5
62C
100
AcDbEntity
  8
1
  6
Continuous
 62
               4
100
AcDbLine
 10
530.78767386020866
 20
608.03218966022541
 30
0.0
 11
482.01715250061227
 21
608.03218966022541
 31
0.0
  0
LINE
  5
62D
100
AcDbEntity
  8
1
  6
Continuous
 62
               4
100
AcDbLine
 10
543.4893797823803
 20
586.03218966022564
 30
0.0
 11
530.78767386020866
 21
608.03218966022541
 31
0.0
  0
LINE
  5
62E
100
AcDbEntity
  8
1
  6
Continuous
 62
               4
100
AcDbLine
 10
543.4893797823803
 20
586.03218966022564
 30
0.0
 11
541.36805943882075
 21
588.15351000378519
 31
0.0
  0
LINE
  5
62F
100
AcDbEntity
  8
1
  6
Continuous
 62
               4
100
AcDbLine
 10
543.4893797823803
 20
586.03218966022564
 30
0.0
 11
542.71292264707279
 21
588.9299671390927
 31
0.0
  0
LINE
  5
630
100
AcDbEntity
  8
1
  6
Continuous
 62
               6
100
AcDbLine
 10
550.36448810135232
 20
587.03218966022541
 30
0.0
 11
549.36448810135232
 21
586.03218966022541
 31
0.0
  0
LINE
  5
631
100
AcDbEntity
  8
1
  6
Continuous
 62
               6
100
AcDbLine
 10
548.95027453897922
 20
587.03218966022541
 30
0.0
 11
547.95027453897922
 21
586.03218966022541
 31
0.0
  0
LINE
  5
632
100
AcDbEntity
  8
1
  6
Continuous
 62
               6
100
AcDbLine
 10
547.53606097660611
 20
587.03218966022541
 30
0.0
 11
546.53606097660611
 21
586.03218966022541
 31
0.0
  0
LINE
  5
633
100
AcDbEntity
  8
1
  6
Continuous
 62
               6
100
AcDbLine
 10
546.121847414233
 20
587.03218966022541
 30
0.0
 11
545.121847414233
 21
586.03218966022541
 31
0.0
  0
LINE
  5
634
100
AcDbEntity
  8
1
  6
Continuous
 62
               6
100
AcDbLine
 10
544.7076338518599
 20
587.03218966022541
 30
0.0
 11
543.7076338518599
 21
586.03218966022541
 31
0.0
  0
LINE
  5
635
100
AcDbEntity
  8
1
  6
Continuous
 62
               6
100
AcDbLine
 10
543.29342028948679
 20
587.03218966022541
 30
0.0
 11
542.29342028948679
 21
586.03218966022541
 31
0.0
  0
LINE
  5
636
100
AcDbEntity
  8
1
  6
Continuous
 62
               6
100
AcDbLine
 10
541.87920672711391
 20
587.03218966022541
 30
0.0
 11
540.87920672711391
 21
586.03218966022541
 31
0.0
  0
LINE
  5
637
100
AcDbEntity
  8
1
  6
Continuous
 62
               6
100
AcDbLine
 10
540.4649931647408
 20
587.03218966022541
 30
0.0
 11
539.4649931647408
 21
586.03218966022541
 31
0.0
  0
LINE
  5
638
100
AcDbEntity
  8
1
  6
Continuous
 62
               6
100
AcDbLine
 10
539.05077960236747
 20
587.03218966022541
 30
0.0
 11
538.05077960236747
 21
586.03218966022564
 31
0.0
  0
LINE
  5
639
100
AcDbEntity
  8
1
  6
Continuous
 62
               6
100
AcDbLine
 10
537.63656603999436
 20
587.03218966022541
 30
0.0
 11
536.63656603999436
 21
586.03218966022564
 31
0.0
  0
LINE
  5
63A
100
AcDbEntity
  8
1
  6
Continuous
 62
               6
100
AcDbLine
 10
536.22235247762126
 20
587.03218966022541
 30
0.0
 11
535.22235247762126
 21
586.03218966022564
 31
0.0
  0
LINE
  5
63B
100
AcDbEntity
  8
1
  6
Continuous
 62
               6
100
AcDbLine
 10
534.80813891524815
 20
587.03218966022564
 30
0.0
 11
533.80813891524838
 21
586.03218966022564
 31
0.0
  0
LINE
  5
63C
100
AcDbEntity
  8
1
  6
Continuous
 62
               6
100
AcDbLine
 10
533.39392535287527
 20
587.03218966022564
 30
0.0
 11
532.39392535287527
 21
586.03218966022564
 31
0.0
  0
LINE
  5
63D
100
AcDbEntity
  8
1
  6
Continuous
 62
               6
100
AcDbLine
 10
531.97971179050194
 20
587.03218966022564
 30
0.0
 11
530.97971179050217
 21
586.03218966022564
 31
0.0
  0
LINE
  5
63E
100
AcDbEntity
  8
1
  6
Continuous
 62
               6
100
AcDbLine
 10
530.56549822812906
 20
587.03218966022564
 30
0.0
 11
529.56549822812906
 21
586.03218966022564
 31
0.0
  0
LINE
  5
63F
100
AcDbEntity
  8
1
  6
Continuous
 62
               6
100
AcDbLine
 10
529.15128466575595
 20
587.03218966022564
 30
0.0
 11
528.15128466575595
 21
586.03218966022564
 31
0.0
  0
LINE
  5
640
100
AcDbEntity
  8
1
  6
Continuous
 62
               6
100
AcDbLine
 10
527.73707110338285
 20
587.03218966022564
 30
0.0
 11
526.73707110338285
 21
586.03218966022564
 31
0.0
  0
LINE
  5
641
100
AcDbEntity
  8
1
  6
Continuous
 62
               6
100
AcDbLine
 10
526.32285754100951
 20
587.03218966022564
 30
0.0
 11
525.32285754100974
 21
586.03218966022564
 31
0.0
  0
LINE
  5
642
100
AcDbEntity
  8
1
  6
Continuous
 62
               6
100
AcDbLine
 10
524.90864397863663
 20
587.03218966022564
 30
0.0
 11
524.112690606603
 21
586.236236288192
 31
0.0
  0
CIRCLE
  5
643
100
AcDbEntity
  8
1
  6
Continuous
 62
               4
100
AcDbCircle
 10
530.4893797823803
 20
515.03218966022564
 30
0.0
 40
0.5
  0
CIRCLE
  5
644
100
AcDbEntity
  8
1
  6
Continuous
 62
               4
100
AcDbCircle
 10
580.4893797823803
 20
515.03218966022564
 30
0.0
 40
0.5
  0
CIRCLE
  5
645
100
AcDbEntity
  8
1
  6
Continuous
 62
               4
100
AcDbCircle
 10
580.4893797823803
 20
515.03218966022564
 30
0.0
 40
0.5
  0
CIRCLE
  5
646
100
AcDbEntity
  8
1
  6
Continuous
 62
               4
100
AcDbCircle
 10
630.48937978238052
 20
515.03218966022564
 30
0.0
 40
0.5
  0
CIRCLE
  5
647
100
AcDbEntity
  8
1
  6
Continuous
 62
               4
100
AcDbCircle
 10
630.48937978238052
 20
515.03218966022564
 30
0.0
 40
0.5
  0
CIRCLE
  5
648
100
AcDbEntity
  8
1
  6
Continuous
 62
               4
100
AcDbCircle
 10
650.4893797823803
 20
515.03218966022564
 30
0.0
 40
0.5
  0
CIRCLE
  5
649
100
AcDbEntity
  8
1
  6
Continuous
 62
               4
100
AcDbCircle
 10
650.4893797823803
 20
515.03218966022564
 30
0.0
 40
0.5
  0
CIRCLE
  5
64A
100
AcDbEntity
  8
1
  6
Continuous
 62
               4
100
AcDbCircle
 10
656.48937978238052
 20
515.03218966022564
 30
0.0
 40
0.5
  0
CIRCLE
  5
64B
100
AcDbEntity
  8
1
  6
Continuous
 62
               4
100
AcDbCircle
 10
656.48937978238052
 20
515.03218966022564
 30
0.0
 40
0.5
  0
CIRCLE
  5
64C
100
AcDbEntity
  8
1
  6
Continuous
 62
               4
100
AcDbCircle
 10
659.48937978238052
 20
515.03218966022564
 30
0.0
 40
0.5
  0
CIRCLE
  5
64D
100
AcDbEntity
  8
1
  6
Continuous
 62
               4
100
AcDbCircle
 10
659.48937978238052
 20
515.03218966022564
 30
0.0
 40
0.5
  0
CIRCLE
  5
64E
100
AcDbEntity
  8
1
  6
Continuous
 62
               4
100
AcDbCircle
 10
679.48937978238052
 20
515.03218966022564
 30
0.0
 40
0.5
  0
CIRCLE
  5
64F
100
AcDbEntity
  8
1
  6
Continuous
 62
               4
100
AcDbCircle
 10
693.48937978238052
 20
587.03218966022519
 30
0.0
 40
0.5
  0
CIRCLE
  5
650
100
AcDbEntity
  8
1
  6
Continuous
 62
               4
100
AcDbCircle
 10
693.48937978238052
 20
487.03218966022501
 30
0.0
 40
0.5
  0
ARC
  5
651
100
AcDbEntity
  8
1
  6
Continuous
 62
               7
100
AcDbCircle
 10
681.88937978238039
 20
538.63218966022555
 30
0.0
 40
0.599999999999994
100
AcDbArc
 50
180.0
 51
0.0
  0
ARC
  5
652
100
AcDbEntity
  8
1
  6
DIVIDE
 62
               4
100
AcDbCircle
 10
691.4893797823803
 20
624.03218966022587
 30
0.0
 40
1.0
100
AcDbArc
 50
89.999999999999957
 51
180.0
  0
ARC
  5
653
100
AcDbEntity
  8
1
  6
DIVIDE
 62
               4
100
AcDbCircle
 10
706.4893797823803
 20
624.03218966022587
 30
0.0
 40
1.0
100
AcDbArc
 50
0.0
 51
89.999999999999957
  0
ARC
  5
654
100
AcDbEntity
  8
1
  6
DIVIDE
 62
               4
100
AcDbCircle
 10
691.4893797823803
 20
609.04987315296898
 30
0.0
 40
1.0
100
AcDbArc
 50
270.830315486259
 51
0.0
  0
ARC
  5
655
100
AcDbEntity
  8
1
  6
DIVIDE
 62
               4
100
AcDbCircle
 10
706.48937978238052
 20
551.03218966022541
 30
0.0
 40
1.0
100
AcDbArc
 50
270.0
 51
0.0
  0
ARC
  5
656
100
AcDbEntity
  8
1
  6
Continuous
 62
               6
100
AcDbCircle
 10
656.48937978238052
 20
585.03218966022519
 30
0.0
 40
1.0
100
AcDbArc
 50
0.0
 51
89.999999999999801
  0
ARC
  5
657
100
AcDbEntity
  8
1
  6
Continuous
 62
               6
100
AcDbCircle
 10
656.48937978238052
 20
585.03218966022519
 30
0.0
 40
2.0
100
AcDbArc
 50
0.0
 51
89.999999999999801
  0
ARC
  5
658
100
AcDbEntity
  8
1
  6
Continuous
 62
               7
100
AcDbCircle
 10
660.38937978238039
 20
584.13218966022578
 30
0.0
 40
0.5
100
AcDbArc
 50
90.000000000000028
 51
180.0
  0
ARC
  5
659
100
AcDbEntity
  8
1
  6
Continuous
 62
               7
100
AcDbCircle
 10
660.38937978238039
 20
584.13218966022578
 30
0.0
 40
0.9
100
AcDbArc
 50
90.000000000000028
 51
180.0
  0
ARC
  5
65A
100
AcDbEntity
  8
1
  6
Continuous
 62
               7
100
AcDbCircle
 10
681.88937978238039
 20
538.63218966022555
 30
0.0
 40
0.199999999999994
100
AcDbArc
 50
180.0
 51
0.0
  0
ARC
  5
65B
100
AcDbEntity
  8
1
  6
Continuous
 62
               7
100
AcDbCircle
 10
681.58937978238043
 20
588.53218966022496
 30
0.0
 40
0.5
100
AcDbArc
 50
0.0
 51
89.999999999999801
  0
ARC
  5
65C
100
AcDbEntity
  8
1
  6
Continuous
 62
               7
100
AcDbCircle
 10
681.58937978238043
 20
588.53218966022496
 30
0.0
 40
0.9
100
AcDbArc
 50
0.0
 51
89.999999999999801
  0
ARC
  5
65D
100
AcDbEntity
  8
1
  6
Continuous
 62
               4
100
AcDbCircle
 10
593.48937978238052
 20
588.03218966022541
 30
0.0
 40
1.0
100
AcDbArc
 50
90.000000000000028
 51
270.0
  0
ARC
  5
65E
100
AcDbEntity
  8
1
  6
Continuous
 62
               4
100
AcDbCircle
 10
611.48937978238052
 20
588.03218966022541
 30
0.0
 40
1.0
100
AcDbArc
 50
270.0
 51
90.0
  0
TEXT
  5
65F
100
AcDbEntity
  8
1
 62
               7
100
AcDbText
 10
704.07026427383414
 20
594.53248870948642
 30
0.0
 40
4.0
  1
水切リ：外壁同材
 41
0.7695
  7
FontTableH_0
 72
               5
 11
736.07026427383414
 21
594.53248870948642
 31
0.0
100
AcDbText
  0
TEXT
  5
660
100
AcDbEntity
  8
1
 62
               7
100
AcDbText
 10
553.48969727383417
 20
515.53273270948648
 30
0.0
 40
4.0
  1
50
 41
0.7695
  7
FontTableH_0
 72
               5
 11
556.48969727383417
 21
515.53273270948648
 31
0.0
100
AcDbText
  0
TEXT
  5
661
100
AcDbEntity
  8
1
 62
               7
100
AcDbText
 10
603.48963627383421
 20
515.53273270948648
 30
0.0
 40
4.0
  1
50
 41
0.7695
  7
FontTableH_0
 72
               5
 11
606.48963627383421
 21
515.53273270948648
 31
0.0
100
AcDbText
  0
TEXT
  5
662
100
AcDbEntity
  8
1
 62
               7
100
AcDbText
 10
638.48963627383421
 20
515.53273270948648
 30
0.0
 40
4.0
  1
20
 41
0.7695
  7
FontTableH_0
 72
               5
 11
641.48963627383421
 21
515.53273270948648
 31
0.0
100
AcDbText
  0
TEXT
  5
663
100
AcDbEntity
  8
1
 62
               7
100
AcDbText
 10
652.48963627383421
 20
515.53273270948648
 30
0.0
 40
4.0
  1
6
 41
0.7695
  7
FontTableH_0
 72
               5
 11
653.98963627383421
 21
515.53273270948648
 31
0.0
100
AcDbText
  0
TEXT
  5
664
100
AcDbEntity
  8
1
 62
               7
100
AcDbText
 10
656.98963627383421
 20
515.53273270948648
 30
0.0
 40
4.0
  1
1
 41
0.7695
  7
FontTableH_0
 72
               5
 11
658.48963627383421
 21
515.53273270948648
 31
0.0
100
AcDbText
  0
TEXT
  5
665
100
AcDbEntity
  8
1
 62
               7
100
AcDbText
 10
667.48963627383421
 20
515.53273270948648
 30
0.0
 40
4.0
  1
20
 41
0.7695
  7
FontTableH_0
 72
               5
 11
670.48963627383421
 21
515.53273270948648
 31
0.0
100
AcDbText
  0
TEXT
  5
666
100
AcDbEntity
  8
1
 62
               7
100
AcDbText
 10
597.74067427383409
 20
629.53206170948647
 30
0.0
 40
4.0
  1
ゴムアスファルトル－フィング t1.0
 41
0.7695
  7
FontTableH_0
 72
               5
 11
662.59801686838239
 21
629.53206170948647
 31
0.0
100
AcDbText
  0
TEXT
  5
667
100
AcDbEntity
  8
1
 62
               7
100
AcDbText
 10
539.47865027383421
 20
615.53285570948651
 30
0.0
 40
4.0
  1
防水テ－プ（別途工事）
 41
0.7695
  7
FontTableH_0
 72
               5
 11
583.47865027383421
 21
615.53285570948651
 31
0.0
100
AcDbText
  0
TEXT
  5
668
100
AcDbEntity
  8
1
 62
               7
100
AcDbText
 10
692.98963627383421
 20
510.03273270948654
 30
0.0
 40
3.9999999999999858
  1
100以上（ル－フィング重ね寸法）
 50
89.999981276031605
 41
0.7695
  7
FontTableH_0
 72
               5
 11
692.98965637737376
 21
571.55003209160895
 31
0.0
100
AcDbText
  0
TEXT
  5
669
100
AcDbEntity
  8
1
 62
               7
100
AcDbText
 10
597.74067427383409
 20
634.53206170948647
 30
0.0
 40
4.0
  1
［笠木部］
 41
0.7695
  7
FontTableH_0
 72
               5
 11
617.74067427383409
 21
634.53206170948647
 31
0.0
100
AcDbText
  0
TEXT
  5
66A
100
AcDbEntity
  8
1
 62
               7
100
AcDbText
 10
482.78706127383418
 20
608.53285570948651
 30
0.0
 40
4.0
  1
シ－ト防水（別途工事）
 41
0.7695
  7
FontTableH_0
 72
               5
 11
526.78706127383418
 21
608.53285570948651
 31
0.0
100
AcDbText
  0
TEXT
  5
66B
100
AcDbEntity
  8
1
 62
               7
100
AcDbText
 10
597.74067427383409
 20
624.53206170948647
 30
0.0
 40
4.0
  1
（防水層まで巻き込む）
 41
0.7695
  7
FontTableH_0
 72
               5
 11
641.74067427383409
 21
624.53206170948647
 31
0.0
100
AcDbText
  0
TEXT
  5
66C
100
AcDbEntity
  8
14
 62
               7
100
AcDbText
 10
493.59690627383418
 20
97.834078709486505
 30
0.0
 40
6.0
  1
パラペット部詳細図
 41
0.7695
  7
FontTableH_0
 72
               5
 11
547.59690627383418
 21
97.834078709486505
 31
0.0
100
AcDbText
  0
TEXT
  5
66D
100
AcDbEntity
  8
14
 62
               7
100
AcDbText
 10
604.3086672738342
 20
95.834067709486476
 30
0.0
 40
5.0000000000000284
  1
1/2
 41
0.7695
  7
FontTableH_0
 72
               5
 11
609.9336672738342
 21
95.834067709486476
 31
0.0
100
AcDbText
  0
ENDSEC
  0
SECTION
  2
OBJECTS
  0
DICTIONARY
  5
19
100
AcDbDictionary
  3
ACAD_GROUP
350
1A
  3
ACAD_MLINESTYLE
350
1B
  3
DWGPROPS
350
66E
  0
DICTIONARY
  5
1A
102
{ACAD_REACTORS
330
19
102
}
100
AcDbDictionary
  0
DICTIONARY
  5
1B
102
{ACAD_REACTORS
330
19
102
}
100
AcDbDictionary
  3
STANDARD
350
1C
  0
MLINESTYLE
  5
1C
102
{ACAD_REACTORS
330
1B
102
}
100
AcDbMlineStyle
  2
Standard
 70
               0
  3

 62
               0
 51
90.0
 52
90.0
 71
               2
 49
0.5
 62
             256
  6
ByLayer
 49
-0.5
 62
             256
  6
ByLayer
  0
XRECORD
  5
66E
100
AcDbXrecord
  1
DWGPROPS COOKIE
  2

  3

  4

  6

  7

  0
ENDSEC
  0
EOF
