  0
SECTION
  2
HEADER
  9
$ACADVER
  1
AC1014
  9
$ACADMAINTVER
 70
               0
  9
$DWGCODEPAGE
  3
ANSI_932
  9
$INSBASE
 10
0.0
 20
0.0
 30
0.0
  9
$EXTMIN
 10
0.0
 20
0.0
 30
0.0
  9
$EXTMAX
 10
891.00000000000091
 20
630.00000000000068
 30
0.0
  9
$LIMMIN
 10
0.0
 20
0.0
  9
$LIMMAX
 10
891.00000000000091
 20
630.00000000000068
  9
$ORTHOMODE
 70
               0
  9
$REGENMODE
 70
               1
  9
$FILLMODE
 70
               1
  9
$QTEXTMODE
 70
               0
  9
$MIRRTEXT
 70
               1
  9
$DRAGMODE
 70
               2
  9
$LTSCALE
 40
3.0000000000000031
  9
$OSMODE
 70
               0
  9
$ATTMODE
 70
               1
  9
$TEXTSIZE
 40
0.2
  9
$TRACEWID
 40
0.05
  9
$TEXTSTYLE
  7
Standard
  9
$CLAYER
  8
0
  9
$CELTYPE
  6
Continuous
  9
$CECOLOR
 62
             256
  9
$CELTSCALE
 40
1.0
  9
$DELOBJ
 70
               1
  9
$DISPSILH
 70
               0
  9
$DIMSCALE
 40
1.0
  9
$DIMASZ
 40
0.18
  9
$DIMEXO
 40
0.0625
  9
$DIMDLI
 40
0.38
  9
$DIMRND
 40
0.0
  9
$DIMDLE
 40
0.0
  9
$DIMEXE
 40
0.18
  9
$DIMTP
 40
0.0
  9
$DIMTM
 40
0.0
  9
$DIMTXT
 40
0.18
  9
$DIMCEN
 40
0.09
  9
$DIMTSZ
 40
0.0
  9
$DIMTOL
 70
               0
  9
$DIMLIM
 70
               0
  9
$DIMTIH
 70
               1
  9
$DIMTOH
 70
               1
  9
$DIMSE1
 70
               0
  9
$DIMSE2
 70
               0
  9
$DIMTAD
 70
               0
  9
$DIMZIN
 70
               0
  9
$DIMBLK
  1

  9
$DIMASO
 70
               1
  9
$DIMSHO
 70
               1
  9
$DIMPOST
  1

  9
$DIMAPOST
  1

  9
$DIMALT
 70
               0
  9
$DIMALTD
 70
               2
  9
$DIMALTF
 40
25.399999999999999
  9
$DIMLFAC
 40
1.0
  9
$DIMTOFL
 70
               0
  9
$DIMTVP
 40
0.0
  9
$DIMTIX
 70
               0
  9
$DIMSOXD
 70
               0
  9
$DIMSAH
 70
               0
  9
$DIMBLK1
  1

  9
$DIMBLK2
  1

  9
$DIMSTYLE
  2
Standard
  9
$DIMCLRD
 70
               0
  9
$DIMCLRE
 70
               0
  9
$DIMCLRT
 70
               0
  9
$DIMTFAC
 40
1.0
  9
$DIMGAP
 40
0.09
  9
$DIMJUST
 70
               0
  9
$DIMSD1
 70
               0
  9
$DIMSD2
 70
               0
  9
$DIMTOLJ
 70
               1
  9
$DIMTZIN
 70
               0
  9
$DIMALTZ
 70
               0
  9
$DIMALTTZ
 70
               0
  9
$DIMFIT
 70
               3
  9
$DIMUPT
 70
               0
  9
$DIMUNIT
 70
               2
  9
$DIMDEC
 70
               4
  9
$DIMTDEC
 70
               4
  9
$DIMALTU
 70
               2
  9
$DIMALTTD
 70
               2
  9
$DIMTXSTY
  7
Standard
  9
$DIMAUNIT
 70
               0
  9
$LUNITS
 70
               2
  9
$LUPREC
 70
               4
  9
$SKETCHINC
 40
0.1
  9
$FILLETRAD
 40
0.0
  9
$AUNITS
 70
               0
  9
$AUPREC
 70
               0
  9
$MENU
  1
acad
  9
$ELEVATION
 40
0.0
  9
$PELEVATION
 40
0.0
  9
$THICKNESS
 40
0.0
  9
$LIMCHECK
 70
               0
  9
$BLIPMODE
 70
               1
  9
$CHAMFERA
 40
0.0
  9
$CHAMFERB
 40
0.0
  9
$CHAMFERC
 40
0.0
  9
$CHAMFERD
 40
0.0
  9
$SKPOLY
 70
               0
  9
$TDCREATE
 40
0.000000000
  9
$TDUPDATE
 40
0.000000000
  9
$TDINDWG
 40
0.0000000000
  9
$TDUSRTIMER
 40
0.0000000000
  9
$USRTIMER
 70
               1
  9
$ANGBASE
 50
0.0
  9
$ANGDIR
 70
               0
  9
$PDMODE
 70
               0
  9
$PDSIZE
 40
0.0
  9
$PLINEWID
 40
0.0
  9
$COORDS
 70
               0
  9
$SPLFRAME
 70
               0
  9
$SPLINETYPE
 70
               6
  9
$SPLINESEGS
 70
               8
  9
$ATTDIA
 70
               0
  9
$ATTREQ
 70
               1
  9
$HANDLING
 70
               1
  9
$HANDSEED
  5
185
  9
$SURFTAB1
 70
               6
  9
$SURFTAB2
 70
               6
  9
$SURFTYPE
 70
               6
  9
$SURFU
 70
               6
  9
$SURFV
 70
               6
  9
$UCSNAME
  2

  9
$UCSORG
 10
0.0
 20
0.0
 30
0.0
  9
$UCSXDIR
 10
1.0
 20
0.0
 30
0.0
  9
$UCSYDIR
 10
0.0
 20
1.0
 30
0.0
  9
$PUCSNAME
  2

  9
$PUCSORG
 10
0.0
 20
0.0
 30
0.0
  9
$PUCSXDIR
 10
1.0
 20
0.0
 30
0.0
  9
$PUCSYDIR
 10
0.0
 20
1.0
 30
0.0
  9
$USERI1
 70
               0
  9
$USERI2
 70
               0
  9
$USERI3
 70
               0
  9
$USERI4
 70
               0
  9
$USERI5
 70
               0
  9
$USERR1
 40
0.0
  9
$USERR2
 40
0.0
  9
$USERR3
 40
0.0
  9
$USERR4
 40
0.0
  9
$USERR5
 40
0.0
  9
$WORLDVIEW
 70
               1
  9
$SHADEDGE
 70
               3
  9
$SHADEDIF
 70
              70
  9
$TILEMODE
 70
               1
  9
$MAXACTVP
 70
              16
  9
$PINSBASE
 10
0.0
 20
0.0
 30
0.0
  9
$PLIMCHECK
 70
               0
  9
$PEXTMIN
 10
1.0000000000000000E+20
 20
1.0000000000000000E+20
 30
1.0000000000000000E+20
  9
$PEXTMAX
 10
-1.0000000000000000E+20
 20
-1.0000000000000000E+20
 30
-1.0000000000000000E+20
  9
$PLIMMIN
 10
0.0
 20
0.0
  9
$PLIMMAX
 10
12.0
 20
9.0
  9
$UNITMODE
 70
               0
  9
$VISRETAIN
 70
               0
  9
$PLINEGEN
 70
               1
  9
$PSLTSCALE
 70
               0
  9
$TREEDEPTH
 70
            3020
  9
$PICKSTYLE
 70
               1
  9
$CMLSTYLE
  2
Standard
  9
$CMLJUST
 70
               0
  9
$CMLSCALE
 40
1.0
  9
$PROXYGRAPHICS
 70
               0
  9
$MEASUREMENT
 70
               0
  0
ENDSEC
  0
SECTION
  2
CLASSES
  0
CLASS
  1
LWPOLYLINE
  2
AcDbPolyline
  3
"AutoCAD"
 90
        0
280
               0
281
               1
  0
CLASS
  1
IMAGE
  2
AcDbRasterImage
  3
ISM
 90
      127
280
               0
281
               1
  0
CLASS
  1
OLE2FRAME
  2
AcDbOle2Frame
  3
""
 90
        0
280
               0
281
               1
  0
CLASS
  1
HATCH
  2
AcDbHatch
  3
"ACAD_SEDONA"
 90
        0
280
               0
281
               1
  0
CLASS
  1
DICTIONARYVAR
  2
AcDbDictionaryVar
  3
"AutoCAD"
 90
        0
280
               0
281
               0
  0
CLASS
  1
RASTERVARIABLES
  2
AcDbRasterVariables
  3
ISM
 90
        0
280
               0
281
               0
  0
CLASS
  1
IMAGEDEF
  2
AcDbRasterImageDef
  3
ISM
 90
        0
280
               0
281
               0
  0
CLASS
  1
IMAGEDEF_REACTOR
  2
AcDbRasterImageDefReactor
  3
ISM
 90
        1
280
               0
281
               0
  0
CLASS
  1
IDBUFFER
  2
AcDbIdBuffer
  3
"Acad"
 90
        0
280
               0
281
               0
  0
CLASS
  1
SPATIAL_FILTER
  2
AcDbSpatialFilter
  3
"Acad"
 90
        0
280
               0
281
               0
  0
CLASS
  1
XRECORD
  2
AcDbXrecord
  3
"<Built In>"
 90
        0
280
               0
281
               0
  0
CLASS
  1
SORTENTSTABLE
  2
AcDbSortentsTable
  3
"AutoCAD"
 90
        0
280
               0
281
               0
  0
CLASS
  1
LAYER_INDEX
  2
AcDbLayerIndex
  3
"Acad"
 90
        0
280
               0
281
               0
  0
CLASS
  1
SPATIAL_INDEX
  2
AcDbSpatialIndex
  3
"Acad"
 90
        0
280
               0
281
               0
  0
CLASS
  1
OBJECT_PTR
  2
CAseDLPNTableRecord
  3
"ASE-LPNTableRecord"
 90
        1
280
               0
281
               0
  0
CLASS
  1
LAYOUT
  2
AcDbLayout
  3
"AutoCAD 2000"
 90
        0
280
               0
281
               0
  0
CLASS
  1
PLOTSETTINGS
  2
AcDbPlotSettings
  3
"AutoCAD 2000"
 90
        0
280
               0
281
               0
  0
CLASS
  1
ACDBDICTIONARYWDFLT
  2
AcDbDictionaryWithDefault
  3
"AutoCAD 2000"
 90
        0
280
               0
281
               0
  0
CLASS
  1
ACDBPLACEHOLDER
  2
AcDbPlaceHolder
  3
"AutoCAD 2000"
 90
        0
280
               0
281
               0
  0
CLASS
  1
VBA_PROJECT
  2
AcDbVbaProject
  3
"acadvba"
 90
        0
280
               0
281
               0
  0
CLASS
  1
WIPEOUT
  2
AcDbWipeout
  3
WipeOut|AutoCAD Express Tool|expresstools@autodesk.com
 90
      127
280
               0
281
               1
  0
CLASS
  1
WIPEOUTVARIABLES
  2
AcDbWipeoutVariables
  3
WipeOut|AutoCAD Express Tool|expresstools@autodesk.com
 90
        0
280
               0
281
               0
  0
CLASS
  1
RTEXT
  2
RText
  3
RText|AutoCAD Express Tool|expresstools@autodesk.com
 90
        0
280
               0
281
               1
  0
CLASS
  1
ARCALIGNEDTEXT
  2
AcDbArcAlignedText
  3
ATEXT|AutoCAD Express Tool|expresstools@autodesk.com
 90
        0
280
               0
281
               1
  0
ENDSEC
  0
SECTION
  2
TABLES
  0
TABLE
  2
VPORT
  5
7
100
AcDbSymbolTable
 70
               1
  0
VPORT
  5
15
100
AcDbSymbolTableRecord
100
AcDbViewportTableRecord
  2
*ACTIVE
 70
               0
 10
0.0
 20
0.0
 11
1.0
 21
1.0
 12
445.50000000000045
 22
315.00000000000034
 13
0.0
 23
0.0
 14
10.0
 24
10.0
 15
10.0
 25
10.0
 16
0.0
 26
0.0
 36
1.0
 17
0.0
 27
0.0
 37
0.0
 40
630.00000000000068
 41
1.4142857142857141
 42
50.0
 43
0.0
 44
0.0
 50
0.0
 51
0.0
 71
               0
 72
             100
 73
               1
 74
               1
 75
               0
 76
               0
 77
               0
 78
               0
  0
ENDTAB
  0
TABLE
  2
LTYPE
  5
4
100
AcDbSymbolTable
 70
              24
  0
LTYPE
  5
11
100
AcDbSymbolTableRecord
100
AcDbLinetypeTableRecord
  2
ByBlock
 70
              64
  3

 72
              65
 73
               0
 40
0.0
  0
LTYPE
  5
12
100
AcDbSymbolTableRecord
100
AcDbLinetypeTableRecord
  2
ByLayer
 70
              64
  3

 72
              65
 73
               0
 40
0.0
  0
LTYPE
  5
13
100
AcDbSymbolTableRecord
100
AcDbLinetypeTableRecord
  2
Continuous
 70
              64
  3
Solid line
 72
              65
 73
               0
 40
0.0
  0
LTYPE
  5
1D
100
AcDbSymbolTableRecord
100
AcDbLinetypeTableRecord
  2
DOT
 70
              64
  3
Dot . . . . . . . . . . . . . . . . . . . . . .
 72
              65
 73
               2
 40
6.3499999999999996
 49
0.35
 74
               0
 49
-6.0
 74
               0
  0
LTYPE
  5
1E
100
AcDbSymbolTableRecord
100
AcDbLinetypeTableRecord
  2
DASHED
 70
              64
  3
Dashed __ __ __ __ __ __ __ __ __ __ __ __ __ _
 72
              65
 73
               2
 40
12.699999999999999
 49
6.3499999999999996
 74
               0
 49
-6.3499999999999996
 74
               0
  0
LTYPE
  5
1F
100
AcDbSymbolTableRecord
100
AcDbLinetypeTableRecord
  2
DASHDOT
 70
              64
  3
Dash dot __ . __ . __ . __ . __ . __ . __ . __
 72
              65
 73
               4
 40
25.399999999999999
 49
12.699999999999999
 74
               0
 49
-6.0
 74
               0
 49
0.7
 74
               0
 49
-6.0
 74
               0
  0
LTYPE
  5
20
100
AcDbSymbolTableRecord
100
AcDbLinetypeTableRecord
  2
DIVIDE
 70
              64
  3
Divide ____ . . ____ . . ____ . . ____ . . ____
 72
              65
 73
               6
 40
31.75
 49
12.699999999999999
 74
               0
 49
-6.0
 74
               0
 49
0.875
 74
               0
 49
-6.0
 74
               0
 49
0.875
 74
               0
 49
-6.0
 74
               0
  0
LTYPE
  5
21
100
AcDbSymbolTableRecord
100
AcDbLinetypeTableRecord
  2
HIDDEN
 70
              64
  3
Hidden __ __ __ __ __ __ __ __ __ __ __ __ __ _
 72
              65
 73
               2
 40
9.5250000000000004
 49
6.3499999999999996
 74
               0
 49
-3.1749999999999998
 74
               0
  0
LTYPE
  5
22
100
AcDbSymbolTableRecord
100
AcDbLinetypeTableRecord
  2
CENTER
 70
              64
  3
Center ____ _ ____ _ ____ _ ____ _ ____ _ ____
 72
              65
 73
               4
 40
50.799999999999997
 49
31.75
 74
               0
 49
-6.3499999999999996
 74
               0
 49
6.3499999999999996
 74
               0
 49
-6.3499999999999996
 74
               0
  0
LTYPE
  5
23
100
AcDbSymbolTableRecord
100
AcDbLinetypeTableRecord
  2
PHANTOM
 70
              64
  3
Phantom ______  __  __  ______  __  __  ______
 72
              65
 73
               6
 40
63.5
 49
31.75
 74
               0
 49
-6.3499999999999996
 74
               0
 49
6.3499999999999996
 74
               0
 49
-6.3499999999999996
 74
               0
 49
6.3499999999999996
 74
               0
 49
-6.3499999999999996
 74
               0
  0
LTYPE
  5
24
100
AcDbSymbolTableRecord
100
AcDbLinetypeTableRecord
  2
ACAD_ISO02W100
 70
              64
  3
ISO dash __ __ __ __ __ __ __ __ __ __ __ __ __
 72
              65
 73
               2
 40
15.0
 49
12.0
 74
               0
 49
-3.0
 74
               0
  0
LTYPE
  5
25
100
AcDbSymbolTableRecord
100
AcDbLinetypeTableRecord
  2
ACAD_ISO03W100
 70
              64
  3
ISO dash space __ __ __ __ __ __ __ __ __ __ __ __ __ __
 72
              65
 73
               2
 40
30.0
 49
12.0
 74
               0
 49
-18.0
 74
               0
  0
LTYPE
  5
26
100
AcDbSymbolTableRecord
100
AcDbLinetypeTableRecord
  2
ACAD_ISO04W100
 70
              64
  3
ISO long-dash dot ____ . ____ . ____ . ____ . _
 72
              65
 73
               4
 40
30.0
 49
24.0
 74
               0
 49
-3.0
 74
               0
 49
0.0
 74
               0
 49
-3.0
 74
               0
  0
LTYPE
  5
27
100
AcDbSymbolTableRecord
100
AcDbLinetypeTableRecord
  2
ACAD_ISO05W100
 70
              64
  3
ISO long-dash double-dot ____ .. ____ .. ____ .
 72
              65
 73
               6
 40
33.0
 49
24.0
 74
               0
 49
-3.0
 74
               0
 49
0.0
 74
               0
 49
-3.0
 74
               0
 49
0.0
 74
               0
 49
-3.0
 74
               0
  0
LTYPE
  5
28
100
AcDbSymbolTableRecord
100
AcDbLinetypeTableRecord
  2
ACAD_ISO06W100
 70
              64
  3
ISO long-dash triple-dot ____ ... ____ ... ____
 72
              65
 73
               8
 40
36.0
 49
24.0
 74
               0
 49
-3.0
 74
               0
 49
0.0
 74
               0
 49
-3.0
 74
               0
 49
0.0
 74
               0
 49
-3.0
 74
               0
 49
0.0
 74
               0
 49
-3.0
 74
               0
  0
LTYPE
  5
29
100
AcDbSymbolTableRecord
100
AcDbLinetypeTableRecord
  2
ACAD_ISO07W100
 70
              64
  3
ISO dot . . . . . . . . . . . . . . . . . . . .
 72
              65
 73
               2
 40
3.0
 49
0.0
 74
               0
 49
-3.0
 74
               0
  0
LTYPE
  5
2A
100
AcDbSymbolTableRecord
100
AcDbLinetypeTableRecord
  2
ACAD_ISO08W100
 70
              64
  3
ISO long-dash short-dash ____ __ ____ __ ____ _
 72
              65
 73
               4
 40
36.0
 49
24.0
 74
               0
 49
-3.0
 74
               0
 49
6.0
 74
               0
 49
-3.0
 74
               0
  0
LTYPE
  5
2B
100
AcDbSymbolTableRecord
100
AcDbLinetypeTableRecord
  2
ACAD_ISO09W100
 70
              64
  3
ISO long-dash double-short-dash ____ __ __ ____
 72
              65
 73
               6
 40
45.0
 49
24.0
 74
               0
 49
-3.0
 74
               0
 49
6.0
 74
               0
 49
-3.0
 74
               0
 49
6.0
 74
               0
 49
-3.0
 74
               0
  0
LTYPE
  5
2C
100
AcDbSymbolTableRecord
100
AcDbLinetypeTableRecord
  2
ACAD_ISO10W100
 70
              64
  3
ISO dash dot __ . __ . __ . __ . __ . __ . __ .
 72
              65
 73
               4
 40
18.0
 49
12.0
 74
               0
 49
-3.0
 74
               0
 49
0.0
 74
               0
 49
-3.0
 74
               0
  0
LTYPE
  5
2D
100
AcDbSymbolTableRecord
100
AcDbLinetypeTableRecord
  2
ACAD_ISO11W100
 70
              64
  3
ISO double-dash dot __ __ . __ __ . __ __ . __ 
 72
              65
 73
               6
 40
33.0
 49
12.0
 74
               0
 49
-3.0
 74
               0
 49
12.0
 74
               0
 49
-3.0
 74
               0
 49
0.0
 74
               0
 49
-3.0
 74
               0
  0
LTYPE
  5
2E
100
AcDbSymbolTableRecord
100
AcDbLinetypeTableRecord
  2
ACAD_ISO12W100
 70
              64
  3
ISO dash double-dot __ . . __ . . __ . . __ . .
 72
              65
 73
               6
 40
21.0
 49
12.0
 74
               0
 49
-3.0
 74
               0
 49
0.0
 74
               0
 49
-3.0
 74
               0
 49
0.0
 74
               0
 49
-3.0
 74
               0
  0
LTYPE
  5
2F
100
AcDbSymbolTableRecord
100
AcDbLinetypeTableRecord
  2
ACAD_ISO13W100
 70
              64
  3
ISO double-dash double-dot __ __ . . __ __ . . 
 72
              65
 73
               8
 40
36.0
 49
12.0
 74
               0
 49
-3.0
 74
               0
 49
12.0
 74
               0
 49
-3.0
 74
               0
 49
0.0
 74
               0
 49
-3.0
 74
               0
 49
0.0
 74
               0
 49
-3.0
 74
               0
  0
LTYPE
  5
30
100
AcDbSymbolTableRecord
100
AcDbLinetypeTableRecord
  2
ACAD_ISO14W100
 70
              64
  3
ISO dash triple-dot __ . . . __ . . . __ . . . 
 72
              65
 73
               8
 40
24.0
 49
12.0
 74
               0
 49
-3.0
 74
               0
 49
0.0
 74
               0
 49
-3.0
 74
               0
 49
0.0
 74
               0
 49
-3.0
 74
               0
 49
0.0
 74
               0
 49
-3.0
 74
               0
  0
LTYPE
  5
31
100
AcDbSymbolTableRecord
100
AcDbLinetypeTableRecord
  2
ACAD_ISO15W100
 70
              64
  3
ISO double-dash double-dot __ __ . . __ __ . . 
 72
              65
 73
              10
 40
39.0
 49
12.0
 74
               0
 49
-3.0
 74
               0
 49
12.0
 74
               0
 49
-3.0
 74
               0
 49
0.0
 74
               0
 49
-3.0
 74
               0
 49
0.0
 74
               0
 49
-3.0
 74
               0
 49
0.0
 74
               0
 49
-3.0
 74
               0
  0
ENDTAB
  0
TABLE
  2
LAYER
  5
2
100
AcDbSymbolTable
 70
              16
  0
LAYER
  5
14
100
AcDbSymbolTableRecord
100
AcDbLayerTableRecord
  2
0
 70
               0
 62
               7
  6
Continuous
  0
LAYER
  5
35
100
AcDbSymbolTableRecord
100
AcDbLayerTableRecord
  2
Layer00001
 70
               0
 62
               7
  6
Continuous
  0
LAYER
  5
36
100
AcDbSymbolTableRecord
100
AcDbLayerTableRecord
  2
Layer00002
 70
               0
 62
               7
  6
Continuous
  0
LAYER
  5
37
100
AcDbSymbolTableRecord
100
AcDbLayerTableRecord
  2
Layer00003
 70
               0
 62
               7
  6
Continuous
  0
LAYER
  5
38
100
AcDbSymbolTableRecord
100
AcDbLayerTableRecord
  2
Layer00004
 70
               0
 62
               7
  6
Continuous
  0
LAYER
  5
39
100
AcDbSymbolTableRecord
100
AcDbLayerTableRecord
  2
Layer00005
 70
               0
 62
               7
  6
Continuous
  0
LAYER
  5
3A
100
AcDbSymbolTableRecord
100
AcDbLayerTableRecord
  2
Layer00006
 70
               0
 62
               7
  6
Continuous
  0
LAYER
  5
3B
100
AcDbSymbolTableRecord
100
AcDbLayerTableRecord
  2
Layer00007
 70
               0
 62
               7
  6
Continuous
  0
LAYER
  5
3C
100
AcDbSymbolTableRecord
100
AcDbLayerTableRecord
  2
Layer00008
 70
               0
 62
               7
  6
Continuous
  0
LAYER
  5
3D
100
AcDbSymbolTableRecord
100
AcDbLayerTableRecord
  2
Layer00009
 70
               0
 62
               7
  6
Continuous
  0
LAYER
  5
3E
100
AcDbSymbolTableRecord
100
AcDbLayerTableRecord
  2
Layer00010
 70
               0
 62
               7
  6
Continuous
  0
LAYER
  5
3F
100
AcDbSymbolTableRecord
100
AcDbLayerTableRecord
  2
Layer00011
 70
               0
 62
               7
  6
Continuous
  0
LAYER
  5
40
100
AcDbSymbolTableRecord
100
AcDbLayerTableRecord
  2
Layer00012
 70
               0
 62
               7
  6
Continuous
  0
LAYER
  5
41
100
AcDbSymbolTableRecord
100
AcDbLayerTableRecord
  2
Layer00013
 70
               0
 62
               7
  6
Continuous
  0
LAYER
  5
42
100
AcDbSymbolTableRecord
100
AcDbLayerTableRecord
  2
Layer00014
 70
               0
 62
               7
  6
Continuous
  0
LAYER
  5
43
100
AcDbSymbolTableRecord
100
AcDbLayerTableRecord
  2
Layer00015
 70
               0
 62
               7
  6
Continuous
  0
ENDTAB
  0
TABLE
  2
STYLE
  5
3
100
AcDbSymbolTable
 70
               4
  0
STYLE
  5
17
100
AcDbSymbolTableRecord
100
AcDbTextStyleTableRecord
  2
Standard
 70
               0
 40
0.0
 41
1.0
 50
0.0
 71
               0
 42
0.0
  3
txt.shx
  4
bigfont.shx
  0
STYLE
  5
32
100
AcDbSymbolTableRecord
100
AcDbTextStyleTableRecord
  2
STANDARD_T
 70
               4
 40
0.0
 41
1.0
 50
0.0
 71
               0
 42
0.0
  3
txt.shx
  4
bigfont.shx
  0
STYLE
  5
33
100
AcDbSymbolTableRecord
100
AcDbTextStyleTableRecord
  2
FontTableH_0
 70
               0
 40
0.0
 41
1.0
 50
0.0
 71
               0
 42
0.0
  3
MS Gothic.ttf
  4

1001
ACAD
1000
MS Gothic
1071
    32817
  0
STYLE
  5
34
100
AcDbSymbolTableRecord
100
AcDbTextStyleTableRecord
  2
FontTableV_0
 70
               0
 40
0.0
 41
1.0
 50
0.0
 71
               0
 42
0.0
  3
@MS Gothic.ttf
  4

1001
ACAD
1000
@MS Gothic
1071
    32817
  0
ENDTAB
  0
TABLE
  2
VIEW
  5
5
100
AcDbSymbolTable
 70
               0
  0
ENDTAB
  0
TABLE
  2
UCS
  5
6
100
AcDbSymbolTable
 70
               0
  0
ENDTAB
  0
TABLE
  2
APPID
  5
8
100
AcDbSymbolTable
 70
               1
  0
APPID
  5
16
100
AcDbSymbolTableRecord
100
AcDbRegAppTableRecord
  2
ACAD
 70
               0
  0
ENDTAB
  0
TABLE
  2
DIMSTYLE
  5
9
100
AcDbSymbolTable
 70
               1
  0
DIMSTYLE
105
18
100
AcDbSymbolTableRecord
100
AcDbDimStyleTableRecord
  2
Standard
 70
               0
  3

  4

  5

  6

  7

 40
1.0
 41
0.18
 42
0.0625
 43
0.38
 44
0.18
 45
0.0
 46
0.0
 47
0.0
 48
0.0
 71
               0
 72
               0
 73
               1
 74
               1
 75
               0
 76
               0
 77
               0
 78
               0
140
0.18
141
0.09
142
0.0
143
25.399999999999999
144
1.0
145
0.0
146
1.0
147
0.09
170
               0
171
               2
172
               0
173
               0
174
               0
175
               0
176
               0
177
               0
178
               0
270
               2
271
               4
272
               4
273
               2
274
               2
275
               0
280
               0
281
               0
282
               0
283
               1
284
               0
285
               0
286
               0
287
               0
288
               0
340
17
  0
ENDTAB
  0
TABLE
  2
BLOCK_RECORD
  5
1
100
AcDbSymbolTable
 70
               0
  0
BLOCK_RECORD
  5
A
100
AcDbSymbolTableRecord
100
AcDbBlockTableRecord
  2
*MODEL_SPACE
  0
BLOCK_RECORD
  5
B
100
AcDbSymbolTableRecord
100
AcDbBlockTableRecord
  2
*PAPER_SPACE
  0
ENDTAB
  0
ENDSEC
  0
SECTION
  2
BLOCKS
  0
BLOCK
  5
D
100
AcDbEntity
  8
0
100
AcDbBlockBegin
  2
*MODEL_SPACE
 70
               0
 10
0.0
 20
0.0
 30
0.0
  3
*MODEL_SPACE
  1

  0
ENDBLK
  5
E
100
AcDbEntity
  8
0
100
AcDbBlockEnd
  0
BLOCK
  5
F
100
AcDbEntity
 67
               1
  8
0
100
AcDbBlockBegin
  2
*PAPER_SPACE
 70
               0
 10
0.0
 20
0.0
 30
0.0
  3
*PAPER_SPACE
  1

  0
ENDBLK
  5
10
100
AcDbEntity
 67
               1
  8
0
100
AcDbBlockEnd
  0
ENDSEC
  0
SECTION
  2
ENTITIES
  0
LINE
  5
44
100
AcDbEntity
  8
0
  6
Continuous
 62
               4
100
AcDbLine
 10
493.525601653867
 20
299.90008725186107
 30
0.0
 11
497.89123404327626
 21
282.43756424467028
 31
0.0
  0
LINE
  5
45
100
AcDbEntity
  8
0
  6
Continuous
 62
               4
100
AcDbLine
 10
396.51135378000794
 20
275.64651618553262
 30
0.0
 11
401.25667374213702
 21
256.66524345716772
 31
0.0
  0
LINE
  5
46
100
AcDbEntity
  8
0
  6
Continuous
 62
               4
100
AcDbLine
 10
494.25320878585677
 20
296.98965981564538
 30
0.0
 11
397.23896091199782
 21
272.73608874931676
 31
0.0
  0
LINE
  5
47
100
AcDbEntity
  8
0
  6
Continuous
 62
               4
100
AcDbLine
 10
404.59829307382648
 20
322.08685906588209
 30
0.0
 11
333.03481044812241
 21
322.08685906588209
 31
0.0
  0
LINE
  5
48
100
AcDbEntity
  8
0
  6
Continuous
 62
               6
100
AcDbLine
 10
619.34648502371738
 20
365.6167476438369
 30
0.0
 11
619.3464483072562
 21
406.41671111811064
 31
0.0
  0
LINE
  5
49
100
AcDbEntity
  8
0
  6
Continuous
 62
               6
100
AcDbLine
 10
614.74644840262363
 20
411.01671102274321
 30
0.0
 11
599.3464483072562
 21
411.0167110227431
 31
0.0
  0
LINE
  5
4A
100
AcDbEntity
  8
0
  6
Continuous
 62
               6
100
AcDbLine
 10
599.3464483072562
 20
411.0167110227431
 30
0.0
 11
599.3464483072562
 21
408.71671107042681
 31
0.0
  0
LINE
  5
4B
100
AcDbEntity
  8
0
  6
Continuous
 62
               6
100
AcDbLine
 10
599.3464483072562
 20
408.71671107042681
 30
0.0
 11
614.74644840262363
 21
408.71671107042692
 31
0.0
  0
LINE
  5
4C
100
AcDbEntity
  8
0
  6
Continuous
 62
               6
100
AcDbLine
 10
617.04644835493991
 20
406.41671111811064
 30
0.0
 11
617.04644835493991
 21
365.61671092737566
 31
0.0
  0
LINE
  5
4D
100
AcDbEntity
  8
0
  6
Continuous
 62
               6
100
AcDbLine
 10
614.74644840262363
 20
363.31671097505938
 30
0.0
 11
523.94644821188854
 21
363.31671097505921
 31
0.0
  0
LINE
  5
4E
100
AcDbEntity
  8
0
  6
Continuous
 62
               6
100
AcDbLine
 10
521.64644825957225
 20
365.61671092737538
 30
0.0
 11
521.64644825957225
 21
406.41671111811041
 31
0.0
  0
LINE
  5
4F
100
AcDbEntity
  8
0
  6
Continuous
 62
               6
100
AcDbLine
 10
523.94644821188854
 20
408.7167110704267
 30
0.0
 11
539.34644830725597
 21
408.7167110704267
 31
0.0
  0
LINE
  5
50
100
AcDbEntity
  8
0
  6
Continuous
 62
               6
100
AcDbLine
 10
539.34644830725597
 20
408.7167110704267
 30
0.0
 11
539.34644830725597
 21
411.01671102274298
 31
0.0
  0
LINE
  5
51
100
AcDbEntity
  8
0
  6
Continuous
 62
               6
100
AcDbLine
 10
539.34644830725597
 20
411.01671102274298
 30
0.0
 11
523.94644821188854
 21
411.01671102274298
 31
0.0
  0
LINE
  5
52
100
AcDbEntity
  8
0
  6
Continuous
 62
               6
100
AcDbLine
 10
519.34644830725597
 20
406.41671111811041
 30
0.0
 11
519.34644830725597
 21
365.61671092737538
 31
0.0
  0
LINE
  5
53
100
AcDbEntity
  8
0
  6
Continuous
 62
               6
100
AcDbLine
 10
522.94644830725588
 20
361.01671102274287
 30
0.0
 11
614.74644840262363
 21
361.01671102274287
 31
0.0
  0
LINE
  5
54
100
AcDbEntity
  8
0
  6
Continuous
 62
               2
100
AcDbLine
 10
499.34644830725591
 20
276.6167093722388
 30
0.0
 11
499.34644830725591
 21
377.11670937223892
 31
0.0
  0
LINE
  5
55
100
AcDbEntity
  8
0
  6
Continuous
 62
               2
100
AcDbLine
 10
499.34644830725591
 20
377.11670937223892
 30
0.0
 11
517.34644830725597
 21
377.11670937223892
 31
0.0
  0
LINE
  5
56
100
AcDbEntity
  8
0
  6
Continuous
 62
               2
100
AcDbLine
 10
517.34644830725597
 20
377.11670937223892
 30
0.0
 11
517.34644830725597
 21
395.61670937223892
 31
0.0
  0
LINE
  5
57
100
AcDbEntity
  8
0
  6
Continuous
 62
               3
100
AcDbLine
 10
504.34644830725591
 20
396.61670937223892
 30
0.0
 11
519.34644830725597
 21
396.61670937223892
 31
0.0
  0
LINE
  5
58
100
AcDbEntity
  8
0
  6
Continuous
 62
               3
100
AcDbLine
 10
504.34644830725591
 20
396.61670937223892
 30
0.0
 11
504.34644830725591
 21
539.62180727018449
 31
0.0
  0
LINE
  5
59
100
AcDbEntity
  8
0
  6
Continuous
 62
               3
100
AcDbLine
 10
519.34644830725597
 20
396.61670937223892
 30
0.0
 11
519.34644830725597
 21
539.62180727018449
 31
0.0
  0
LINE
  5
5A
100
AcDbEntity
  8
0
  6
Continuous
 62
               7
100
AcDbLine
 10
507.34644830725591
 20
396.61670937223892
 30
0.0
 11
507.34644830725591
 21
539.62180727018449
 31
0.0
  0
LINE
  5
5B
100
AcDbEntity
  8
0
  6
Continuous
 62
               7
100
AcDbLine
 10
510.34644830725591
 20
396.61670937223892
 30
0.0
 11
510.34644830725591
 21
539.62180727018449
 31
0.0
  0
LINE
  5
5C
100
AcDbEntity
  8
0
  6
Continuous
 62
               7
100
AcDbLine
 10
513.34644830725597
 20
396.61670937223892
 30
0.0
 11
513.34644830725597
 21
539.62180727018449
 31
0.0
  0
LINE
  5
5D
100
AcDbEntity
  8
0
  6
Continuous
 62
               7
100
AcDbLine
 10
516.34644830725597
 20
396.61670937223892
 30
0.0
 11
516.34644830725597
 21
539.62180727018449
 31
0.0
  0
LINE
  5
5E
100
AcDbEntity
  8
0
  6
Continuous
 62
               7
100
AcDbLine
 10
506.87588555877875
 20
377.11670937223892
 30
0.0
 11
504.87573534210509
 21
379.11685958891258
 31
0.0
  0
LINE
  5
5F
100
AcDbEntity
  8
0
  6
Continuous
 62
               7
100
AcDbLine
 10
511.11852624589807
 20
377.11670937223892
 30
0.0
 11
505.37884476274195
 21
382.85639085539509
 31
0.0
  0
LINE
  5
60
100
AcDbEntity
  8
0
  6
Continuous
 62
               7
100
AcDbLine
 10
514.34644830725597
 20
378.13142799800039
 30
0.0
 11
505.54526778280712
 21
386.9326085224493
 31
0.0
  0
LINE
  5
61
100
AcDbEntity
  8
0
  6
Continuous
 62
               7
100
AcDbLine
 10
514.34644830725597
 20
382.37406868511971
 30
0.0
 11
505.26901733243079
 21
391.45149965994477
 31
0.0
  0
LINE
  5
62
100
AcDbEntity
  8
0
  6
Continuous
 62
               7
100
AcDbLine
 10
514.34644830725597
 20
386.61670937223897
 30
0.0
 11
504.34644830725591
 21
396.61670937223892
 31
0.0
  0
LINE
  5
63
100
AcDbEntity
  8
0
  6
Continuous
 62
               7
100
AcDbLine
 10
514.34644830725597
 20
390.85935005935818
 30
0.0
 11
508.58908899437523
 21
396.61670937223892
 31
0.0
  0
LINE
  5
64
100
AcDbEntity
  8
0
  6
Continuous
 62
               7
100
AcDbLine
 10
514.34644830725597
 20
395.10199074647761
 30
0.0
 11
512.83172968149461
 21
396.61670937223892
 31
0.0
  0
LINE
  5
65
100
AcDbEntity
  8
0
  6
Continuous
 62
               7
100
AcDbLine
 10
514.34644830725597
 20
381.16086524952317
 30
0.0
 11
510.3022924299716
 21
377.11670937223892
 31
0.0
  0
LINE
  5
66
100
AcDbEntity
  8
0
  6
Continuous
 62
               7
100
AcDbLine
 10
514.34644830725597
 20
385.40350593664249
 30
0.0
 11
506.0596517428524
 21
377.11670937223892
 31
0.0
  0
LINE
  5
67
100
AcDbEntity
  8
0
  6
Continuous
 62
               7
100
AcDbLine
 10
514.34644830725597
 20
389.64614662376181
 30
0.0
 11
505.08439373612811
 21
380.384092052634
 31
0.0
  0
LINE
  5
68
100
AcDbEntity
  8
0
  6
Continuous
 62
               7
100
AcDbLine
 10
514.34644830725597
 20
393.88878731088107
 30
0.0
 11
505.51777547859587
 21
385.06011448222097
 31
0.0
  0
LINE
  5
69
100
AcDbEntity
  8
0
  6
Continuous
 62
               7
100
AcDbLine
 10
512.83172968149461
 20
396.61670937223892
 30
0.0
 11
505.46437915955113
 21
389.24935885029549
 31
0.0
  0
LINE
  5
6A
100
AcDbEntity
  8
0
  6
Continuous
 62
               7
100
AcDbLine
 10
508.58908899437523
 20
396.61670937223892
 30
0.0
 11
505.04975739919047
 21
393.07737777705421
 31
0.0
  0
LINE
  5
6B
100
AcDbEntity
  8
0
  6
Continuous
 62
               4
100
AcDbLine
 10
475.34644830725591
 20
276.6167093722388
 30
0.0
 11
493.34644830725591
 21
276.6167093722388
 31
0.0
  0
LINE
  5
6C
100
AcDbEntity
  8
0
  6
Continuous
 62
               4
100
AcDbLine
 10
475.34644830725591
 20
376.61670937223892
 30
0.0
 11
493.34644830725591
 21
376.61670937223892
 31
0.0
  0
LINE
  5
6D
100
AcDbEntity
  8
0
  6
Continuous
 62
               4
100
AcDbLine
 10
478.34644830725591
 20
276.6167093722388
 30
0.0
 11
478.34644830725591
 21
376.61670937223892
 31
0.0
  0
LINE
  5
6E
100
AcDbEntity
  8
0
  6
Continuous
 62
               4
100
AcDbLine
 10
475.34644830725591
 20
396.61670937223892
 30
0.0
 11
498.34644830725591
 21
396.61670937223892
 31
0.0
  0
LINE
  5
6F
100
AcDbEntity
  8
0
  6
Continuous
 62
               4
100
AcDbLine
 10
478.34644830725591
 20
376.61670937223892
 30
0.0
 11
478.34644830725591
 21
396.61670937223892
 31
0.0
  0
LINE
  5
70
100
AcDbEntity
  8
0
  6
Continuous
 62
               4
100
AcDbLine
 10
505.54644830725596
 20
386.61670937223897
 30
0.0
 11
476.11269157751536
 21
437.59747148577213
 31
0.0
  0
LINE
  5
71
100
AcDbEntity
  8
0
  6
Continuous
 62
               4
100
AcDbLine
 10
476.11269157751536
 20
437.59747148577213
 30
0.0
 11
390.03524920798776
 21
437.59747148577213
 31
0.0
  0
LINE
  5
72
100
AcDbEntity
  8
0
  6
Continuous
 62
               4
100
AcDbLine
 10
505.54644830725596
 20
386.61670937223897
 30
0.0
 11
499.76135982007708
 21
393.51110936030977
 31
0.0
  0
LINE
  5
73
100
AcDbEntity
  8
0
  6
Continuous
 62
               4
100
AcDbLine
 10
505.54644830725596
 20
386.61670937223897
 30
0.0
 11
502.46826701732488
 21
395.07394295931221
 31
0.0
  0
LINE
  5
74
100
AcDbEntity
  8
0
  6
Continuous
 62
               3
100
AcDbLine
 10
501.34644830725591
 20
375.11670937223892
 30
0.0
 11
519.34644830725597
 21
375.11670937223892
 31
0.0
  0
LINE
  5
75
100
AcDbEntity
  8
0
  6
Continuous
 62
               4
100
AcDbLine
 10
439.49002937602557
 20
261.65259902617771
 30
0.0
 11
404.59829307382648
 21
322.08685906588209
 31
0.0
  0
LINE
  5
76
100
AcDbEntity
  8
0
  6
Continuous
 62
               4
100
AcDbLine
 10
439.49002937602557
 20
261.65259902617771
 30
0.0
 11
433.70494088884669
 21
268.54699901424851
 31
0.0
  0
LINE
  5
77
100
AcDbEntity
  8
0
  6
Continuous
 62
               4
100
AcDbLine
 10
439.49002937602557
 20
261.65259902617771
 30
0.0
 11
436.41184808609449
 21
270.10983261325089
 31
0.0
  0
LINE
  5
78
100
AcDbEntity
  8
0
  6
Continuous
 62
               2
100
AcDbLine
 10
499.34644830725591
 20
276.6167093722388
 30
0.0
 11
403.85095015457017
 21
252.74282587863297
 31
0.0
  0
LINE
  5
79
100
AcDbEntity
  8
0
  6
Continuous
 62
               2
100
AcDbLine
 10
418.86123434488474
 20
251.96565968177958
 30
0.0
 11
404.47651271416788
 21
249.678013785085
 31
0.0
  0
LINE
  5
7A
100
AcDbEntity
  8
0
  6
Continuous
 62
               2
100
AcDbLine
 10
428.40477968596389
 20
257.33512092038148
 30
0.0
 11
404.63628895686833
 21
251.39299600913188
 31
0.0
  0
LINE
  5
7B
100
AcDbEntity
  8
0
  6
Continuous
 62
               2
100
AcDbLine
 10
428.40477968596389
 20
257.33512092038148
 30
0.0
 11
476.11720167202412
 21
267.65542798139768
 31
0.0
  0
LINE
  5
7C
100
AcDbEntity
  8
0
  6
Continuous
 62
               6
100
AcDbLine
 10
619.34648502371738
 20
539.62180727018449
 30
0.0
 11
619.34648502371738
 21
412.01671102274321
 31
0.0
  0
LINE
  5
7D
100
AcDbEntity
  8
0
  6
Continuous
 62
               6
100
AcDbLine
 10
519.34644830725597
 20
539.62180727018449
 30
0.0
 11
519.34644830725597
 21
412.01671102274287
 31
0.0
  0
LINE
  5
7E
100
AcDbEntity
  8
0
  6
DASHED
 62
               6
100
AcDbLine
 10
539.34644830725597
 20
539.62180727018449
 30
0.0
 11
539.34644830725597
 21
412.01671102274287
 31
0.0
  0
LINE
  5
7F
100
AcDbEntity
  8
0
  6
DASHED
 62
               6
100
AcDbLine
 10
599.3464483072562
 20
539.62180727018449
 30
0.0
 11
599.3464483072562
 21
412.0167110227431
 31
0.0
  0
LINE
  5
80
100
AcDbEntity
  8
0
  6
Continuous
 62
               6
100
AcDbLine
 10
619.34648502371738
 20
412.01671102274321
 30
0.0
 11
519.34644830725597
 21
412.01671102274287
 31
0.0
  0
LINE
  5
81
100
AcDbEntity
  8
0
  6
Continuous
 62
               6
100
AcDbLine
 10
519.34644830725597
 20
360.01671102274287
 30
0.0
 11
619.34648502371738
 21
360.01671102274287
 31
0.0
  0
LINE
  5
82
100
AcDbEntity
  8
0
  6
DASHED
 62
               6
100
AcDbLine
 10
521.64644825957225
 20
539.62180727018449
 30
0.0
 11
521.64644825957225
 21
412.01671102274287
 31
0.0
  0
LINE
  5
83
100
AcDbEntity
  8
0
  6
DASHED
 62
               6
100
AcDbLine
 10
617.04644835493991
 20
539.62180727018449
 30
0.0
 11
617.04644835493991
 21
412.01671102274321
 31
0.0
  0
LINE
  5
84
100
AcDbEntity
  8
0
  6
Continuous
 62
               7
100
AcDbLine
 10
519.34644830725597
 20
287.90854507277066
 30
0.0
 11
501.34644830725591
 21
256.73163053653087
 31
0.0
  0
LINE
  5
85
100
AcDbEntity
  8
0
  6
Continuous
 62
               7
100
AcDbLine
 10
519.34644830725597
 20
297.90854507277066
 30
0.0
 11
501.34644830725591
 21
266.73163053653087
 31
0.0
  0
LINE
  5
86
100
AcDbEntity
  8
0
  6
Continuous
 62
               7
100
AcDbLine
 10
519.34644830725597
 20
307.90854507277066
 30
0.0
 11
501.34644830725591
 21
276.73163053653087
 31
0.0
  0
LINE
  5
87
100
AcDbEntity
  8
0
  6
Continuous
 62
               7
100
AcDbLine
 10
519.34644830725597
 20
317.90854507277066
 30
0.0
 11
501.34644830725591
 21
286.73163053653087
 31
0.0
  0
LINE
  5
88
100
AcDbEntity
  8
0
  6
Continuous
 62
               7
100
AcDbLine
 10
519.34644830725597
 20
327.90854507277066
 30
0.0
 11
501.34644830725591
 21
296.73163053653087
 31
0.0
  0
LINE
  5
89
100
AcDbEntity
  8
0
  6
Continuous
 62
               7
100
AcDbLine
 10
519.34644830725597
 20
337.90854507277066
 30
0.0
 11
501.34644830725591
 21
306.73163053653087
 31
0.0
  0
LINE
  5
8A
100
AcDbEntity
  8
0
  6
Continuous
 62
               7
100
AcDbLine
 10
519.34644830725597
 20
347.90854507277066
 30
0.0
 11
501.34644830725591
 21
316.73163053653087
 31
0.0
  0
LINE
  5
8B
100
AcDbEntity
  8
0
  6
Continuous
 62
               7
100
AcDbLine
 10
519.34644830725597
 20
357.90854507277066
 30
0.0
 11
501.34644830725591
 21
326.73163053653087
 31
0.0
  0
LINE
  5
8C
100
AcDbEntity
  8
0
  6
Continuous
 62
               7
100
AcDbLine
 10
519.34644830725597
 20
367.90854507277066
 30
0.0
 11
501.34644830725591
 21
336.73163053653087
 31
0.0
  0
LINE
  5
8D
100
AcDbEntity
  8
0
  6
Continuous
 62
               7
100
AcDbLine
 10
517.73458121402064
 20
375.11670937223892
 30
0.0
 11
501.34644830725591
 21
346.73163053653087
 31
0.0
  0
LINE
  5
8E
100
AcDbEntity
  8
0
  6
Continuous
 62
               7
100
AcDbLine
 10
511.96107852212441
 20
375.11670937223892
 30
0.0
 11
501.34644830725591
 21
356.73163053653087
 31
0.0
  0
LINE
  5
8F
100
AcDbEntity
  8
0
  6
Continuous
 62
               7
100
AcDbLine
 10
506.18757583022813
 20
375.11670937223892
 30
0.0
 11
501.34644830725591
 21
366.73163053653087
 31
0.0
  0
LINE
  5
90
100
AcDbEntity
  8
0
  6
Continuous
 62
               4
100
AcDbLine
 10
470.82607689818377
 20
361.30731706016041
 30
0.0
 11
322.09149240558583
 21
361.30731706016041
 31
0.0
  0
LINE
  5
91
100
AcDbEntity
  8
0
  6
Continuous
 62
               4
100
AcDbLine
 10
513.21781320038281
 20
287.88267596368951
 30
0.0
 11
470.82607689818377
 21
361.30731706016041
 31
0.0
  0
LINE
  5
92
100
AcDbEntity
  8
0
  6
Continuous
 62
               4
100
AcDbLine
 10
513.21781320038281
 20
287.88267596368951
 30
0.0
 11
507.43272471320398
 21
294.77707595176031
 31
0.0
  0
LINE
  5
93
100
AcDbEntity
  8
0
  6
Continuous
 62
               4
100
AcDbLine
 10
513.21781320038281
 20
287.88267596368951
 30
0.0
 11
510.13963191045178
 21
296.33990955076257
 31
0.0
  0
LINE
  5
94
100
AcDbEntity
  8
0
  6
Continuous
 62
               7
100
AcDbLine
 10
555.14647483626118
 20
383.77410998763742
 30
0.0
 11
519.14647483626118
 21
383.77410998763781
 31
0.0
  0
LINE
  5
95
100
AcDbEntity
  8
0
  6
Continuous
 62
               7
100
AcDbLine
 10
516.64647483626118
 20
381.27410998763781
 30
0.0
 11
517.14647483626118
 21
381.27410998763781
 31
0.0
  0
LINE
  5
96
100
AcDbEntity
  8
0
  6
Continuous
 62
               7
100
AcDbLine
 10
555.14647483626118
 20
388.77410998763747
 30
0.0
 11
519.14647483626118
 21
388.77410998763781
 31
0.0
  0
LINE
  5
97
100
AcDbEntity
  8
0
  6
Continuous
 62
               7
100
AcDbLine
 10
516.64647483626118
 20
391.27410998763787
 30
0.0
 11
517.14647483626118
 21
391.27410998763787
 31
0.0
  0
LINE
  5
98
100
AcDbEntity
  8
0
  6
Continuous
 62
               7
100
AcDbLine
 10
516.64647483626118
 20
381.27410998763781
 30
0.0
 11
516.64647483626118
 21
391.27410998763787
 31
0.0
  0
LINE
  5
99
100
AcDbEntity
  8
0
  6
Continuous
 62
               7
100
AcDbLine
 10
519.14647483626118
 20
383.77410998763781
 30
0.0
 11
519.14647483626118
 21
388.77410998763781
 31
0.0
  0
LINE
  5
9A
100
AcDbEntity
  8
0
  6
Continuous
 62
               7
100
AcDbLine
 10
517.14647483626118
 20
381.27410998763781
 30
0.0
 11
519.14647483626118
 21
383.77410998763781
 31
0.0
  0
LINE
  5
9B
100
AcDbEntity
  8
0
  6
Continuous
 62
               7
100
AcDbLine
 10
519.14647483626118
 20
388.77410998763781
 30
0.0
 11
517.14647483626118
 21
391.27410998763781
 31
0.0
  0
LINE
  5
9C
100
AcDbEntity
  8
0
  6
Continuous
 62
               7
100
AcDbLine
 10
517.14647483626118
 20
381.27410998763781
 30
0.0
 11
517.14647483626118
 21
391.27410998763781
 31
0.0
  0
LINE
  5
9D
100
AcDbEntity
  8
0
  6
Continuous
 62
               7
100
AcDbLine
 10
555.14647483626118
 20
383.77410998763742
 30
0.0
 11
556.64647483626118
 21
386.27410998763747
 31
0.0
  0
LINE
  5
9E
100
AcDbEntity
  8
0
  6
Continuous
 62
               7
100
AcDbLine
 10
555.14647483626118
 20
388.77410998763747
 30
0.0
 11
556.64647483626118
 21
386.27410998763747
 31
0.0
  0
LINE
  5
9F
100
AcDbEntity
  8
0
  6
Continuous
 62
               7
100
AcDbLine
 10
526.14647483626118
 20
383.7741099876377
 30
0.0
 11
524.14647483626118
 21
388.77410998763781
 31
0.0
  0
LINE
  5
A0
100
AcDbEntity
  8
0
  6
Continuous
 62
               7
100
AcDbLine
 10
528.14647483626118
 20
383.7741099876377
 30
0.0
 11
526.14647483626118
 21
388.77410998763781
 31
0.0
  0
LINE
  5
A1
100
AcDbEntity
  8
0
  6
Continuous
 62
               7
100
AcDbLine
 10
530.14647483626118
 20
383.7741099876377
 30
0.0
 11
528.14647483626118
 21
388.7741099876377
 31
0.0
  0
LINE
  5
A2
100
AcDbEntity
  8
0
  6
Continuous
 62
               7
100
AcDbLine
 10
532.14647483626118
 20
383.77410998763759
 30
0.0
 11
530.14647483626118
 21
388.7741099876377
 31
0.0
  0
LINE
  5
A3
100
AcDbEntity
  8
0
  6
Continuous
 62
               7
100
AcDbLine
 10
534.14647483626118
 20
383.7741099876377
 30
0.0
 11
532.14647483626118
 21
388.77410998763781
 31
0.0
  0
LINE
  5
A4
100
AcDbEntity
  8
0
  6
Continuous
 62
               7
100
AcDbLine
 10
536.14647483626118
 20
383.77410998763759
 30
0.0
 11
534.14647483626118
 21
388.77410998763759
 31
0.0
  0
LINE
  5
A5
100
AcDbEntity
  8
0
  6
Continuous
 62
               7
100
AcDbLine
 10
538.14647483626118
 20
383.77410998763759
 30
0.0
 11
536.14647483626118
 21
388.77410998763759
 31
0.0
  0
LINE
  5
A6
100
AcDbEntity
  8
0
  6
Continuous
 62
               7
100
AcDbLine
 10
540.14647483626095
 20
383.77410998763747
 30
0.0
 11
538.14647483626095
 21
388.77410998763759
 31
0.0
  0
LINE
  5
A7
100
AcDbEntity
  8
0
  6
Continuous
 62
               7
100
AcDbLine
 10
542.14647483626095
 20
383.77410998763747
 30
0.0
 11
540.14647483626095
 21
388.77410998763759
 31
0.0
  0
LINE
  5
A8
100
AcDbEntity
  8
0
  6
Continuous
 62
               7
100
AcDbLine
 10
544.14647483626118
 20
383.77410998763742
 30
0.0
 11
542.14647483626095
 21
388.77410998763759
 31
0.0
  0
LINE
  5
A9
100
AcDbEntity
  8
0
  6
Continuous
 62
               7
100
AcDbLine
 10
546.14647483626118
 20
383.77410998763747
 30
0.0
 11
544.14647483626095
 21
388.77410998763747
 31
0.0
  0
LINE
  5
AA
100
AcDbEntity
  8
0
  6
Continuous
 62
               7
100
AcDbLine
 10
548.14647483626118
 20
383.77410998763742
 30
0.0
 11
546.94647483626113
 21
386.77410998763747
 31
0.0
  0
LINE
  5
AB
100
AcDbEntity
  8
0
  6
Continuous
 62
               7
100
AcDbLine
 10
554.64647483626118
 20
388.27410998763747
 30
0.0
 11
546.346474836261
 21
388.27410998763759
 31
0.0
  0
LINE
  5
AC
100
AcDbEntity
  8
0
  6
Continuous
 62
               7
100
AcDbLine
 10
546.94647483626113
 20
386.77410998763747
 30
0.0
 11
545.89647483626095
 21
387.8241099876376
 31
0.0
  0
LINE
  5
AD
100
AcDbEntity
  8
0
  6
Continuous
 62
               7
100
AcDbLine
 10
546.346474836261
 20
388.27410998763759
 30
0.0
 11
545.89647483626095
 21
387.8241099876376
 31
0.0
  0
LINE
  5
AE
100
AcDbEntity
  8
0
  6
Continuous
 62
               7
100
AcDbLine
 10
546.346474836261
 20
388.27410998763759
 30
0.0
 11
546.14647483626118
 21
388.77410998763759
 31
0.0
  0
LINE
  5
AF
100
AcDbEntity
  8
0
  6
Continuous
 62
               7
100
AcDbLine
 10
555.14647483626118
 20
388.77410998763747
 30
0.0
 11
554.64647483626118
 21
388.27410998763747
 31
0.0
  0
LINE
  5
B0
100
AcDbEntity
  8
0
  6
Continuous
 62
               7
100
AcDbLine
 10
538.33566277051341
 20
348.61592865863309
 30
0.0
 11
502.33566277051347
 21
348.61592865863338
 31
0.0
  0
LINE
  5
B1
100
AcDbEntity
  8
0
  6
Continuous
 62
               7
100
AcDbLine
 10
499.83566277051347
 20
346.11592865863338
 30
0.0
 11
500.33566277051347
 21
346.11592865863349
 31
0.0
  0
LINE
  5
B2
100
AcDbEntity
  8
0
  6
Continuous
 62
               7
100
AcDbLine
 10
538.33566277051364
 20
353.61592865863321
 30
0.0
 11
502.33566277051358
 21
353.61592865863349
 31
0.0
  0
LINE
  5
B3
100
AcDbEntity
  8
0
  6
Continuous
 62
               7
100
AcDbLine
 10
499.83566277051347
 20
356.11592865863361
 30
0.0
 11
500.33566277051358
 21
356.11592865863361
 31
0.0
  0
LINE
  5
B4
100
AcDbEntity
  8
0
  6
Continuous
 62
               7
100
AcDbLine
 10
499.83566277051347
 20
346.11592865863338
 30
0.0
 11
499.83566277051347
 21
356.11592865863361
 31
0.0
  0
LINE
  5
B5
100
AcDbEntity
  8
0
  6
Continuous
 62
               7
100
AcDbLine
 10
502.33566277051347
 20
348.61592865863338
 30
0.0
 11
502.33566277051358
 21
353.61592865863349
 31
0.0
  0
LINE
  5
B6
100
AcDbEntity
  8
0
  6
Continuous
 62
               7
100
AcDbLine
 10
500.33566277051347
 20
346.11592865863349
 30
0.0
 11
502.33566277051347
 21
348.61592865863338
 31
0.0
  0
LINE
  5
B7
100
AcDbEntity
  8
0
  6
Continuous
 62
               7
100
AcDbLine
 10
502.33566277051358
 20
353.61592865863349
 30
0.0
 11
500.33566277051358
 21
356.11592865863349
 31
0.0
  0
LINE
  5
B8
100
AcDbEntity
  8
0
  6
Continuous
 62
               7
100
AcDbLine
 10
500.33566277051347
 20
346.11592865863349
 30
0.0
 11
500.33566277051358
 21
356.11592865863349
 31
0.0
  0
LINE
  5
B9
100
AcDbEntity
  8
0
  6
Continuous
 62
               7
100
AcDbLine
 10
538.33566277051341
 20
348.61592865863309
 30
0.0
 11
539.83566277051364
 21
351.11592865863321
 31
0.0
  0
LINE
  5
BA
100
AcDbEntity
  8
0
  6
Continuous
 62
               7
100
AcDbLine
 10
538.33566277051364
 20
353.61592865863321
 30
0.0
 11
539.83566277051364
 21
351.11592865863321
 31
0.0
  0
LINE
  5
BB
100
AcDbEntity
  8
0
  6
Continuous
 62
               7
100
AcDbLine
 10
509.33566277051347
 20
348.61592865863338
 30
0.0
 11
507.33566277051347
 21
353.61592865863338
 31
0.0
  0
LINE
  5
BC
100
AcDbEntity
  8
0
  6
Continuous
 62
               7
100
AcDbLine
 10
511.33566277051347
 20
348.61592865863327
 30
0.0
 11
509.33566277051347
 21
353.61592865863338
 31
0.0
  0
LINE
  5
BD
100
AcDbEntity
  8
0
  6
Continuous
 62
               7
100
AcDbLine
 10
513.33566277051341
 20
348.61592865863338
 30
0.0
 11
511.33566277051347
 21
353.61592865863338
 31
0.0
  0
LINE
  5
BE
100
AcDbEntity
  8
0
  6
Continuous
 62
               7
100
AcDbLine
 10
515.33566277051341
 20
348.61592865863327
 30
0.0
 11
513.33566277051341
 21
353.61592865863338
 31
0.0
  0
LINE
  5
BF
100
AcDbEntity
  8
0
  6
Continuous
 62
               7
100
AcDbLine
 10
517.33566277051341
 20
348.61592865863327
 30
0.0
 11
515.33566277051341
 21
353.61592865863338
 31
0.0
  0
LINE
  5
C0
100
AcDbEntity
  8
0
  6
Continuous
 62
               7
100
AcDbLine
 10
519.33566277051341
 20
348.61592865863327
 30
0.0
 11
517.33566277051341
 21
353.61592865863327
 31
0.0
  0
LINE
  5
C1
100
AcDbEntity
  8
0
  6
Continuous
 62
               7
100
AcDbLine
 10
521.33566277051341
 20
348.61592865863327
 30
0.0
 11
519.33566277051341
 21
353.61592865863327
 31
0.0
  0
LINE
  5
C2
100
AcDbEntity
  8
0
  6
Continuous
 62
               7
100
AcDbLine
 10
523.33566277051341
 20
348.61592865863321
 30
0.0
 11
521.33566277051341
 21
353.61592865863327
 31
0.0
  0
LINE
  5
C3
100
AcDbEntity
  8
0
  6
Continuous
 62
               7
100
AcDbLine
 10
525.33566277051341
 20
348.61592865863321
 30
0.0
 11
523.33566277051341
 21
353.61592865863327
 31
0.0
  0
LINE
  5
C4
100
AcDbEntity
  8
0
  6
Continuous
 62
               7
100
AcDbLine
 10
527.33566277051341
 20
348.61592865863309
 30
0.0
 11
525.33566277051341
 21
353.61592865863321
 31
0.0
  0
LINE
  5
C5
100
AcDbEntity
  8
0
  6
Continuous
 62
               7
100
AcDbLine
 10
529.33566277051341
 20
348.61592865863321
 30
0.0
 11
527.33566277051341
 21
353.61592865863321
 31
0.0
  0
LINE
  5
C6
100
AcDbEntity
  8
0
  6
Continuous
 62
               7
100
AcDbLine
 10
531.33566277051341
 20
348.61592865863309
 30
0.0
 11
530.13566277051336
 21
351.61592865863321
 31
0.0
  0
LINE
  5
C7
100
AcDbEntity
  8
0
  6
Continuous
 62
               7
100
AcDbLine
 10
537.83566277051341
 20
353.11592865863321
 30
0.0
 11
529.53566277051323
 21
353.11592865863327
 31
0.0
  0
LINE
  5
C8
100
AcDbEntity
  8
0
  6
Continuous
 62
               7
100
AcDbLine
 10
530.13566277051336
 20
351.61592865863321
 30
0.0
 11
529.08566277051341
 21
352.66592865863328
 31
0.0
  0
LINE
  5
C9
100
AcDbEntity
  8
0
  6
Continuous
 62
               7
100
AcDbLine
 10
529.53566277051345
 20
353.11592865863327
 30
0.0
 11
529.08566277051341
 21
352.66592865863328
 31
0.0
  0
LINE
  5
CA
100
AcDbEntity
  8
0
  6
Continuous
 62
               7
100
AcDbLine
 10
529.53566277051323
 20
353.11592865863327
 30
0.0
 11
529.33566277051341
 21
353.61592865863321
 31
0.0
  0
LINE
  5
CB
100
AcDbEntity
  8
0
  6
Continuous
 62
               7
100
AcDbLine
 10
538.33566277051364
 20
353.61592865863321
 30
0.0
 11
537.83566277051341
 21
353.11592865863321
 31
0.0
  0
LINE
  5
CC
100
AcDbEntity
  8
0
  6
DASHED
 62
               6
100
AcDbLine
 10
518.34644830725597
 20
376.11670937223892
 30
0.0
 11
518.34644830725597
 21
395.61670937223892
 31
0.0
  0
LINE
  5
CD
100
AcDbEntity
  8
0
  6
DASHED
 62
               6
100
AcDbLine
 10
500.54644830725596
 20
376.11670937223892
 30
0.0
 11
518.34644830725597
 21
376.11670937223892
 31
0.0
  0
LINE
  5
CE
100
AcDbEntity
  8
0
  6
Continuous
 62
               4
100
AcDbLine
 10
618.24880167484662
 20
373.74769035826449
 30
0.0
 11
667.6825584045871
 21
288.12591209335369
 31
0.0
  0
LINE
  5
CF
100
AcDbEntity
  8
0
  6
Continuous
 62
               4
100
AcDbLine
 10
667.6825584045871
 20
288.12591209335369
 30
0.0
 11
712.76046594658783
 21
288.1259120933538
 31
0.0
  0
LINE
  5
D0
100
AcDbEntity
  8
0
  6
Continuous
 62
               4
100
AcDbLine
 10
618.24880167484662
 20
373.74769035826449
 30
0.0
 11
624.0338901620255
 21
366.85329037019369
 31
0.0
  0
LINE
  5
D1
100
AcDbEntity
  8
0
  6
Continuous
 62
               4
100
AcDbLine
 10
618.24880167484662
 20
373.74769035826449
 30
0.0
 11
621.32698296477747
 21
365.29045677119132
 31
0.0
  0
LINE
  5
D2
100
AcDbEntity
  8
0
  6
Continuous
 62
               4
100
AcDbLine
 10
609.22955357000797
 20
328.41667001397207
 30
0.0
 11
667.6825584045871
 21
288.12591209335369
 31
0.0
  0
LINE
  5
D3
100
AcDbEntity
  8
0
  6
Continuous
 62
               4
100
AcDbLine
 10
609.22955357000797
 20
328.41667001397207
 30
0.0
 11
617.41412312390935
 21
324.67329971204487
 31
0.0
  0
LINE
  5
D4
100
AcDbEntity
  8
0
  6
Continuous
 62
               4
100
AcDbLine
 10
609.22955357000797
 20
328.41667001397207
 30
0.0
 11
615.6402251369318
 21
322.09976491249768
 31
0.0
  0
LINE
  5
D5
100
AcDbEntity
  8
0
  6
Continuous
 62
               4
100
AcDbLine
 10
714.78679656440374
 20
21.213203435596483
 30
0.0
 11
714.78679656440374
 21
41.213203435596483
 31
0.0
  0
LINE
  5
D6
100
AcDbEntity
  8
0
  6
Continuous
 62
               4
100
AcDbLine
 10
864.78679656440374
 20
21.213203435596483
 30
0.0
 11
714.78679656440374
 21
21.213203435596483
 31
0.0
  0
LINE
  5
D7
100
AcDbEntity
  8
0
  6
Continuous
 62
               4
100
AcDbLine
 10
864.78679656440374
 20
41.213203435596483
 30
0.0
 11
864.78679656440374
 21
21.213203435596483
 31
0.0
  0
LINE
  5
D8
100
AcDbEntity
  8
0
  6
Continuous
 62
               4
100
AcDbLine
 10
864.78679656440374
 20
41.213203435596483
 30
0.0
 11
714.78679656440374
 21
41.213203435596483
 31
0.0
  0
LINE
  5
D9
100
AcDbEntity
  8
0
  6
Continuous
 62
               4
100
AcDbLine
 10
14.142135623730949
 20
595.85786437626905
 30
0.0
 11
14.142135623730949
 21
615.85786437626905
 31
0.0
  0
LINE
  5
DA
100
AcDbEntity
  8
0
  6
Continuous
 62
               4
100
AcDbLine
 10
164.14213562373095
 20
595.85786437626905
 30
0.0
 11
14.142135623730949
 21
595.85786437626905
 31
0.0
  0
LINE
  5
DB
100
AcDbEntity
  8
0
  6
Continuous
 62
               4
100
AcDbLine
 10
164.14213562373095
 20
615.85786437626905
 30
0.0
 11
164.14213562373095
 21
595.85786437626905
 31
0.0
  0
LINE
  5
DC
100
AcDbEntity
  8
0
  6
Continuous
 62
               4
100
AcDbLine
 10
164.14213562373095
 20
615.85786437626905
 30
0.0
 11
14.142135623730949
 21
615.85786437626905
 31
0.0
  0
LINE
  5
DD
100
AcDbEntity
  8
0
  6
Continuous
 62
               7
100
AcDbLine
 10
459.35053879600912
 20
264.63370288619058
 30
0.0
 11
449.16404276925397
 21
262.08707792422626
 31
0.0
  0
LINE
  5
DE
100
AcDbEntity
  8
0
  6
Continuous
 62
               7
100
AcDbLine
 10
449.04277491392241
 20
262.5721491635955
 30
0.0
 11
449.16404276925397
 21
262.08707792422626
 31
0.0
  0
LINE
  5
DF
100
AcDbEntity
  8
0
  6
Continuous
 62
               7
100
AcDbLine
 10
458.62293184597655
 20
265.48257750959755
 30
0.0
 11
449.40657829796004
 21
263.17848825829651
 31
0.0
  0
LINE
  5
E0
100
AcDbEntity
  8
0
  6
Continuous
 62
               7
100
AcDbLine
 10
459.22927094067751
 20
265.11877412555987
 30
0.0
 11
459.35053879600912
 21
264.63370288619058
 31
0.0
  0
LINE
  5
E1
100
AcDbEntity
  8
0
  6
Continuous
 62
               7
100
AcDbLine
 10
455.71250577444005
 20
249.2933242815414
 30
0.0
 11
452.31700582515452
 21
262.87531898388187
 31
0.0
  0
LINE
  5
E2
100
AcDbEntity
  8
0
  6
Continuous
 62
               7
100
AcDbLine
 10
458.13786215324359
 20
247.83811074539079
 30
0.0
 11
455.71250577444005
 21
249.2933242815414
 31
0.0
  0
LINE
  5
E3
100
AcDbEntity
  8
0
  6
Continuous
 62
               7
100
AcDbLine
 10
459.59307568939431
 20
250.26346712419439
 30
0.0
 11
458.13786215324359
 21
247.83811074539079
 31
0.0
  0
LINE
  5
E4
100
AcDbEntity
  8
0
  6
Continuous
 62
               7
100
AcDbLine
 10
459.59307568939431
 20
250.26346712419439
 30
0.0
 11
456.19757574010873
 21
263.84546182653486
 31
0.0
  0
LINE
  5
E5
100
AcDbEntity
  8
0
  6
Continuous
 62
               2
100
AcDbLine
 10
424.28167424230344
 20
255.27356774365836
 30
0.0
 11
404.87882466753166
 21
250.4228535303933
 31
0.0
  0
LINE
  5
E6
100
AcDbEntity
  8
0
  6
Continuous
 62
               4
100
AcDbLine
 10
375.55342785938387
 20
294.20704589764932
 30
0.0
 11
304.76797923024492
 21
294.20704589764932
 31
0.0
  0
LINE
  5
E7
100
AcDbEntity
  8
0
  6
Continuous
 62
               4
100
AcDbLine
 10
427.54659861823939
 20
242.21387513879353
 30
0.0
 11
375.55342785938387
 21
294.20704589764932
 31
0.0
  0
LINE
  5
E8
100
AcDbEntity
  8
0
  6
Continuous
 62
               4
100
AcDbLine
 10
427.54659861823939
 20
242.21387513879353
 30
0.0
 11
420.1742302196385
 21
247.37606306595296
 31
0.0
  0
LINE
  5
E9
100
AcDbEntity
  8
0
  6
Continuous
 62
               4
100
AcDbLine
 10
427.54659861823939
 20
242.21387513879353
 30
0.0
 11
422.38441069108001
 21
249.58624353739441
 31
0.0
  0
LINE
  5
EA
100
AcDbEntity
  8
0
  6
Continuous
 62
               3
100
AcDbLine
 10
129.77660781185332
 20
129.59306384573108
 30
0.0
 11
512.5808071208221
 21
225.29414957182917
 31
0.0
  0
LINE
  5
EB
100
AcDbEntity
  8
0
  6
Continuous
 62
               2
100
AcDbLine
 10
129.77660781185332
 20
133.71616956232748
 30
0.0
 11
499.0464483072559
 21
226.03366431580019
 31
0.0
  0
LINE
  5
EC
100
AcDbEntity
  8
0
  6
Continuous
 62
               7
100
AcDbLine
 10
273.92626168043842
 20
147.07653816938961
 30
0.0
 11
252.1201630060107
 21
160.17896411748217
 31
0.0
  0
LINE
  5
ED
100
AcDbEntity
  8
0
  6
Continuous
 62
               6
100
AcDbLine
 10
510.58585476669884
 20
103.16379580051338
 30
0.0
 11
471.00404057572939
 21
93.268342252770793
 31
0.0
  0
LINE
  5
EE
100
AcDbEntity
  8
0
  6
Continuous
 62
               6
100
AcDbLine
 10
465.4257213155438
 20
96.615333808882184
 30
0.0
 11
461.6906726668542
 21
111.55552840364018
 31
0.0
  0
LINE
  5
EF
100
AcDbEntity
  8
0
  6
Continuous
 62
               6
100
AcDbLine
 10
461.6906726668542
 20
111.55552840364018
 30
0.0
 11
463.92200037092846
 21
112.1133603296588
 31
0.0
  0
LINE
  5
F0
100
AcDbEntity
  8
0
  6
Continuous
 62
               6
100
AcDbLine
 10
463.92200037092846
 20
112.1133603296588
 30
0.0
 11
467.65704901961806
 21
97.173165734900692
 31
0.0
  0
LINE
  5
F1
100
AcDbEntity
  8
0
  6
Continuous
 62
               6
100
AcDbLine
 10
470.4462086497108
 20
95.499669956844997
 30
0.0
 11
510.02802284068036
 21
105.3951235045875
 31
0.0
  0
LINE
  5
F2
100
AcDbEntity
  8
0
  6
Continuous
 62
               6
100
AcDbLine
 10
511.70151861873603
 20
108.18428313468019
 30
0.0
 11
489.67928381917704
 21
196.27322233291648
 31
0.0
  0
LINE
  5
F3
100
AcDbEntity
  8
0
  6
Continuous
 62
               6
100
AcDbLine
 10
486.89012418908419
 20
197.94671811097231
 30
0.0
 11
447.30830999811462
 21
188.05126456322972
 31
0.0
  0
LINE
  5
F4
100
AcDbEntity
  8
0
  6
Continuous
 62
               6
100
AcDbLine
 10
445.63481422005896
 20
185.26210493313687
 30
0.0
 11
449.36986286874844
 21
170.32191033837881
 31
0.0
  0
LINE
  5
F5
100
AcDbEntity
  8
0
  6
Continuous
 62
               6
100
AcDbLine
 10
449.36986286874844
 20
170.32191033837881
 30
0.0
 11
447.13853516467418
 21
169.76407841236022
 31
0.0
  0
LINE
  5
F6
100
AcDbEntity
  8
0
  6
Continuous
 62
               6
100
AcDbLine
 10
447.13853516467418
 20
169.76407841236022
 30
0.0
 11
443.4034865159847
 21
184.70427300711827
 31
0.0
  0
LINE
  5
F7
100
AcDbEntity
  8
0
  6
Continuous
 62
               6
100
AcDbLine
 10
446.75047807209603
 20
190.28259226730398
 30
0.0
 11
486.3322922630656
 21
200.17804581504652
 31
0.0
  0
LINE
  5
F8
100
AcDbEntity
  8
0
  6
Continuous
 62
               6
100
AcDbLine
 10
491.9106115232513
 20
196.83105425893507
 30
0.0
 11
513.93284632281029
 21
108.74211506069881
 31
0.0
  0
LINE
  5
F9
100
AcDbEntity
  8
0
  6
Continuous
 62
               3
100
AcDbLine
 10
129.77660781185332
 20
111.03912470224319
 30
0.0
 11
516.94644830725588
 21
207.83158482609412
 31
0.0
  0
LINE
  5
FA
100
AcDbEntity
  8
0
  6
Continuous
 62
               3
100
AcDbLine
 10
516.94644830725588
 20
207.83158482609412
 30
0.0
 11
512.5808071208221
 21
225.29414957182917
 31
0.0
  0
LINE
  5
FB
100
AcDbEntity
  8
0
  6
Continuous
 62
               7
100
AcDbLine
 10
335.62673494325065
 20
162.50165648509261
 30
0.0
 11
313.82062946843109
 21
175.60408651927298
 31
0.0
  0
LINE
  5
FC
100
AcDbEntity
  8
0
  6
Continuous
 62
               7
100
AcDbLine
 10
342.48234308356302
 20
164.2155585201707
 30
0.0
 11
320.67623685314447
 21
177.31798900836077
 31
0.0
  0
LINE
  5
FD
100
AcDbEntity
  8
0
  6
Continuous
 62
               7
100
AcDbLine
 10
349.33795122387551
 20
165.9294605552488
 30
0.0
 11
327.53184423785785
 21
179.03189149744867
 31
0.0
  0
LINE
  5
FE
100
AcDbEntity
  8
0
  6
Continuous
 62
               7
100
AcDbLine
 10
356.19355936418799
 20
167.643362590327
 30
0.0
 11
334.38745162257123
 21
180.74579398653651
 31
0.0
  0
LINE
  5
FF
100
AcDbEntity
  8
0
  6
Continuous
 62
               7
100
AcDbLine
 10
363.04916750450047
 20
169.35726462540498
 30
0.0
 11
341.24305900728461
 21
182.45969647562441
 31
0.0
  0
LINE
  5
100
100
AcDbEntity
  8
0
  6
Continuous
 62
               7
100
AcDbLine
 10
369.90477564481296
 20
171.07116666048319
 30
0.0
 11
348.09866639199788
 21
184.1735989647122
 31
0.0
  0
LINE
  5
101
100
AcDbEntity
  8
0
  6
Continuous
 62
               7
100
AcDbLine
 10
376.76038378512544
 20
172.78506869556128
 30
0.0
 11
354.95427377671137
 21
185.8875014538001
 31
0.0
  0
LINE
  5
102
100
AcDbEntity
  8
0
  6
Continuous
 62
               7
100
AcDbLine
 10
383.61599192543792
 20
174.49897073063937
 30
0.0
 11
361.80988116142476
 21
187.60140394288788
 31
0.0
  0
LINE
  5
103
100
AcDbEntity
  8
0
  6
Continuous
 62
               7
100
AcDbLine
 10
390.47160006575029
 20
176.21287276571758
 30
0.0
 11
368.66548854613814
 21
189.31530643197578
 31
0.0
  0
LINE
  5
104
100
AcDbEntity
  8
0
  6
Continuous
 62
               7
100
AcDbLine
 10
397.32720820606278
 20
177.92677480079567
 30
0.0
 11
375.5210959308514
 21
191.02920892106357
 31
0.0
  0
LINE
  5
105
100
AcDbEntity
  8
0
  6
Continuous
 62
               7
100
AcDbLine
 10
404.18281634637526
 20
179.64067683587382
 30
0.0
 11
382.3767033155649
 21
192.74311141015158
 31
0.0
  0
LINE
  5
106
100
AcDbEntity
  8
0
  6
Continuous
 62
               7
100
AcDbLine
 10
411.03842448668775
 20
181.35457887095191
 30
0.0
 11
389.23231070027816
 21
194.45701389923937
 31
0.0
  0
LINE
  5
107
100
AcDbEntity
  8
0
  6
Continuous
 62
               7
100
AcDbLine
 10
417.89403262700023
 20
183.06848090603
 30
0.0
 11
396.08791808499166
 21
196.17091638832727
 31
0.0
  0
LINE
  5
108
100
AcDbEntity
  8
0
  6
Continuous
 62
               7
100
AcDbLine
 10
424.74964076731271
 20
184.78238294110821
 30
0.0
 11
402.94352546970492
 21
197.88481887741517
 31
0.0
  0
LINE
  5
109
100
AcDbEntity
  8
0
  6
Continuous
 62
               7
100
AcDbLine
 10
431.6052489076252
 20
186.4962849761863
 30
0.0
 11
409.7991328544183
 21
199.59872136650301
 31
0.0
  0
LINE
  5
10A
100
AcDbEntity
  8
0
  6
Continuous
 62
               7
100
AcDbLine
 10
438.46085704793768
 20
188.2101870112644
 30
0.0
 11
416.6547402391318
 21
201.31262385559091
 31
0.0
  0
LINE
  5
10B
100
AcDbEntity
  8
0
  6
Continuous
 62
               7
100
AcDbLine
 10
445.31646518825005
 20
189.92408904634249
 30
0.0
 11
423.51034762384518
 21
203.02652634467881
 31
0.0
  0
LINE
  5
10C
100
AcDbEntity
  8
0
  6
Continuous
 62
               7
100
AcDbLine
 10
452.17207332856265
 20
191.63799108142058
 30
0.0
 11
430.36595500855856
 21
204.7404288337666
 31
0.0
  0
LINE
  5
10D
100
AcDbEntity
  8
0
  6
Continuous
 62
               7
100
AcDbLine
 10
459.02768146887513
 20
193.35189311649879
 30
0.0
 11
437.22156239327194
 21
206.45433132285439
 31
0.0
  0
LINE
  5
10E
100
AcDbEntity
  8
0
  6
Continuous
 62
               7
100
AcDbLine
 10
465.88328960918761
 20
195.06579515157688
 30
0.0
 11
444.07716977798532
 21
208.16823381194229
 31
0.0
  0
LINE
  5
10F
100
AcDbEntity
  8
0
  6
Continuous
 62
               7
100
AcDbLine
 10
472.7388977495001
 20
196.77969718665508
 30
0.0
 11
450.9327771626987
 21
209.88213630103019
 31
0.0
  0
LINE
  5
110
100
AcDbEntity
  8
0
  6
Continuous
 62
               7
100
AcDbLine
 10
479.59450588981258
 20
198.49359922173318
 30
0.0
 11
457.78838454741208
 21
211.59603879011797
 31
0.0
  0
LINE
  5
111
100
AcDbEntity
  8
0
  6
Continuous
 62
               7
100
AcDbLine
 10
486.45011403012506
 20
200.20750125681127
 30
0.0
 11
464.64399193212546
 21
213.30994127920587
 31
0.0
  0
LINE
  5
112
100
AcDbEntity
  8
0
  6
Continuous
 62
               7
100
AcDbLine
 10
493.30572217043755
 20
201.92140329188942
 30
0.0
 11
471.49959931683884
 21
215.02384376829372
 31
0.0
  0
LINE
  5
113
100
AcDbEntity
  8
0
  6
Continuous
 62
               7
100
AcDbLine
 10
500.16133031075003
 20
203.63530532696757
 30
0.0
 11
478.35520670155222
 21
216.73774625738162
 31
0.0
  0
LINE
  5
114
100
AcDbEntity
  8
0
  6
Continuous
 62
               7
100
AcDbLine
 10
507.01693845106252
 20
205.34920736204572
 30
0.0
 11
485.21081408626571
 21
218.45164874646952
 31
0.0
  0
LINE
  5
115
100
AcDbEntity
  8
0
  6
Continuous
 62
               7
100
AcDbLine
 10
513.87254659137511
 20
207.06310939712381
 30
0.0
 11
492.06642147097909
 21
220.1655512355573
 31
0.0
  0
LINE
  5
116
100
AcDbEntity
  8
0
  6
Continuous
 62
               7
100
AcDbLine
 10
515.99982485095302
 20
211.61807865130652
 30
0.0
 11
498.92202885569247
 21
221.8794537246452
 31
0.0
  0
LINE
  5
117
100
AcDbEntity
  8
0
  6
Continuous
 62
               7
100
AcDbLine
 10
514.28375312446565
 20
218.48236555725612
 30
0.0
 11
505.77763624040597
 21
223.5933562137331
 31
0.0
  0
LINE
  5
118
100
AcDbEntity
  8
0
  6
Continuous
 62
               7
100
AcDbLine
 10
315.05991352124818
 20
157.35994857791627
 30
0.0
 11
293.25380731429095
 21
170.4623790520094
 31
0.0
  0
LINE
  5
119
100
AcDbEntity
  8
0
  6
Continuous
 62
               7
100
AcDbLine
 10
321.91552166156066
 20
159.07385061299442
 30
0.0
 11
300.10941469900433
 21
172.17628154109718
 31
0.0
  0
LINE
  5
11A
100
AcDbEntity
  8
0
  6
Continuous
 62
               7
100
AcDbLine
 10
328.77112980187314
 20
160.78775264807257
 30
0.0
 11
306.96502208371771
 21
173.89018403018508
 31
0.0
  0
LINE
  5
11B
100
AcDbEntity
  8
0
  6
Continuous
 62
               7
100
AcDbLine
 10
294.4930920992457
 20
152.2182406707401
 30
0.0
 11
272.68698516015081
 21
165.32067158474581
 31
0.0
  0
LINE
  5
11C
100
AcDbEntity
  8
0
  6
Continuous
 62
               7
100
AcDbLine
 10
301.34870023955818
 20
153.93214270581819
 30
0.0
 11
279.54259254486419
 21
167.03457407383371
 31
0.0
  0
LINE
  5
11D
100
AcDbEntity
  8
0
  6
Continuous
 62
               7
100
AcDbLine
 10
308.20430837987067
 20
155.64604474089629
 30
0.0
 11
286.39819992957757
 21
168.7484765629215
 31
0.0
  0
LINE
  5
11E
100
AcDbEntity
  8
0
  6
Continuous
 62
               7
100
AcDbLine
 10
280.78187881755582
 20
148.79043479864191
 30
0.0
 11
258.97577039072416
 21
161.89286660657007
 31
0.0
  0
LINE
  5
11F
100
AcDbEntity
  8
0
  6
Continuous
 62
               7
100
AcDbLine
 10
287.63748695786819
 20
150.50433683372
 30
0.0
 11
265.83137777543755
 21
163.60676909565797
 31
0.0
  0
LINE
  5
120
100
AcDbEntity
  8
0
  6
Continuous
 62
               7
100
AcDbLine
 10
253.35943952629819
 20
141.93483070212602
 30
0.0
 11
243.06050991940461
 21
148.12305192104537
 31
0.0
  0
LINE
  5
121
100
AcDbEntity
  8
0
  6
Continuous
 62
               7
100
AcDbLine
 10
260.21505666341557
 20
143.64872733137827
 30
0.0
 11
241.34443743540371
 21
154.98733928215501
 31
0.0
  0
LINE
  5
122
100
AcDbEntity
  8
0
  6
Continuous
 62
               7
100
AcDbLine
 10
267.07066480372816
 20
145.36262936645642
 30
0.0
 11
245.26455562129743
 21
158.46506162839438
 31
0.0
  0
LINE
  5
123
100
AcDbEntity
  8
0
  6
Continuous
 62
               7
100
AcDbLine
 10
246.50384264958799
 20
140.22092189919289
 30
0.0
 11
244.77658240340551
 21
141.25876455993568
 31
0.0
  0
LINE
  5
124
100
AcDbEntity
  8
0
  6
Continuous
 62
               7
100
AcDbLine
 10
207.3361815037841
 20
146.25572606289222
 30
0.0
 11
204.13091131301681
 21
148.18164669386721
 31
0.0
  0
LINE
  5
125
100
AcDbEntity
  8
0
  6
Continuous
 62
               7
100
AcDbLine
 10
209.05225398778501
 20
139.3914387017827
 30
0.0
 11
197.2753039283036
 21
146.46774420477942
 31
0.0
  0
LINE
  5
126
100
AcDbEntity
  8
0
  6
Continuous
 62
               4
100
AcDbLine
 10
210.45255265953662
 20
153.88517041193381
 30
0.0
 11
215.78833164317919
 21
132.54206248347361
 31
0.0
  0
LINE
  5
127
100
AcDbEntity
  8
0
  6
Continuous
 62
               4
100
AcDbLine
 10
225.97483231935414
 20
157.76574178254617
 30
0.0
 11
226.94497516200724
 21
153.88517186759191
 31
0.0
  0
LINE
  5
128
100
AcDbEntity
  8
0
  6
Continuous
 62
               4
100
AcDbLine
 10
226.94497516200724
 20
153.88517186759191
 30
0.0
 11
231.31061130299659
 21
136.42263385408609
 31
0.0
  0
LINE
  5
129
100
AcDbEntity
  8
0
  6
Continuous
 62
               4
100
AcDbLine
 10
225.97483231935414
 20
157.76574178254617
 30
0.0
 11
224.42251478470931
 21
163.9750095919386
 31
0.0
  0
LINE
  5
12A
100
AcDbEntity
  8
0
  6
Continuous
 62
               7
100
AcDbLine
 10
210.76832647178591
 20
132.52715134067307
 30
0.0
 11
190.41969578799112
 21
144.75384216970127
 31
0.0
  0
LINE
  5
12B
100
AcDbEntity
  8
0
  6
Continuous
 62
               7
100
AcDbLine
 10
205.37018027731349
 20
129.93751781860828
 30
0.0
 11
183.56408764767863
 21
143.03994013462307
 31
0.0
  0
LINE
  5
12C
100
AcDbEntity
  8
0
  6
Continuous
 62
               7
100
AcDbLine
 10
198.51457213700112
 20
128.22361578353031
 30
0.0
 11
176.70847950736609
 21
141.32603809954497
 31
0.0
  0
LINE
  5
12D
100
AcDbEntity
  8
0
  6
Continuous
 62
               7
100
AcDbLine
 10
191.65896399668864
 20
126.5097137484521
 30
0.0
 11
169.85287136705361
 21
139.61213606446688
 31
0.0
  0
LINE
  5
12E
100
AcDbEntity
  8
0
  6
Continuous
 62
               7
100
AcDbLine
 10
184.8033558563761
 20
124.79581171337401
 30
0.0
 11
162.99726322674113
 21
137.89823402938879
 31
0.0
  0
LINE
  5
12F
100
AcDbEntity
  8
0
  6
Continuous
 62
               7
100
AcDbLine
 10
177.94774771606362
 20
123.08190967829589
 30
0.0
 11
156.14165508642864
 21
136.18433199431058
 31
0.0
  0
LINE
  5
130
100
AcDbEntity
  8
0
  6
Continuous
 62
               7
100
AcDbLine
 10
171.09213957575113
 20
121.36800764321768
 30
0.0
 11
149.2860469461161
 21
134.4704299592326
 31
0.0
  0
LINE
  5
131
100
AcDbEntity
  8
0
  6
Continuous
 62
               7
100
AcDbLine
 10
164.23653143543859
 20
119.65410560813959
 30
0.0
 11
142.43043880580373
 21
132.7565279241544
 31
0.0
  0
LINE
  5
132
100
AcDbEntity
  8
0
  6
Continuous
 62
               7
100
AcDbLine
 10
157.38092329512611
 20
117.9402035730615
 30
0.0
 11
135.57483066549119
 21
131.04262588907631
 31
0.0
  0
LINE
  5
133
100
AcDbEntity
  8
0
  6
Continuous
 62
               7
100
AcDbLine
 10
150.52531515481363
 20
116.2263015379834
 30
0.0
 11
129.77660781185332
 21
128.69338267609618
 31
0.0
  0
LINE
  5
134
100
AcDbEntity
  8
0
  6
Continuous
 62
               7
100
AcDbLine
 10
143.66970701450114
 20
114.51239950290528
 30
0.0
 11
129.77660781185332
 21
122.86021569001949
 31
0.0
  0
LINE
  5
135
100
AcDbEntity
  8
0
  6
Continuous
 62
               7
100
AcDbLine
 10
136.8140988741886
 20
112.7984974678271
 30
0.0
 11
129.77660781185332
 21
117.02704870394288
 31
0.0
  0
LINE
  5
136
100
AcDbEntity
  8
0
  6
Continuous
 62
               3
100
AcDbLine
 10
501.34644830725586
 20
225.29414957182917
 30
0.0
 11
519.34644830725597
 21
225.29414957182911
 31
0.0
  0
LINE
  5
137
100
AcDbEntity
  8
0
  6
DASHED
 62
               6
100
AcDbLine
 10
500.54644830725601
 20
224.34711159816999
 30
0.0
 11
129.77660781185332
 21
131.65462599200441
 31
0.0
  0
LINE
  5
138
100
AcDbEntity
  8
0
  6
Continuous
 62
               3
100
AcDbLine
 10
501.34644830725586
 20
225.29414957182917
 30
0.0
 11
501.34644830725591
 21
375.11670937223892
 31
0.0
  0
LINE
  5
139
100
AcDbEntity
  8
0
  6
DASHED
 62
               6
100
AcDbLine
 10
500.54644830725607
 20
224.34711159817002
 30
0.0
 11
500.54644830725596
 21
376.11670937223892
 31
0.0
  0
LINE
  5
13A
100
AcDbEntity
  8
0
  6
Continuous
 62
               7
100
AcDbLine
 10
501.34644830725586
 20
246.73163053653064
 30
0.0
 11
519.34644830725597
 21
277.90854507277066
 31
0.0
  0
LINE
  5
13B
100
AcDbEntity
  8
0
  6
Continuous
 62
               7
100
AcDbLine
 10
501.34644830725591
 20
236.7316305365307
 30
0.0
 11
519.34644830725597
 21
267.90854507277066
 31
0.0
  0
LINE
  5
13C
100
AcDbEntity
  8
0
  6
Continuous
 62
               7
100
AcDbLine
 10
501.34644830725591
 20
226.7316305365301
 30
0.0
 11
519.34644830725597
 21
257.90854507277066
 31
0.0
  0
LINE
  5
13D
100
AcDbEntity
  8
0
  6
Continuous
 62
               3
100
AcDbLine
 10
519.34644830725597
 20
225.29414957182911
 30
0.0
 11
519.34644830725597
 21
375.11670937223892
 31
0.0
  0
LINE
  5
13E
100
AcDbEntity
  8
0
  6
Continuous
 62
               7
100
AcDbLine
 10
517.83702636101907
 20
225.29414957182911
 30
0.0
 11
519.34644830725597
 21
227.90854507277083
 31
0.0
  0
LINE
  5
13F
100
AcDbEntity
  8
0
  6
Continuous
 62
               7
100
AcDbLine
 10
512.06352366912301
 20
225.29414957182911
 30
0.0
 11
519.34644830725597
 21
237.90854507277078
 31
0.0
  0
LINE
  5
140
100
AcDbEntity
  8
0
  6
Continuous
 62
               7
100
AcDbLine
 10
506.29002097722696
 20
225.29414957182917
 30
0.0
 11
519.34644830725597
 21
247.90854507277075
 31
0.0
  0
LINE
  5
141
100
AcDbEntity
  8
0
  6
DASHED
 62
               4
100
AcDbLine
 10
488.85994845939769
 20
266.77964842282097
 30
0.0
 11
435.07450972767464
 21
253.33328369596506
 31
0.0
  0
LINE
  5
142
100
AcDbEntity
  8
0
  6
Continuous
 62
               4
100
AcDbLine
 10
488.1323413274078
 20
269.69007585903671
 30
0.0
 11
129.77660781185335
 21
180.10110887403613
 31
0.0
  0
LINE
  5
143
100
AcDbEntity
  8
0
  6
Continuous
 62
               2
100
AcDbLine
 10
490.9072850649693
 20
270.38381205365749
 30
0.0
 11
499.04644830725579
 21
226.03366431580045
 31
0.0
  0
LINE
  5
144
100
AcDbEntity
  8
0
  6
Continuous
 62
               2
100
AcDbLine
 10
488.1323413274078
 20
269.69007585903671
 30
0.0
 11
499.04644830725579
 21
226.03366431580045
 31
0.0
  0
LINE
  5
145
100
AcDbEntity
  8
0
  6
Continuous
 62
               2
100
AcDbLine
 10
435.256415417401
 20
211.37461951040007
 30
0.0
 11
424.28167424230344
 21
255.27356774365836
 31
0.0
  0
LINE
  5
146
100
AcDbEntity
  8
0
  6
Continuous
 62
               2
100
AcDbLine
 10
436.86721268541879
 20
220.98711453838033
 30
0.0
 11
436.71162913550876
 21
211.73842307639498
 31
0.0
  0
LINE
  5
147
100
AcDbEntity
  8
0
  6
DASHED
 62
               4
100
AcDbLine
 10
427.79844204692159
 20
241.20650180194633
 30
0.0
 11
435.07450972767464
 21
253.33328369596506
 31
0.0
  0
LINE
  5
148
100
AcDbEntity
  8
0
  6
DASHED
 62
               4
100
AcDbLine
 10
129.77660781185335
 20
166.70101529509813
 30
0.0
 11
427.79844204692159
 21
241.20650180194633
 31
0.0
  0
LINE
  5
149
100
AcDbEntity
  8
0
  6
Continuous
 62
               4
100
AcDbLine
 10
199.53844149388178
 20
197.54157383671287
 30
0.0
 11
210.45254680972766
 21
153.88516894948089
 31
0.0
  0
LINE
  5
14A
100
AcDbEntity
  8
0
  6
Continuous
 62
               6
100
AcDbLine
 10
619.34648502371749
 20
77.670236652530519
 30
0.0
 11
619.34648502371738
 21
360.01671102274287
 31
0.0
  0
LINE
  5
14B
100
AcDbEntity
  8
0
  6
DASHED
 62
               6
100
AcDbLine
 10
599.34644830725631
 20
77.670236652530519
 30
0.0
 11
599.3464483072562
 21
360.01671102274287
 31
0.0
  0
LINE
  5
14C
100
AcDbEntity
  8
0
  6
DASHED
 62
               6
100
AcDbLine
 10
539.34644830725608
 20
77.670236652530519
 30
0.0
 11
539.34644830725597
 21
360.01671102274287
 31
0.0
  0
LINE
  5
14D
100
AcDbEntity
  8
0
  6
Continuous
 62
               6
100
AcDbLine
 10
519.34644830725608
 20
77.670236652530519
 30
0.0
 11
519.34644830725597
 21
360.01671102274287
 31
0.0
  0
LINE
  5
14E
100
AcDbEntity
  8
0
  6
DASHED
 62
               6
100
AcDbLine
 10
617.0464483549398
 20
77.670236652530519
 30
0.0
 11
617.04644835493991
 21
360.01671102274287
 31
0.0
  0
LINE
  5
14F
100
AcDbEntity
  8
0
  6
DASHED
 62
               6
100
AcDbLine
 10
521.64644825957237
 20
77.670236652530519
 30
0.0
 11
521.64644825957225
 21
360.01671102274287
 31
0.0
  0
CIRCLE
  5
150
100
AcDbEntity
  8
0
  6
Continuous
 62
               4
100
AcDbCircle
 10
494.25320878585677
 20
296.98965981564538
 30
0.0
 40
1.5
  0
CIRCLE
  5
151
100
AcDbEntity
  8
0
  6
Continuous
 62
               4
100
AcDbCircle
 10
397.23896091199782
 20
272.73608874931676
 30
0.0
 40
1.5
  0
CIRCLE
  5
152
100
AcDbEntity
  8
0
  6
Continuous
 62
               4
100
AcDbCircle
 10
478.34644830725591
 20
276.6167093722388
 30
0.0
 40
1.5
  0
CIRCLE
  5
153
100
AcDbEntity
  8
0
  6
Continuous
 62
               4
100
AcDbCircle
 10
478.34644830725591
 20
376.61670937223892
 30
0.0
 40
1.5
  0
CIRCLE
  5
154
100
AcDbEntity
  8
0
  6
Continuous
 62
               4
100
AcDbCircle
 10
478.34644830725591
 20
376.61670937223892
 30
0.0
 40
1.5
  0
CIRCLE
  5
155
100
AcDbEntity
  8
0
  6
Continuous
 62
               4
100
AcDbCircle
 10
478.34644830725591
 20
396.61670937223892
 30
0.0
 40
1.5
  0
CIRCLE
  5
156
100
AcDbEntity
  8
0
  6
Continuous
 62
               4
100
AcDbCircle
 10
210.45254680972769
 20
153.88516894948089
 30
0.0
 40
1.5
  0
CIRCLE
  5
157
100
AcDbEntity
  8
0
  6
Continuous
 62
               4
100
AcDbCircle
 10
210.45255265953662
 20
153.88517041193381
 30
0.0
 40
1.5
  0
CIRCLE
  5
158
100
AcDbEntity
  8
0
  6
Continuous
 62
               4
100
AcDbCircle
 10
215.78833164317919
 20
132.54206248347361
 30
0.0
 40
1.5
  0
CIRCLE
  5
159
100
AcDbEntity
  8
0
  6
Continuous
 62
               4
100
AcDbCircle
 10
225.97483231935414
 20
157.76574178254617
 30
0.0
 40
1.5
  0
CIRCLE
  5
15A
100
AcDbEntity
  8
0
  6
Continuous
 62
               4
100
AcDbCircle
 10
226.94497516200724
 20
153.88517186759191
 30
0.0
 40
1.5
  0
CIRCLE
  5
15B
100
AcDbEntity
  8
0
  6
Continuous
 62
               4
100
AcDbCircle
 10
226.94497516200724
 20
153.88517186759191
 30
0.0
 40
1.5
  0
CIRCLE
  5
15C
100
AcDbEntity
  8
0
  6
Continuous
 62
               4
100
AcDbCircle
 10
231.31061130299659
 20
136.42263385408609
 30
0.0
 40
1.5
  0
CIRCLE
  5
15D
100
AcDbEntity
  8
0
  6
Continuous
 62
               4
100
AcDbCircle
 10
199.53844149388175
 20
197.54157383671287
 30
0.0
 40
1.5
  0
ARC
  5
15E
100
AcDbEntity
  8
0
  6
Continuous
 62
               6
100
AcDbCircle
 10
614.74644840262363
 20
365.61671092737566
 30
0.0
 40
2.2999999523162842
100
AcDbArc
 50
270.0
 51
0.0
  0
ARC
  5
15F
100
AcDbEntity
  8
0
  6
Continuous
 62
               6
100
AcDbCircle
 10
614.74644840262363
 20
365.61671092737566
 30
0.0
 40
4.5999999046325684
100
AcDbArc
 50
270.0
 51
0.0
  0
ARC
  5
160
100
AcDbEntity
  8
0
  6
Continuous
 62
               6
100
AcDbCircle
 10
614.74644840262363
 20
406.41671111811064
 30
0.0
 40
2.2999999523162842
100
AcDbArc
 50
0.0
 51
90.000000000000028
  0
ARC
  5
161
100
AcDbEntity
  8
0
  6
Continuous
 62
               6
100
AcDbCircle
 10
614.74644840262363
 20
406.41671111811064
 30
0.0
 40
4.5999999046325684
100
AcDbArc
 50
0.0
 51
90.000000000000028
  0
ARC
  5
162
100
AcDbEntity
  8
0
  6
Continuous
 62
               6
100
AcDbCircle
 10
523.94644821188854
 20
406.41671111811041
 30
0.0
 40
4.5999999046325684
100
AcDbArc
 50
90.000000000000028
 51
180.0
  0
ARC
  5
163
100
AcDbEntity
  8
0
  6
Continuous
 62
               6
100
AcDbCircle
 10
523.94644821188854
 20
406.41671111811041
 30
0.0
 40
2.2999999523162842
100
AcDbArc
 50
90.000000000000028
 51
180.0
  0
ARC
  5
164
100
AcDbEntity
  8
0
  6
Continuous
 62
               6
100
AcDbCircle
 10
523.94644821188854
 20
365.61671092737538
 30
0.0
 40
2.2999999523162842
100
AcDbArc
 50
180.0
 51
270.0
  0
ARC
  5
165
100
AcDbEntity
  8
0
  6
Continuous
 62
               6
100
AcDbCircle
 10
523.94644821188854
 20
365.61671092737538
 30
0.0
 40
4.5999999046325684
100
AcDbArc
 50
180.0
 51
270.0
  0
ARC
  5
166
100
AcDbEntity
  8
0
  6
Continuous
 62
               7
100
AcDbCircle
 10
463.27978164058931
 20
386.61670937223892
 30
0.0
 40
42.266666666666573
100
AcDbArc
 50
347.01103396515242
 51
13.685546825261891
  0
ARC
  5
167
100
AcDbEntity
  8
0
  6
Continuous
 62
               2
100
AcDbCircle
 10
404.23063772728977
 20
251.22407615745908
 30
0.0
 40
1.565491414362767
100
AcDbArc
 50
104.036248524982
 51
279.036248524982
  0
ARC
  5
168
100
AcDbEntity
  8
0
  6
Continuous
 62
               2
100
AcDbCircle
 10
404.75755681219988
 20
250.9079247697627
 30
0.0
 40
0.500000000000003
100
AcDbArc
 50
104.03624852498297
 51
284.03624852498331
  0
ARC
  5
169
100
AcDbEntity
  8
0
  6
Continuous
 62
               7
100
AcDbCircle
 10
548.51252837663151
 20
356.81501326713078
 30
0.0
 40
30.0
100
AcDbArc
 50
74.862785172707987
 51
92.992302012875911
  0
ARC
  5
16A
100
AcDbEntity
  8
0
  6
Continuous
 62
               7
100
AcDbCircle
 10
531.70171631088397
 20
321.65683193812652
 30
0.0
 40
30.0
100
AcDbArc
 50
74.862785172707987
 51
92.992302012875911
  0
ARC
  5
16B
100
AcDbEntity
  8
0
  6
Continuous
 62
               7
100
AcDbCircle
 10
449.5278461532917
 20
262.69341701892711
 30
0.0
 40
0.5
100
AcDbArc
 50
104.0362485249788
 51
194.03624852497876
  0
ARC
  5
16C
100
AcDbEntity
  8
0
  6
Continuous
 62
               7
100
AcDbCircle
 10
458.74419970130822
 20
264.9975062702282
 30
0.0
 40
0.5
100
AcDbArc
 50
14.036248524978765
 51
104.0362485249788
  0
ARC
  5
16D
100
AcDbEntity
  8
0
  6
Continuous
 62
               6
100
AcDbCircle
 10
509.47019091466177
 20
107.62645120866171
 30
0.0
 40
2.2999999523162842
100
AcDbArc
 50
284.03624346792651
 51
14.036243467926331
  0
ARC
  5
16E
100
AcDbEntity
  8
0
  6
Continuous
 62
               6
100
AcDbCircle
 10
509.47019091466177
 20
107.62645120866171
 30
0.0
 40
4.5999999046325684
100
AcDbArc
 50
284.03624346792651
 51
14.036243467926331
  0
ARC
  5
16F
100
AcDbEntity
  8
0
  6
Continuous
 62
               6
100
AcDbCircle
 10
469.88837672369232
 20
97.730997660919286
 30
0.0
 40
2.2999999523162842
100
AcDbArc
 50
194.03624346792645
 51
284.03624346792651
  0
ARC
  5
170
100
AcDbEntity
  8
0
  6
Continuous
 62
               6
100
AcDbCircle
 10
469.88837672369232
 20
97.730997660919286
 30
0.0
 40
4.5999999046325684
100
AcDbArc
 50
194.03624346792645
 51
284.03624346792651
  0
ARC
  5
171
100
AcDbEntity
  8
0
  6
Continuous
 62
               6
100
AcDbCircle
 10
447.86614192413322
 20
185.81993685915552
 30
0.0
 40
4.5999999046325684
100
AcDbArc
 50
104.0362434679265
 51
194.03624346792645
  0
ARC
  5
172
100
AcDbEntity
  8
0
  6
Continuous
 62
               6
100
AcDbCircle
 10
447.86614192413322
 20
185.81993685915552
 30
0.0
 40
2.2999999523162842
100
AcDbArc
 50
104.0362434679265
 51
194.03624346792645
  0
ARC
  5
173
100
AcDbEntity
  8
0
  6
Continuous
 62
               6
100
AcDbCircle
 10
487.44795611510278
 20
195.71539040689788
 30
0.0
 40
2.2999999523162842
100
AcDbArc
 50
14.036243467926356
 51
104.0362434679265
  0
ARC
  5
174
100
AcDbEntity
  8
0
  6
Continuous
 62
               6
100
AcDbCircle
 10
487.44795611510278
 20
195.71539040689788
 30
0.0
 40
4.5999999046325684
100
AcDbArc
 50
14.036243467926356
 51
104.0362434679265
  0
ARC
  5
175
100
AcDbEntity
  8
0
  6
Continuous
 62
               2
100
AcDbCircle
 10
435.98402227645494
 20
211.55652129339759
 30
0.0
 40
0.749999999999996
100
AcDbArc
 50
194.03624852498186
 51
14.036248524981405
  0
TEXT
  5
176
100
AcDbEntity
  8
0
 62
               7
100
AcDbText
 10
438.3970370874892
 20
284.57205181328192
 30
0.0
 40
9.600000381469739
  1
100
 50
14.036262433071506
 41
0.7695
  7
FontTableH_0
 72
               5
 11
452.36708848866459
 21
288.06456957673134
 31
0.0
100
AcDbText
  0
TEXT
  5
177
100
AcDbEntity
  8
0
 62
               7
100
AcDbText
 10
332.68164402108295
 20
323.58908062187567
 30
0.0
 40
8.9999997615814333
  1
雨押え：屋根同材
 41
0.7695
  7
FontTableH_0
 72
               5
 11
404.68164211373443
 21
323.58908062187567
 31
0.0
100
AcDbText
  0
TEXT
  5
178
100
AcDbEntity
  8
0
 62
               7
100
AcDbText
 10
476.84619480233295
 20
319.41690044609442
 30
0.0
 40
9.600000381469739
  1
100
 50
89.999982013910653
 41
0.7695
  7
FontTableH_0
 72
               5
 11
476.8461993227304
 21
333.81690101829832
 31
0.0
100
AcDbText
  0
TEXT
  5
179
100
AcDbEntity
  8
0
 62
               7
100
AcDbText
 10
476.8479648218642
 20
381.81802349296942
 30
0.0
 40
9.600000381469739
  1
20
 50
89.999982013910653
 41
0.7695
  7
FontTableH_0
 72
               5
 11
476.8479678354625
 21
391.41802387443869
 31
0.0
100
AcDbText
  0
TEXT
  5
17A
100
AcDbEntity
  8
0
 62
               7
100
AcDbText
 10
391.4519687281142
 20
439.09985332695379
 30
0.0
 40
8.9999997615814333
  1
コーキング（別途）
 41
0.7695
  7
FontTableH_0
 72
               5
 11
472.4519665823471
 21
439.09985332695379
 31
0.0
100
AcDbText
  0
TEXT
  5
17B
100
AcDbEntity
  8
0
 62
               7
100
AcDbText
 10
323.5093417749892
 20
362.80950908867254
 30
0.0
 40
8.9999997615814333
  1
下地材：硬質木片セメント板 18㎜
 41
0.7695
  7
FontTableH_0
 72
               5
 11
450.7005114524012
 21
362.80950908867254
 31
0.0
100
AcDbText
  0
TEXT
  5
17C
100
AcDbEntity
  8
0
 62
               7
100
AcDbText
 10
679.40106540780175
 20
289.62847881523504
 30
0.0
 40
8.9999997615814333
  1
（別途）
 41
0.7695
  7
FontTableH_0
 72
               5
 11
715.40106445412744
 21
289.62847881523504
 31
0.0
100
AcDbText
  0
TEXT
  5
17D
100
AcDbEntity
  8
0
 62
               7
100
AcDbText
 10
726.78679823333368
 20
26.713203554805766
 30
0.0
 40
8.9999997615814333
  1
水上壁取合い詳細図 【S=1/3】
 41
0.7695
  7
FontTableH_0
 72
               5
 11
852.7867948954738
 21
26.713203554805766
 31
0.0
100
AcDbText
  0
TEXT
  5
17E
100
AcDbEntity
  8
0
 62
               7
100
AcDbText
 10
305.73079778863416
 20
295.70860742389101
 30
0.0
 40
8.9999997615814866
  1
面戸：屋根同材
 41
0.7695
  7
FontTableH_0
 72
               5
 11
368.73079611970422
 21
295.70860742389101
 31
0.0
100
AcDbText
  0
TEXT
  5
17F
100
AcDbEntity
  8
0
 62
               7
100
AcDbText
 10
213.41302829842667
 20
148.23418467292072
 30
0.0
 40
9.6000003814696591
  1
23
 50
284.03625799367512
 41
0.7695
  7
FontTableH_0
 72
               5
 11
215.74137275244047
 21
138.9208168917321
 31
0.0
100
AcDbText
  0
TEXT
  5
180
100
AcDbEntity
  8
0
 62
               7
100
AcDbText
 10
225.87942844491104
 20
164.33892100104572
 30
0.0
 40
9.6000003814698243
  1
5
 50
284.03625799367512
 41
0.7695
  7
FontTableH_0
 72
               5
 11
227.04360067191794
 21
159.68223711045141
 31
0.0
100
AcDbText
  0
TEXT
  5
181
100
AcDbEntity
  8
0
 62
               7
100
AcDbText
 10
229.42056614022354
 20
150.17491953620197
 30
0.0
 40
9.6000003814696591
  1
18
 50
284.03625799367512
 41
0.7695
  7
FontTableH_0
 72
               5
 11
231.74891059423734
 21
140.86155175501335
 31
0.0
100
AcDbText
  0
TEXT
  5
182
100
AcDbEntity
  8
0
 62
               7
100
AcDbText
 10
205.60022588038217
 20
179.48514371021565
 30
0.0
 40
9.6000003814697408
  1
45
 50
284.03625799367512
 41
0.7695
  7
FontTableH_0
 72
               5
 11
207.92857033439597
 21
170.17177592902704
 31
0.0
100
AcDbText
  0
TEXT
  5
183
100
AcDbEntity
  8
0
 62
               7
100
AcDbText
 10
23.892137352265575
 20
601.35786449547834
 30
0.0
 40
8.9999997615814333
  1
ハーパーズストロングルーフ400
 41
0.7695
  7
FontTableH_0
 72
               5
 11
154.39213389519637
 21
601.35786449547834
 31
0.0
100
AcDbText
  0
ENDSEC
  0
SECTION
  2
OBJECTS
  0
DICTIONARY
  5
19
100
AcDbDictionary
  3
ACAD_GROUP
350
1A
  3
ACAD_MLINESTYLE
350
1B
  3
DWGPROPS
350
184
  0
DICTIONARY
  5
1A
102
{ACAD_REACTORS
330
19
102
}
100
AcDbDictionary
  0
DICTIONARY
  5
1B
102
{ACAD_REACTORS
330
19
102
}
100
AcDbDictionary
  3
STANDARD
350
1C
  0
MLINESTYLE
  5
1C
102
{ACAD_REACTORS
330
1B
102
}
100
AcDbMlineStyle
  2
Standard
 70
               0
  3

 62
               0
 51
90.0
 52
90.0
 71
               2
 49
0.5
 62
             256
  6
ByLayer
 49
-0.5
 62
             256
  6
ByLayer
  0
XRECORD
  5
184
100
AcDbXrecord
  1
DWGPROPS COOKIE
  2

  3

  4

  6

  7

  0
ENDSEC
  0
EOF
