  0
SECTION
  2
HEADER
  9
$ACADVER
  1
AC1014
  9
$ACADMAINTVER
 70
               0
  9
$DWGCODEPAGE
  3
ANSI_932
  9
$INSBASE
 10
0.0
 20
0.0
 30
0.0
  9
$EXTMIN
 10
0.0
 20
0.0
 30
0.0
  9
$EXTMAX
 10
891.00000000000091
 20
630.00000000000068
 30
0.0
  9
$LIMMIN
 10
0.0
 20
0.0
  9
$LIMMAX
 10
891.00000000000091
 20
630.00000000000068
  9
$ORTHOMODE
 70
               0
  9
$REGENMODE
 70
               1
  9
$FILLMODE
 70
               1
  9
$QTEXTMODE
 70
               0
  9
$MIRRTEXT
 70
               1
  9
$DRAGMODE
 70
               2
  9
$LTSCALE
 40
3.0000000000000031
  9
$OSMODE
 70
               0
  9
$ATTMODE
 70
               1
  9
$TEXTSIZE
 40
0.2
  9
$TRACEWID
 40
0.05
  9
$TEXTSTYLE
  7
Standard
  9
$CLAYER
  8
0
  9
$CELTYPE
  6
Continuous
  9
$CECOLOR
 62
             256
  9
$CELTSCALE
 40
1.0
  9
$DELOBJ
 70
               1
  9
$DISPSILH
 70
               0
  9
$DIMSCALE
 40
1.0
  9
$DIMASZ
 40
0.18
  9
$DIMEXO
 40
0.0625
  9
$DIMDLI
 40
0.38
  9
$DIMRND
 40
0.0
  9
$DIMDLE
 40
0.0
  9
$DIMEXE
 40
0.18
  9
$DIMTP
 40
0.0
  9
$DIMTM
 40
0.0
  9
$DIMTXT
 40
0.18
  9
$DIMCEN
 40
0.09
  9
$DIMTSZ
 40
0.0
  9
$DIMTOL
 70
               0
  9
$DIMLIM
 70
               0
  9
$DIMTIH
 70
               1
  9
$DIMTOH
 70
               1
  9
$DIMSE1
 70
               0
  9
$DIMSE2
 70
               0
  9
$DIMTAD
 70
               0
  9
$DIMZIN
 70
               0
  9
$DIMBLK
  1

  9
$DIMASO
 70
               1
  9
$DIMSHO
 70
               1
  9
$DIMPOST
  1

  9
$DIMAPOST
  1

  9
$DIMALT
 70
               0
  9
$DIMALTD
 70
               2
  9
$DIMALTF
 40
25.399999999999999
  9
$DIMLFAC
 40
1.0
  9
$DIMTOFL
 70
               0
  9
$DIMTVP
 40
0.0
  9
$DIMTIX
 70
               0
  9
$DIMSOXD
 70
               0
  9
$DIMSAH
 70
               0
  9
$DIMBLK1
  1

  9
$DIMBLK2
  1

  9
$DIMSTYLE
  2
Standard
  9
$DIMCLRD
 70
               0
  9
$DIMCLRE
 70
               0
  9
$DIMCLRT
 70
               0
  9
$DIMTFAC
 40
1.0
  9
$DIMGAP
 40
0.09
  9
$DIMJUST
 70
               0
  9
$DIMSD1
 70
               0
  9
$DIMSD2
 70
               0
  9
$DIMTOLJ
 70
               1
  9
$DIMTZIN
 70
               0
  9
$DIMALTZ
 70
               0
  9
$DIMALTTZ
 70
               0
  9
$DIMFIT
 70
               3
  9
$DIMUPT
 70
               0
  9
$DIMUNIT
 70
               2
  9
$DIMDEC
 70
               4
  9
$DIMTDEC
 70
               4
  9
$DIMALTU
 70
               2
  9
$DIMALTTD
 70
               2
  9
$DIMTXSTY
  7
Standard
  9
$DIMAUNIT
 70
               0
  9
$LUNITS
 70
               2
  9
$LUPREC
 70
               4
  9
$SKETCHINC
 40
0.1
  9
$FILLETRAD
 40
0.0
  9
$AUNITS
 70
               0
  9
$AUPREC
 70
               0
  9
$MENU
  1
acad
  9
$ELEVATION
 40
0.0
  9
$PELEVATION
 40
0.0
  9
$THICKNESS
 40
0.0
  9
$LIMCHECK
 70
               0
  9
$BLIPMODE
 70
               1
  9
$CHAMFERA
 40
0.0
  9
$CHAMFERB
 40
0.0
  9
$CHAMFERC
 40
0.0
  9
$CHAMFERD
 40
0.0
  9
$SKPOLY
 70
               0
  9
$TDCREATE
 40
0.000000000
  9
$TDUPDATE
 40
0.000000000
  9
$TDINDWG
 40
0.0000000000
  9
$TDUSRTIMER
 40
0.0000000000
  9
$USRTIMER
 70
               1
  9
$ANGBASE
 50
0.0
  9
$ANGDIR
 70
               0
  9
$PDMODE
 70
               0
  9
$PDSIZE
 40
0.0
  9
$PLINEWID
 40
0.0
  9
$COORDS
 70
               0
  9
$SPLFRAME
 70
               0
  9
$SPLINETYPE
 70
               6
  9
$SPLINESEGS
 70
               8
  9
$ATTDIA
 70
               0
  9
$ATTREQ
 70
               1
  9
$HANDLING
 70
               1
  9
$HANDSEED
  5
112
  9
$SURFTAB1
 70
               6
  9
$SURFTAB2
 70
               6
  9
$SURFTYPE
 70
               6
  9
$SURFU
 70
               6
  9
$SURFV
 70
               6
  9
$UCSNAME
  2

  9
$UCSORG
 10
0.0
 20
0.0
 30
0.0
  9
$UCSXDIR
 10
1.0
 20
0.0
 30
0.0
  9
$UCSYDIR
 10
0.0
 20
1.0
 30
0.0
  9
$PUCSNAME
  2

  9
$PUCSORG
 10
0.0
 20
0.0
 30
0.0
  9
$PUCSXDIR
 10
1.0
 20
0.0
 30
0.0
  9
$PUCSYDIR
 10
0.0
 20
1.0
 30
0.0
  9
$USERI1
 70
               0
  9
$USERI2
 70
               0
  9
$USERI3
 70
               0
  9
$USERI4
 70
               0
  9
$USERI5
 70
               0
  9
$USERR1
 40
0.0
  9
$USERR2
 40
0.0
  9
$USERR3
 40
0.0
  9
$USERR4
 40
0.0
  9
$USERR5
 40
0.0
  9
$WORLDVIEW
 70
               1
  9
$SHADEDGE
 70
               3
  9
$SHADEDIF
 70
              70
  9
$TILEMODE
 70
               1
  9
$MAXACTVP
 70
              16
  9
$PINSBASE
 10
0.0
 20
0.0
 30
0.0
  9
$PLIMCHECK
 70
               0
  9
$PEXTMIN
 10
1.0000000000000000E+20
 20
1.0000000000000000E+20
 30
1.0000000000000000E+20
  9
$PEXTMAX
 10
-1.0000000000000000E+20
 20
-1.0000000000000000E+20
 30
-1.0000000000000000E+20
  9
$PLIMMIN
 10
0.0
 20
0.0
  9
$PLIMMAX
 10
12.0
 20
9.0
  9
$UNITMODE
 70
               0
  9
$VISRETAIN
 70
               0
  9
$PLINEGEN
 70
               1
  9
$PSLTSCALE
 70
               0
  9
$TREEDEPTH
 70
            3020
  9
$PICKSTYLE
 70
               1
  9
$CMLSTYLE
  2
Standard
  9
$CMLJUST
 70
               0
  9
$CMLSCALE
 40
1.0
  9
$PROXYGRAPHICS
 70
               0
  9
$MEASUREMENT
 70
               0
  0
ENDSEC
  0
SECTION
  2
CLASSES
  0
CLASS
  1
LWPOLYLINE
  2
AcDbPolyline
  3
"AutoCAD"
 90
        0
280
               0
281
               1
  0
CLASS
  1
IMAGE
  2
AcDbRasterImage
  3
ISM
 90
      127
280
               0
281
               1
  0
CLASS
  1
OLE2FRAME
  2
AcDbOle2Frame
  3
""
 90
        0
280
               0
281
               1
  0
CLASS
  1
HATCH
  2
AcDbHatch
  3
"ACAD_SEDONA"
 90
        0
280
               0
281
               1
  0
CLASS
  1
DICTIONARYVAR
  2
AcDbDictionaryVar
  3
"AutoCAD"
 90
        0
280
               0
281
               0
  0
CLASS
  1
RASTERVARIABLES
  2
AcDbRasterVariables
  3
ISM
 90
        0
280
               0
281
               0
  0
CLASS
  1
IMAGEDEF
  2
AcDbRasterImageDef
  3
ISM
 90
        0
280
               0
281
               0
  0
CLASS
  1
IMAGEDEF_REACTOR
  2
AcDbRasterImageDefReactor
  3
ISM
 90
        1
280
               0
281
               0
  0
CLASS
  1
IDBUFFER
  2
AcDbIdBuffer
  3
"Acad"
 90
        0
280
               0
281
               0
  0
CLASS
  1
SPATIAL_FILTER
  2
AcDbSpatialFilter
  3
"Acad"
 90
        0
280
               0
281
               0
  0
CLASS
  1
XRECORD
  2
AcDbXrecord
  3
"<Built In>"
 90
        0
280
               0
281
               0
  0
CLASS
  1
SORTENTSTABLE
  2
AcDbSortentsTable
  3
"AutoCAD"
 90
        0
280
               0
281
               0
  0
CLASS
  1
LAYER_INDEX
  2
AcDbLayerIndex
  3
"Acad"
 90
        0
280
               0
281
               0
  0
CLASS
  1
SPATIAL_INDEX
  2
AcDbSpatialIndex
  3
"Acad"
 90
        0
280
               0
281
               0
  0
CLASS
  1
OBJECT_PTR
  2
CAseDLPNTableRecord
  3
"ASE-LPNTableRecord"
 90
        1
280
               0
281
               0
  0
CLASS
  1
LAYOUT
  2
AcDbLayout
  3
"AutoCAD 2000"
 90
        0
280
               0
281
               0
  0
CLASS
  1
PLOTSETTINGS
  2
AcDbPlotSettings
  3
"AutoCAD 2000"
 90
        0
280
               0
281
               0
  0
CLASS
  1
ACDBDICTIONARYWDFLT
  2
AcDbDictionaryWithDefault
  3
"AutoCAD 2000"
 90
        0
280
               0
281
               0
  0
CLASS
  1
ACDBPLACEHOLDER
  2
AcDbPlaceHolder
  3
"AutoCAD 2000"
 90
        0
280
               0
281
               0
  0
CLASS
  1
VBA_PROJECT
  2
AcDbVbaProject
  3
"acadvba"
 90
        0
280
               0
281
               0
  0
CLASS
  1
WIPEOUT
  2
AcDbWipeout
  3
WipeOut|AutoCAD Express Tool|expresstools@autodesk.com
 90
      127
280
               0
281
               1
  0
CLASS
  1
WIPEOUTVARIABLES
  2
AcDbWipeoutVariables
  3
WipeOut|AutoCAD Express Tool|expresstools@autodesk.com
 90
        0
280
               0
281
               0
  0
CLASS
  1
RTEXT
  2
RText
  3
RText|AutoCAD Express Tool|expresstools@autodesk.com
 90
        0
280
               0
281
               1
  0
CLASS
  1
ARCALIGNEDTEXT
  2
AcDbArcAlignedText
  3
ATEXT|AutoCAD Express Tool|expresstools@autodesk.com
 90
        0
280
               0
281
               1
  0
ENDSEC
  0
SECTION
  2
TABLES
  0
TABLE
  2
VPORT
  5
7
100
AcDbSymbolTable
 70
               1
  0
VPORT
  5
15
100
AcDbSymbolTableRecord
100
AcDbViewportTableRecord
  2
*ACTIVE
 70
               0
 10
0.0
 20
0.0
 11
1.0
 21
1.0
 12
445.50000000000045
 22
315.00000000000034
 13
0.0
 23
0.0
 14
10.0
 24
10.0
 15
10.0
 25
10.0
 16
0.0
 26
0.0
 36
1.0
 17
0.0
 27
0.0
 37
0.0
 40
630.00000000000068
 41
1.4142857142857141
 42
50.0
 43
0.0
 44
0.0
 50
0.0
 51
0.0
 71
               0
 72
             100
 73
               1
 74
               1
 75
               0
 76
               0
 77
               0
 78
               0
  0
ENDTAB
  0
TABLE
  2
LTYPE
  5
4
100
AcDbSymbolTable
 70
              24
  0
LTYPE
  5
11
100
AcDbSymbolTableRecord
100
AcDbLinetypeTableRecord
  2
ByBlock
 70
              64
  3

 72
              65
 73
               0
 40
0.0
  0
LTYPE
  5
12
100
AcDbSymbolTableRecord
100
AcDbLinetypeTableRecord
  2
ByLayer
 70
              64
  3

 72
              65
 73
               0
 40
0.0
  0
LTYPE
  5
13
100
AcDbSymbolTableRecord
100
AcDbLinetypeTableRecord
  2
Continuous
 70
              64
  3
Solid line
 72
              65
 73
               0
 40
0.0
  0
LTYPE
  5
1D
100
AcDbSymbolTableRecord
100
AcDbLinetypeTableRecord
  2
DOT
 70
              64
  3
Dot . . . . . . . . . . . . . . . . . . . . . .
 72
              65
 73
               2
 40
6.3499999999999996
 49
0.35
 74
               0
 49
-6.0
 74
               0
  0
LTYPE
  5
1E
100
AcDbSymbolTableRecord
100
AcDbLinetypeTableRecord
  2
DASHED
 70
              64
  3
Dashed __ __ __ __ __ __ __ __ __ __ __ __ __ _
 72
              65
 73
               2
 40
12.699999999999999
 49
6.3499999999999996
 74
               0
 49
-6.3499999999999996
 74
               0
  0
LTYPE
  5
1F
100
AcDbSymbolTableRecord
100
AcDbLinetypeTableRecord
  2
DASHDOT
 70
              64
  3
Dash dot __ . __ . __ . __ . __ . __ . __ . __
 72
              65
 73
               4
 40
25.399999999999999
 49
12.699999999999999
 74
               0
 49
-6.0
 74
               0
 49
0.7
 74
               0
 49
-6.0
 74
               0
  0
LTYPE
  5
20
100
AcDbSymbolTableRecord
100
AcDbLinetypeTableRecord
  2
DIVIDE
 70
              64
  3
Divide ____ . . ____ . . ____ . . ____ . . ____
 72
              65
 73
               6
 40
31.75
 49
12.699999999999999
 74
               0
 49
-6.0
 74
               0
 49
0.875
 74
               0
 49
-6.0
 74
               0
 49
0.875
 74
               0
 49
-6.0
 74
               0
  0
LTYPE
  5
21
100
AcDbSymbolTableRecord
100
AcDbLinetypeTableRecord
  2
HIDDEN
 70
              64
  3
Hidden __ __ __ __ __ __ __ __ __ __ __ __ __ _
 72
              65
 73
               2
 40
9.5250000000000004
 49
6.3499999999999996
 74
               0
 49
-3.1749999999999998
 74
               0
  0
LTYPE
  5
22
100
AcDbSymbolTableRecord
100
AcDbLinetypeTableRecord
  2
CENTER
 70
              64
  3
Center ____ _ ____ _ ____ _ ____ _ ____ _ ____
 72
              65
 73
               4
 40
50.799999999999997
 49
31.75
 74
               0
 49
-6.3499999999999996
 74
               0
 49
6.3499999999999996
 74
               0
 49
-6.3499999999999996
 74
               0
  0
LTYPE
  5
23
100
AcDbSymbolTableRecord
100
AcDbLinetypeTableRecord
  2
PHANTOM
 70
              64
  3
Phantom ______  __  __  ______  __  __  ______
 72
              65
 73
               6
 40
63.5
 49
31.75
 74
               0
 49
-6.3499999999999996
 74
               0
 49
6.3499999999999996
 74
               0
 49
-6.3499999999999996
 74
               0
 49
6.3499999999999996
 74
               0
 49
-6.3499999999999996
 74
               0
  0
LTYPE
  5
24
100
AcDbSymbolTableRecord
100
AcDbLinetypeTableRecord
  2
ACAD_ISO02W100
 70
              64
  3
ISO dash __ __ __ __ __ __ __ __ __ __ __ __ __
 72
              65
 73
               2
 40
15.0
 49
12.0
 74
               0
 49
-3.0
 74
               0
  0
LTYPE
  5
25
100
AcDbSymbolTableRecord
100
AcDbLinetypeTableRecord
  2
ACAD_ISO03W100
 70
              64
  3
ISO dash space __ __ __ __ __ __ __ __ __ __ __ __ __ __
 72
              65
 73
               2
 40
30.0
 49
12.0
 74
               0
 49
-18.0
 74
               0
  0
LTYPE
  5
26
100
AcDbSymbolTableRecord
100
AcDbLinetypeTableRecord
  2
ACAD_ISO04W100
 70
              64
  3
ISO long-dash dot ____ . ____ . ____ . ____ . _
 72
              65
 73
               4
 40
30.0
 49
24.0
 74
               0
 49
-3.0
 74
               0
 49
0.0
 74
               0
 49
-3.0
 74
               0
  0
LTYPE
  5
27
100
AcDbSymbolTableRecord
100
AcDbLinetypeTableRecord
  2
ACAD_ISO05W100
 70
              64
  3
ISO long-dash double-dot ____ .. ____ .. ____ .
 72
              65
 73
               6
 40
33.0
 49
24.0
 74
               0
 49
-3.0
 74
               0
 49
0.0
 74
               0
 49
-3.0
 74
               0
 49
0.0
 74
               0
 49
-3.0
 74
               0
  0
LTYPE
  5
28
100
AcDbSymbolTableRecord
100
AcDbLinetypeTableRecord
  2
ACAD_ISO06W100
 70
              64
  3
ISO long-dash triple-dot ____ ... ____ ... ____
 72
              65
 73
               8
 40
36.0
 49
24.0
 74
               0
 49
-3.0
 74
               0
 49
0.0
 74
               0
 49
-3.0
 74
               0
 49
0.0
 74
               0
 49
-3.0
 74
               0
 49
0.0
 74
               0
 49
-3.0
 74
               0
  0
LTYPE
  5
29
100
AcDbSymbolTableRecord
100
AcDbLinetypeTableRecord
  2
ACAD_ISO07W100
 70
              64
  3
ISO dot . . . . . . . . . . . . . . . . . . . .
 72
              65
 73
               2
 40
3.0
 49
0.0
 74
               0
 49
-3.0
 74
               0
  0
LTYPE
  5
2A
100
AcDbSymbolTableRecord
100
AcDbLinetypeTableRecord
  2
ACAD_ISO08W100
 70
              64
  3
ISO long-dash short-dash ____ __ ____ __ ____ _
 72
              65
 73
               4
 40
36.0
 49
24.0
 74
               0
 49
-3.0
 74
               0
 49
6.0
 74
               0
 49
-3.0
 74
               0
  0
LTYPE
  5
2B
100
AcDbSymbolTableRecord
100
AcDbLinetypeTableRecord
  2
ACAD_ISO09W100
 70
              64
  3
ISO long-dash double-short-dash ____ __ __ ____
 72
              65
 73
               6
 40
45.0
 49
24.0
 74
               0
 49
-3.0
 74
               0
 49
6.0
 74
               0
 49
-3.0
 74
               0
 49
6.0
 74
               0
 49
-3.0
 74
               0
  0
LTYPE
  5
2C
100
AcDbSymbolTableRecord
100
AcDbLinetypeTableRecord
  2
ACAD_ISO10W100
 70
              64
  3
ISO dash dot __ . __ . __ . __ . __ . __ . __ .
 72
              65
 73
               4
 40
18.0
 49
12.0
 74
               0
 49
-3.0
 74
               0
 49
0.0
 74
               0
 49
-3.0
 74
               0
  0
LTYPE
  5
2D
100
AcDbSymbolTableRecord
100
AcDbLinetypeTableRecord
  2
ACAD_ISO11W100
 70
              64
  3
ISO double-dash dot __ __ . __ __ . __ __ . __ 
 72
              65
 73
               6
 40
33.0
 49
12.0
 74
               0
 49
-3.0
 74
               0
 49
12.0
 74
               0
 49
-3.0
 74
               0
 49
0.0
 74
               0
 49
-3.0
 74
               0
  0
LTYPE
  5
2E
100
AcDbSymbolTableRecord
100
AcDbLinetypeTableRecord
  2
ACAD_ISO12W100
 70
              64
  3
ISO dash double-dot __ . . __ . . __ . . __ . .
 72
              65
 73
               6
 40
21.0
 49
12.0
 74
               0
 49
-3.0
 74
               0
 49
0.0
 74
               0
 49
-3.0
 74
               0
 49
0.0
 74
               0
 49
-3.0
 74
               0
  0
LTYPE
  5
2F
100
AcDbSymbolTableRecord
100
AcDbLinetypeTableRecord
  2
ACAD_ISO13W100
 70
              64
  3
ISO double-dash double-dot __ __ . . __ __ . . 
 72
              65
 73
               8
 40
36.0
 49
12.0
 74
               0
 49
-3.0
 74
               0
 49
12.0
 74
               0
 49
-3.0
 74
               0
 49
0.0
 74
               0
 49
-3.0
 74
               0
 49
0.0
 74
               0
 49
-3.0
 74
               0
  0
LTYPE
  5
30
100
AcDbSymbolTableRecord
100
AcDbLinetypeTableRecord
  2
ACAD_ISO14W100
 70
              64
  3
ISO dash triple-dot __ . . . __ . . . __ . . . 
 72
              65
 73
               8
 40
24.0
 49
12.0
 74
               0
 49
-3.0
 74
               0
 49
0.0
 74
               0
 49
-3.0
 74
               0
 49
0.0
 74
               0
 49
-3.0
 74
               0
 49
0.0
 74
               0
 49
-3.0
 74
               0
  0
LTYPE
  5
31
100
AcDbSymbolTableRecord
100
AcDbLinetypeTableRecord
  2
ACAD_ISO15W100
 70
              64
  3
ISO double-dash double-dot __ __ . . __ __ . . 
 72
              65
 73
              10
 40
39.0
 49
12.0
 74
               0
 49
-3.0
 74
               0
 49
12.0
 74
               0
 49
-3.0
 74
               0
 49
0.0
 74
               0
 49
-3.0
 74
               0
 49
0.0
 74
               0
 49
-3.0
 74
               0
 49
0.0
 74
               0
 49
-3.0
 74
               0
  0
ENDTAB
  0
TABLE
  2
LAYER
  5
2
100
AcDbSymbolTable
 70
              16
  0
LAYER
  5
14
100
AcDbSymbolTableRecord
100
AcDbLayerTableRecord
  2
0
 70
               0
 62
               7
  6
Continuous
  0
LAYER
  5
35
100
AcDbSymbolTableRecord
100
AcDbLayerTableRecord
  2
Layer00001
 70
               0
 62
               7
  6
Continuous
  0
LAYER
  5
36
100
AcDbSymbolTableRecord
100
AcDbLayerTableRecord
  2
Layer00002
 70
               0
 62
               7
  6
Continuous
  0
LAYER
  5
37
100
AcDbSymbolTableRecord
100
AcDbLayerTableRecord
  2
Layer00003
 70
               0
 62
               7
  6
Continuous
  0
LAYER
  5
38
100
AcDbSymbolTableRecord
100
AcDbLayerTableRecord
  2
Layer00004
 70
               0
 62
               7
  6
Continuous
  0
LAYER
  5
39
100
AcDbSymbolTableRecord
100
AcDbLayerTableRecord
  2
Layer00005
 70
               0
 62
               7
  6
Continuous
  0
LAYER
  5
3A
100
AcDbSymbolTableRecord
100
AcDbLayerTableRecord
  2
Layer00006
 70
               0
 62
               7
  6
Continuous
  0
LAYER
  5
3B
100
AcDbSymbolTableRecord
100
AcDbLayerTableRecord
  2
Layer00007
 70
               0
 62
               7
  6
Continuous
  0
LAYER
  5
3C
100
AcDbSymbolTableRecord
100
AcDbLayerTableRecord
  2
Layer00008
 70
               0
 62
               7
  6
Continuous
  0
LAYER
  5
3D
100
AcDbSymbolTableRecord
100
AcDbLayerTableRecord
  2
Layer00009
 70
               0
 62
               7
  6
Continuous
  0
LAYER
  5
3E
100
AcDbSymbolTableRecord
100
AcDbLayerTableRecord
  2
Layer00010
 70
               0
 62
               7
  6
Continuous
  0
LAYER
  5
3F
100
AcDbSymbolTableRecord
100
AcDbLayerTableRecord
  2
Layer00011
 70
               0
 62
               7
  6
Continuous
  0
LAYER
  5
40
100
AcDbSymbolTableRecord
100
AcDbLayerTableRecord
  2
Layer00012
 70
               0
 62
               7
  6
Continuous
  0
LAYER
  5
41
100
AcDbSymbolTableRecord
100
AcDbLayerTableRecord
  2
Layer00013
 70
               0
 62
               7
  6
Continuous
  0
LAYER
  5
42
100
AcDbSymbolTableRecord
100
AcDbLayerTableRecord
  2
Layer00014
 70
               0
 62
               7
  6
Continuous
  0
LAYER
  5
43
100
AcDbSymbolTableRecord
100
AcDbLayerTableRecord
  2
Layer00015
 70
               0
 62
               7
  6
Continuous
  0
ENDTAB
  0
TABLE
  2
STYLE
  5
3
100
AcDbSymbolTable
 70
               4
  0
STYLE
  5
17
100
AcDbSymbolTableRecord
100
AcDbTextStyleTableRecord
  2
Standard
 70
               0
 40
0.0
 41
1.0
 50
0.0
 71
               0
 42
0.0
  3
txt.shx
  4
bigfont.shx
  0
STYLE
  5
32
100
AcDbSymbolTableRecord
100
AcDbTextStyleTableRecord
  2
STANDARD_T
 70
               4
 40
0.0
 41
1.0
 50
0.0
 71
               0
 42
0.0
  3
txt.shx
  4
bigfont.shx
  0
STYLE
  5
33
100
AcDbSymbolTableRecord
100
AcDbTextStyleTableRecord
  2
FontTableH_0
 70
               0
 40
0.0
 41
1.0
 50
0.0
 71
               0
 42
0.0
  3
MS Gothic.ttf
  4

1001
ACAD
1000
MS Gothic
1071
    32817
  0
STYLE
  5
34
100
AcDbSymbolTableRecord
100
AcDbTextStyleTableRecord
  2
FontTableV_0
 70
               0
 40
0.0
 41
1.0
 50
0.0
 71
               0
 42
0.0
  3
@MS Gothic.ttf
  4

1001
ACAD
1000
@MS Gothic
1071
    32817
  0
ENDTAB
  0
TABLE
  2
VIEW
  5
5
100
AcDbSymbolTable
 70
               0
  0
ENDTAB
  0
TABLE
  2
UCS
  5
6
100
AcDbSymbolTable
 70
               0
  0
ENDTAB
  0
TABLE
  2
APPID
  5
8
100
AcDbSymbolTable
 70
               1
  0
APPID
  5
16
100
AcDbSymbolTableRecord
100
AcDbRegAppTableRecord
  2
ACAD
 70
               0
  0
ENDTAB
  0
TABLE
  2
DIMSTYLE
  5
9
100
AcDbSymbolTable
 70
               1
  0
DIMSTYLE
105
18
100
AcDbSymbolTableRecord
100
AcDbDimStyleTableRecord
  2
Standard
 70
               0
  3

  4

  5

  6

  7

 40
1.0
 41
0.18
 42
0.0625
 43
0.38
 44
0.18
 45
0.0
 46
0.0
 47
0.0
 48
0.0
 71
               0
 72
               0
 73
               1
 74
               1
 75
               0
 76
               0
 77
               0
 78
               0
140
0.18
141
0.09
142
0.0
143
25.399999999999999
144
1.0
145
0.0
146
1.0
147
0.09
170
               0
171
               2
172
               0
173
               0
174
               0
175
               0
176
               0
177
               0
178
               0
270
               2
271
               4
272
               4
273
               2
274
               2
275
               0
280
               0
281
               0
282
               0
283
               1
284
               0
285
               0
286
               0
287
               0
288
               0
340
17
  0
ENDTAB
  0
TABLE
  2
BLOCK_RECORD
  5
1
100
AcDbSymbolTable
 70
               0
  0
BLOCK_RECORD
  5
A
100
AcDbSymbolTableRecord
100
AcDbBlockTableRecord
  2
*MODEL_SPACE
  0
BLOCK_RECORD
  5
B
100
AcDbSymbolTableRecord
100
AcDbBlockTableRecord
  2
*PAPER_SPACE
  0
ENDTAB
  0
ENDSEC
  0
SECTION
  2
BLOCKS
  0
BLOCK
  5
D
100
AcDbEntity
  8
0
100
AcDbBlockBegin
  2
*MODEL_SPACE
 70
               0
 10
0.0
 20
0.0
 30
0.0
  3
*MODEL_SPACE
  1

  0
ENDBLK
  5
E
100
AcDbEntity
  8
0
100
AcDbBlockEnd
  0
BLOCK
  5
F
100
AcDbEntity
 67
               1
  8
0
100
AcDbBlockBegin
  2
*PAPER_SPACE
 70
               0
 10
0.0
 20
0.0
 30
0.0
  3
*PAPER_SPACE
  1

  0
ENDBLK
  5
10
100
AcDbEntity
 67
               1
  8
0
100
AcDbBlockEnd
  0
ENDSEC
  0
SECTION
  2
ENTITIES
  0
LINE
  5
44
100
AcDbEntity
  8
0
  6
Continuous
 62
               3
100
AcDbLine
 10
686.74552095022341
 20
297.50284588330351
 30
0.0
 11
441.11116220087735
 21
358.91143557064015
 31
0.0
  0
LINE
  5
45
100
AcDbEntity
  8
0
  6
Continuous
 62
               3
100
AcDbLine
 10
186.74552095022335
 20
297.50282257511242
 30
0.0
 11
432.37987976378957
 21
358.91143531375928
 31
0.0
  0
LINE
  5
46
100
AcDbEntity
  8
0
  6
Continuous
 62
               7
100
AcDbLine
 10
670.50360870992631
 20
283.00934862809834
 30
0.0
 11
657.38457845683638
 21
304.84308150665026
 31
0.0
  0
LINE
  5
47
100
AcDbEntity
  8
0
  6
Continuous
 62
               2
100
AcDbLine
 10
186.74552095022335
 20
301.62592829170887
 30
0.0
 11
433.74552095022347
 21
363.3759514550319
 31
0.0
  0
LINE
  5
48
100
AcDbEntity
  8
0
  6
Continuous
 62
               2
100
AcDbLine
 10
686.74552095022341
 20
301.62595150892128
 30
0.0
 11
439.74552095022347
 21
363.37595150892128
 31
0.0
  0
LINE
  5
49
100
AcDbEntity
  8
0
  6
DASHED
 62
               6
100
AcDbLine
 10
686.74552095022341
 20
299.56439869611233
 30
0.0
 11
439.74552095022347
 21
361.31439869611245
 31
0.0
  0
LINE
  5
4A
100
AcDbEntity
  8
0
  6
DASHED
 62
               6
100
AcDbLine
 10
186.74552095022335
 20
299.56437543341065
 30
0.0
 11
433.74552095022347
 21
361.31439859673378
 31
0.0
  0
LINE
  5
4B
100
AcDbEntity
  8
0
  6
Continuous
 62
               7
100
AcDbLine
 10
686.74552095022341
 20
285.10232772859081
 30
0.0
 11
677.97743917468642
 21
299.6948663271877
 31
0.0
  0
LINE
  5
4C
100
AcDbEntity
  8
0
  6
Continuous
 62
               7
100
AcDbLine
 10
677.36789561587625
 20
281.29327690161085
 30
0.0
 11
664.24886536278723
 21
303.12700978016244
 31
0.0
  0
LINE
  5
4D
100
AcDbEntity
  8
0
  6
Continuous
 62
               7
100
AcDbLine
 10
684.23218252182596
 20
279.57720517512337
 30
0.0
 11
671.11315226873694
 21
301.41093805367518
 31
0.0
  0
LINE
  5
4E
100
AcDbEntity
  8
0
  6
Continuous
 62
               7
100
AcDbLine
 10
686.74552095022341
 20
294.81034786064333
 30
0.0
 11
684.84172608063727
 21
297.97879460069998
 31
0.0
  0
LINE
  5
4F
100
AcDbEntity
  8
0
  6
Continuous
 62
               7
100
AcDbLine
 10
193.725334323406
 20
280.69382391131978
 30
0.0
 11
186.74552095022335
 21
284.88771889542693
 31
0.0
  0
LINE
  5
50
100
AcDbEntity
  8
0
  6
Continuous
 62
               6
100
AcDbLine
 10
434.84758281781495
 20
235.21672673782913
 30
0.0
 11
186.74552095022335
 21
173.19121127092976
 31
0.0
  0
LINE
  5
51
100
AcDbEntity
  8
0
  6
Continuous
 62
               6
100
AcDbLine
 10
410.59402031418171
 20
332.23097675236227
 30
0.0
 11
434.84758281781495
 21
235.21672673782913
 31
0.0
  0
LINE
  5
52
100
AcDbEntity
  8
0
  6
Continuous
 62
               3
100
AcDbLine
 10
186.74552095022335
 20
278.94887056802406
 30
0.0
 11
436.74552095022347
 21
341.44887056802418
 31
0.0
  0
LINE
  5
53
100
AcDbEntity
  8
0
  6
Continuous
 62
               3
100
AcDbLine
 10
436.74552095022347
 20
341.44887056802418
 30
0.0
 11
432.37987976378957
 21
358.91143531375928
 31
0.0
  0
LINE
  5
54
100
AcDbEntity
  8
0
  6
Continuous
 62
               6
100
AcDbLine
 10
686.74552095022341
 20
276.26885191137217
 30
0.0
 11
462.89702158626511
 21
332.23097675236227
 31
0.0
  0
LINE
  5
55
100
AcDbEntity
  8
0
  6
Continuous
 62
               6
100
AcDbLine
 10
462.89702158626511
 20
332.23097675236227
 30
0.0
 11
438.64345908263186
 21
235.21672673782913
 31
0.0
  0
LINE
  5
56
100
AcDbEntity
  8
0
  6
Continuous
 62
               3
100
AcDbLine
 10
686.74552095022341
 20
278.94887056802406
 30
0.0
 11
436.74552095022347
 21
341.44887056802418
 31
0.0
  0
LINE
  5
57
100
AcDbEntity
  8
0
  6
Continuous
 62
               3
100
AcDbLine
 10
436.74552095022347
 20
341.44887056802418
 30
0.0
 11
441.11116220087735
 21
358.91143557064015
 31
0.0
  0
LINE
  5
58
100
AcDbEntity
  8
0
  6
Continuous
 62
               7
100
AcDbLine
 10
275.99263200715558
 20
301.26064833225701
 30
0.0
 11
267.03810240052877
 21
306.64107253479551
 31
0.0
  0
LINE
  5
59
100
AcDbEntity
  8
0
  6
Continuous
 62
               7
100
AcDbLine
 10
282.84824014746806
 20
302.97455036733527
 30
0.0
 11
265.32202991652775
 21
313.50535989590514
 31
0.0
  0
LINE
  5
5A
100
AcDbEntity
  8
0
  6
Continuous
 62
               7
100
AcDbLine
 10
289.70384828778049
 20
304.68845240241319
 30
0.0
 11
267.89773903496547
 21
317.79088470664237
 31
0.0
  0
LINE
  5
5B
100
AcDbEntity
  8
0
  6
Continuous
 62
               7
100
AcDbLine
 10
296.55945642809291
 20
306.40235443749145
 30
0.0
 11
274.75334641967885
 21
319.50478719573027
 31
0.0
  0
LINE
  5
5C
100
AcDbEntity
  8
0
  6
Continuous
 62
               7
100
AcDbLine
 10
303.4150645684054
 20
308.11625647256949
 30
0.0
 11
281.60895380439229
 21
321.21868968481806
 31
0.0
  0
LINE
  5
5D
100
AcDbEntity
  8
0
  6
Continuous
 62
               7
100
AcDbLine
 10
310.27067270871788
 20
309.83015850764764
 30
0.0
 11
288.46456118910555
 21
322.93259217390585
 31
0.0
  0
LINE
  5
5E
100
AcDbEntity
  8
0
  6
Continuous
 62
               7
100
AcDbLine
 10
317.12628084903037
 20
311.54406054272579
 30
0.0
 11
295.32016857381899
 21
324.64649466299375
 31
0.0
  0
LINE
  5
5F
100
AcDbEntity
  8
0
  6
Continuous
 62
               7
100
AcDbLine
 10
323.98188898934285
 20
313.25796257780382
 30
0.0
 11
302.17577595853237
 21
326.36039715208165
 31
0.0
  0
LINE
  5
60
100
AcDbEntity
  8
0
  6
Continuous
 62
               7
100
AcDbLine
 10
330.83749712965533
 20
314.97186461288209
 30
0.0
 11
309.03138334324575
 21
328.07429964116955
 31
0.0
  0
LINE
  5
61
100
AcDbEntity
  8
0
  6
Continuous
 62
               7
100
AcDbLine
 10
337.69310526996782
 20
316.68576664796012
 30
0.0
 11
315.88699072795924
 21
329.78820213025733
 31
0.0
  0
LINE
  5
62
100
AcDbEntity
  8
0
  6
Continuous
 62
               7
100
AcDbLine
 10
344.5487134102803
 20
318.39966868303827
 30
0.0
 11
322.74259811267251
 21
331.50210461934523
 31
0.0
  0
LINE
  5
63
100
AcDbEntity
  8
0
  6
Continuous
 62
               7
100
AcDbLine
 10
351.40432155059278
 20
320.11357071811631
 30
0.0
 11
329.59820549738589
 21
333.21600710843313
 31
0.0
  0
LINE
  5
64
100
AcDbEntity
  8
0
  6
Continuous
 62
               7
100
AcDbLine
 10
358.25992969090515
 20
321.82747275319446
 30
0.0
 11
336.45381288209927
 21
334.92990959752092
 31
0.0
  0
LINE
  5
65
100
AcDbEntity
  8
0
  6
Continuous
 62
               7
100
AcDbLine
 10
365.11553783121764
 20
323.54137478827249
 30
0.0
 11
343.30942026681277
 21
336.64381208660882
 31
0.0
  0
LINE
  5
66
100
AcDbEntity
  8
0
  6
Continuous
 62
               7
100
AcDbLine
 10
371.97114597153023
 20
325.25527682335064
 30
0.0
 11
350.16502765152603
 21
338.3577145756966
 31
0.0
  0
LINE
  5
67
100
AcDbEntity
  8
0
  6
Continuous
 62
               7
100
AcDbLine
 10
378.82675411184272
 20
326.96917885842879
 30
0.0
 11
357.02063503623953
 21
340.0716170647845
 31
0.0
  0
LINE
  5
68
100
AcDbEntity
  8
0
  6
Continuous
 62
               7
100
AcDbLine
 10
385.6823622521552
 20
328.68308089350705
 30
0.0
 11
363.87624242095291
 21
341.78551955387229
 31
0.0
  0
LINE
  5
69
100
AcDbEntity
  8
0
  6
Continuous
 62
               7
100
AcDbLine
 10
392.53797039246768
 20
330.39698292858509
 30
0.0
 11
370.73184980566629
 21
343.49942204296019
 31
0.0
  0
LINE
  5
6A
100
AcDbEntity
  8
0
  6
Continuous
 62
               7
100
AcDbLine
 10
399.39357853278017
 20
332.11088496366324
 30
0.0
 11
377.58745719037967
 21
345.21332453204809
 31
0.0
  0
LINE
  5
6B
100
AcDbEntity
  8
0
  6
Continuous
 62
               7
100
AcDbLine
 10
406.24918667309265
 20
333.82478699874139
 30
0.0
 11
384.44306457509305
 21
346.92722702113588
 31
0.0
  0
LINE
  5
6C
100
AcDbEntity
  8
0
  6
Continuous
 62
               7
100
AcDbLine
 10
413.10479481340514
 20
335.53868903381954
 30
0.0
 11
391.29867195980643
 21
348.64112951022378
 31
0.0
  0
LINE
  5
6D
100
AcDbEntity
  8
0
  6
Continuous
 62
               7
100
AcDbLine
 10
419.96040295371762
 20
337.25259106889769
 30
0.0
 11
398.15427934451981
 21
350.35503199931168
 31
0.0
  0
LINE
  5
6E
100
AcDbEntity
  8
0
  6
Continuous
 62
               7
100
AcDbLine
 10
426.8160110940301
 20
338.96649310397572
 30
0.0
 11
405.0098867292333
 21
352.06893448839958
 31
0.0
  0
LINE
  5
6F
100
AcDbEntity
  8
0
  6
Continuous
 62
               7
100
AcDbLine
 10
433.67161923434259
 20
340.68039513905399
 30
0.0
 11
411.86549411394668
 21
353.78283697748748
 31
0.0
  0
LINE
  5
70
100
AcDbEntity
  8
0
  6
Continuous
 62
               7
100
AcDbLine
 10
435.79889749392049
 20
345.23536439323664
 30
0.0
 11
418.72110149866006
 21
355.49673946657538
 31
0.0
  0
LINE
  5
71
100
AcDbEntity
  8
0
  6
Continuous
 62
               7
100
AcDbLine
 10
434.08282576743312
 20
352.09965129918623
 30
0.0
 11
425.57670888337356
 21
357.21064195566316
 31
0.0
  0
LINE
  5
72
100
AcDbEntity
  8
0
  6
Continuous
 62
               7
100
AcDbLine
 10
437.11785390763936
 20
341.35578732867009
 30
0.0
 11
436.83848650107888
 21
341.82073277144616
 31
0.0
  0
LINE
  5
73
100
AcDbEntity
  8
0
  6
Continuous
 62
               7
100
AcDbLine
 10
443.98214081358896
 20
339.63971560218272
 30
0.0
 11
438.55238853615703
 21
348.67634091175864
 31
0.0
  0
LINE
  5
74
100
AcDbEntity
  8
0
  6
Continuous
 62
               7
100
AcDbLine
 10
450.84642771953844
 20
337.92364387569535
 30
0.0
 11
440.26629057123517
 21
355.53194905207113
 31
0.0
  0
LINE
  5
75
100
AcDbEntity
  8
0
  6
Continuous
 62
               7
100
AcDbLine
 10
457.71071462548804
 20
336.20757214920798
 30
0.0
 11
444.59168437239902
 21
358.04130502775968
 31
0.0
  0
LINE
  5
76
100
AcDbEntity
  8
0
  6
Continuous
 62
               7
100
AcDbLine
 10
464.57500153143764
 20
334.49150042272049
 30
0.0
 11
451.45597127834861
 21
356.32523330127231
 31
0.0
  0
LINE
  5
77
100
AcDbEntity
  8
0
  6
Continuous
 62
               7
100
AcDbLine
 10
471.43928843738712
 20
332.77542869623323
 30
0.0
 11
458.32025818429821
 21
354.60916157478493
 31
0.0
  0
LINE
  5
78
100
AcDbEntity
  8
0
  6
Continuous
 62
               7
100
AcDbLine
 10
478.30357534333672
 20
331.05935696974575
 30
0.0
 11
465.1845450902477
 21
352.89308984829756
 31
0.0
  0
LINE
  5
79
100
AcDbEntity
  8
0
  6
Continuous
 62
               7
100
AcDbLine
 10
485.16786224928632
 20
329.34328524325838
 30
0.0
 11
472.04883199619729
 21
351.17701812181008
 31
0.0
  0
LINE
  5
7A
100
AcDbEntity
  8
0
  6
Continuous
 62
               7
100
AcDbLine
 10
492.0321491552358
 20
327.62721351677089
 30
0.0
 11
478.91311890214689
 21
349.46094639532271
 31
0.0
  0
LINE
  5
7B
100
AcDbEntity
  8
0
  6
Continuous
 62
               7
100
AcDbLine
 10
498.8964360611854
 20
325.91114179028352
 30
0.0
 11
485.77740580809649
 21
347.74487466883534
 31
0.0
  0
LINE
  5
7C
100
AcDbEntity
  8
0
  6
Continuous
 62
               7
100
AcDbLine
 10
505.760722967135
 20
324.19507006379615
 30
0.0
 11
492.64169271404597
 21
346.02880294234797
 31
0.0
  0
LINE
  5
7D
100
AcDbEntity
  8
0
  6
Continuous
 62
               7
100
AcDbLine
 10
512.62500987308454
 20
322.47899833730878
 30
0.0
 11
499.50597961999557
 21
344.31273121586048
 31
0.0
  0
LINE
  5
7E
100
AcDbEntity
  8
0
  6
Continuous
 62
               7
100
AcDbLine
 10
519.48929677903402
 20
320.7629266108213
 30
0.0
 11
506.37026652594523
 21
342.59665948937322
 31
0.0
  0
LINE
  5
7F
100
AcDbEntity
  8
0
  6
Continuous
 62
               7
100
AcDbLine
 10
526.35358368498373
 20
319.04685488433392
 30
0.0
 11
513.23455343189471
 21
340.88058776288574
 31
0.0
  0
LINE
  5
80
100
AcDbEntity
  8
0
  6
Continuous
 62
               7
100
AcDbLine
 10
533.21787059093322
 20
317.33078315784667
 30
0.0
 11
520.09884033784419
 21
339.16451603639848
 31
0.0
  0
LINE
  5
81
100
AcDbEntity
  8
0
  6
Continuous
 62
               7
100
AcDbLine
 10
540.08215749688293
 20
315.61471143135918
 30
0.0
 11
526.96312724379391
 21
337.44844430991088
 31
0.0
  0
LINE
  5
82
100
AcDbEntity
  8
0
  6
Continuous
 62
               7
100
AcDbLine
 10
546.94644440283241
 20
313.89863970487181
 30
0.0
 11
533.82741414974339
 21
335.73237258342363
 31
0.0
  0
LINE
  5
83
100
AcDbEntity
  8
0
  6
Continuous
 62
               7
100
AcDbLine
 10
553.8107313087819
 20
312.18256797838433
 30
0.0
 11
540.69170105569287
 21
334.01630085693625
 31
0.0
  0
LINE
  5
84
100
AcDbEntity
  8
0
  6
Continuous
 62
               7
100
AcDbLine
 10
560.67501821473161
 20
310.46649625189707
 30
0.0
 11
547.55598796164259
 21
332.30022913044888
 31
0.0
  0
LINE
  5
85
100
AcDbEntity
  8
0
  6
Continuous
 62
               7
100
AcDbLine
 10
567.53930512068109
 20
308.75042452540958
 30
0.0
 11
554.42027486759207
 21
330.5841574039614
 31
0.0
  0
LINE
  5
86
100
AcDbEntity
  8
0
  6
Continuous
 62
               7
100
AcDbLine
 10
574.40359202663058
 20
307.03435279892221
 30
0.0
 11
561.28456177354155
 21
328.86808567747403
 31
0.0
  0
LINE
  5
87
100
AcDbEntity
  8
0
  6
Continuous
 62
               7
100
AcDbLine
 10
581.26787893258029
 20
305.31828107243484
 30
0.0
 11
568.14884867949127
 21
327.15201395098666
 31
0.0
  0
LINE
  5
88
100
AcDbEntity
  8
0
  6
Continuous
 62
               7
100
AcDbLine
 10
588.13216583852977
 20
303.60220934594747
 30
0.0
 11
575.01313558544075
 21
325.43594222449917
 31
0.0
  0
LINE
  5
89
100
AcDbEntity
  8
0
  6
Continuous
 62
               7
100
AcDbLine
 10
594.99645274447926
 20
301.88613761945999
 30
0.0
 11
581.87742249139023
 21
323.71987049801169
 31
0.0
  0
LINE
  5
8A
100
AcDbEntity
  8
0
  6
Continuous
 62
               7
100
AcDbLine
 10
601.86073965042897
 20
300.17006589297262
 30
0.0
 11
588.74170939733995
 21
322.00379877152443
 31
0.0
  0
LINE
  5
8B
100
AcDbEntity
  8
0
  6
Continuous
 62
               7
100
AcDbLine
 10
608.72502655637845
 20
298.45399416648524
 30
0.0
 11
595.60599630328943
 21
320.28772704503695
 31
0.0
  0
LINE
  5
8C
100
AcDbEntity
  8
0
  6
Continuous
 62
               7
100
AcDbLine
 10
615.58931346232816
 20
296.73792243999787
 30
0.0
 11
602.47028320923937
 21
318.57165531854957
 31
0.0
  0
LINE
  5
8D
100
AcDbEntity
  8
0
  6
Continuous
 62
               7
100
AcDbLine
 10
622.45360036827788
 20
295.02185071351039
 30
0.0
 11
609.33457011518885
 21
316.85558359206209
 31
0.0
  0
LINE
  5
8E
100
AcDbEntity
  8
0
  6
Continuous
 62
               7
100
AcDbLine
 10
629.31788727422736
 20
293.30577898702313
 30
0.0
 11
616.19885702113856
 21
315.13951186557472
 31
0.0
  0
LINE
  5
8F
100
AcDbEntity
  8
0
  6
Continuous
 62
               6
100
AcDbLine
 10
358.74605941515932
 20
321.43362094662905
 30
0.0
 11
436.74552095022347
 21
340.93348236482188
 31
0.0
  0
LINE
  5
90
100
AcDbEntity
  8
0
  6
Continuous
 62
               6
100
AcDbLine
 10
359.13412093859682
 20
319.88139011166811
 30
0.0
 11
436.74552095022347
 21
339.28424011457491
 31
0.0
  0
LINE
  5
91
100
AcDbEntity
  8
0
  6
Continuous
 62
               6
100
AcDbLine
 10
514.74497796190826
 20
321.43361811190061
 30
0.0
 11
436.74552095022347
 21
340.93348236482188
 31
0.0
  0
LINE
  5
92
100
AcDbEntity
  8
0
  6
Continuous
 62
               6
100
AcDbLine
 10
514.35692096184994
 20
319.88139011166811
 30
0.0
 11
436.74552095022347
 21
339.28424011457491
 31
0.0
  0
LINE
  5
93
100
AcDbEntity
  8
0
  6
Continuous
 62
               6
100
AcDbLine
 10
514.35692096184994
 20
319.88139011166811
 30
0.0
 11
514.74497796190826
 21
321.43361811190061
 31
0.0
  0
LINE
  5
94
100
AcDbEntity
  8
0
  6
Continuous
 62
               7
100
AcDbLine
 10
636.1821741801773
 20
291.58970726053565
 30
0.0
 11
623.06314392708828
 21
313.42344013908723
 31
0.0
  0
LINE
  5
95
100
AcDbEntity
  8
0
  6
Continuous
 62
               7
100
AcDbLine
 10
643.04646108612678
 20
289.87363553404828
 30
0.0
 11
629.92743083303776
 21
311.70736841259998
 31
0.0
  0
LINE
  5
96
100
AcDbEntity
  8
0
  6
Continuous
 62
               7
100
AcDbLine
 10
649.91074799207649
 20
288.15756380756079
 30
0.0
 11
636.79171773898747
 21
309.99129668611249
 31
0.0
  0
LINE
  5
97
100
AcDbEntity
  8
0
  6
Continuous
 62
               7
100
AcDbLine
 10
656.77503489802621
 20
286.44149208107342
 30
0.0
 11
643.65600464493741
 21
308.27522495962501
 31
0.0
  0
LINE
  5
98
100
AcDbEntity
  8
0
  6
Continuous
 62
               7
100
AcDbLine
 10
663.63932180397615
 20
284.72542035458594
 30
0.0
 11
650.5202915508869
 21
306.55915323313764
 31
0.0
  0
LINE
  5
99
100
AcDbEntity
  8
0
  6
Continuous
 62
               7
100
AcDbLine
 10
234.85898616421576
 20
290.97723431984639
 30
0.0
 11
213.0528799572586
 21
304.07966479393951
 31
0.0
  0
LINE
  5
9A
100
AcDbEntity
  8
0
  6
Continuous
 62
               7
100
AcDbLine
 10
233.60373583336946
 20
297.56463179674995
 30
0.0
 11
219.90848734197186
 21
305.7935672830273
 31
0.0
  0
LINE
  5
9B
100
AcDbEntity
  8
0
  6
Continuous
 62
               7
100
AcDbLine
 10
231.88766334936855
 20
304.42891915785958
 30
0.0
 11
226.7640947266853
 21
307.50746977211509
 31
0.0
  0
LINE
  5
9C
100
AcDbEntity
  8
0
  6
Continuous
 62
               7
100
AcDbLine
 10
214.29216474221329
 20
285.83552641267011
 30
0.0
 11
192.4860578031184
 21
298.93795732667593
 31
0.0
  0
LINE
  5
9D
100
AcDbEntity
  8
0
  6
Continuous
 62
               7
100
AcDbLine
 10
221.14777288252577
 20
287.54942844774837
 30
0.0
 11
199.34166518783178
 21
300.65185981576371
 31
0.0
  0
LINE
  5
9E
100
AcDbEntity
  8
0
  6
Continuous
 62
               7
100
AcDbLine
 10
228.00338102283825
 20
289.26333048282629
 30
0.0
 11
206.19727257254516
 21
302.36576230485161
 31
0.0
  0
LINE
  5
9F
100
AcDbEntity
  8
0
  6
Continuous
 62
               7
100
AcDbLine
 10
200.58095146052335
 20
282.40772054057209
 30
0.0
 11
186.74552095022335
 21
290.72088588150359
 31
0.0
  0
LINE
  5
A0
100
AcDbEntity
  8
0
  6
Continuous
 62
               7
100
AcDbLine
 10
207.43655960083578
 20
284.12162257565012
 30
0.0
 11
186.74552095022335
 21
296.55405286758025
 31
0.0
  0
LINE
  5
A1
100
AcDbEntity
  8
0
  6
Continuous
 62
               4
100
AcDbLine
 10
234.76757152702055
 20
313.6314454393505
 30
0.0
 11
240.10335158100048
 21
292.28833322954279
 31
0.0
  0
LINE
  5
A2
100
AcDbEntity
  8
0
  6
Continuous
 62
               4
100
AcDbLine
 10
250.28985107980435
 20
317.51201723809788
 30
0.0
 11
251.25999392245745
 21
313.63144732314345
 31
0.0
  0
LINE
  5
A3
100
AcDbEntity
  8
0
  6
Continuous
 62
               4
100
AcDbLine
 10
251.25999392245745
 20
313.63144732314345
 30
0.0
 11
255.62563280052666
 21
296.16889836132282
 31
0.0
  0
LINE
  5
A4
100
AcDbEntity
  8
0
  6
Continuous
 62
               4
100
AcDbLine
 10
250.28985107980435
 20
317.51201723809788
 30
0.0
 11
248.73760834442345
 21
323.72098585054664
 31
0.0
  0
LINE
  5
A5
100
AcDbEntity
  8
0
  6
Continuous
 62
               4
100
AcDbLine
 10
452.81684445908508
 20
335.72236306953039
 30
0.0
 11
498.35754805430889
 21
256.84355063016801
 31
0.0
  0
LINE
  5
A6
100
AcDbEntity
  8
0
  6
Continuous
 62
               4
100
AcDbLine
 10
452.81684445908508
 20
335.72236306953039
 30
0.0
 11
458.60193294626384
 21
328.82796308145953
 31
0.0
  0
LINE
  5
A7
100
AcDbEntity
  8
0
  6
Continuous
 62
               4
100
AcDbLine
 10
452.81684445908508
 20
335.72236306953039
 30
0.0
 11
455.89502574901604
 21
327.26512948245727
 31
0.0
  0
LINE
  5
A8
100
AcDbEntity
  8
0
  6
Continuous
 62
               4
100
AcDbLine
 10
498.35754805430889
 20
256.84355063016801
 30
0.0
 11
608.31113047454528
 21
256.84355063016801
 31
0.0
  0
LINE
  5
A9
100
AcDbEntity
  8
0
  6
Continuous
 62
               6
100
AcDbLine
 10
359.13412093859682
 20
319.88139011166811
 30
0.0
 11
358.74605941515932
 21
321.43362094662905
 31
0.0
  0
LINE
  5
AA
100
AcDbEntity
  8
0
  6
Continuous
 62
               6
100
AcDbLine
 10
438.64345908263186
 20
235.21672673782913
 30
0.0
 11
686.74552095022341
 21
173.19121127092976
 31
0.0
  0
LINE
  5
AB
100
AcDbEntity
  8
0
  6
Continuous
 62
               6
100
AcDbLine
 10
186.74552095022335
 20
276.26885191137217
 30
0.0
 11
410.59402031418171
 21
332.23097675236227
 31
0.0
  0
LINE
  5
AC
100
AcDbEntity
  8
0
  6
DASHED
 62
               6
100
AcDbLine
 10
443.49417158335865
 20
254.61957674073571
 30
0.0
 11
686.74552095022341
 21
193.80673939901803
 31
0.0
  0
LINE
  5
AD
100
AcDbEntity
  8
0
  6
DASHED
 62
               6
100
AcDbLine
 10
686.74552095022341
 20
255.65332378328381
 30
0.0
 11
458.04630908553844
 21
312.82812674945558
 31
0.0
  0
LINE
  5
AE
100
AcDbEntity
  8
0
  6
DASHED
 62
               6
100
AcDbLine
 10
429.99687031708817
 20
254.61957674073571
 30
0.0
 11
186.74552095022335
 21
193.80673939901814
 31
0.0
  0
LINE
  5
AF
100
AcDbEntity
  8
0
  6
DASHED
 62
               6
100
AcDbLine
 10
186.74552095022335
 20
255.65332378328381
 30
0.0
 11
415.44473281490838
 21
312.82812674945558
 31
0.0
  0
LINE
  5
B0
100
AcDbEntity
  8
0
  6
Continuous
 62
               4
100
AcDbLine
 10
714.78679656440374
 20
21.213203435596487
 30
0.0
 11
714.78679656440374
 21
41.213203435596498
 31
0.0
  0
LINE
  5
B1
100
AcDbEntity
  8
0
  6
Continuous
 62
               4
100
AcDbLine
 10
864.78679656440374
 20
21.213203435596487
 30
0.0
 11
714.78679656440374
 21
21.213203435596487
 31
0.0
  0
LINE
  5
B2
100
AcDbEntity
  8
0
  6
Continuous
 62
               4
100
AcDbLine
 10
864.78679656440374
 20
41.213203435596498
 30
0.0
 11
864.78679656440374
 21
21.213203435596487
 31
0.0
  0
LINE
  5
B3
100
AcDbEntity
  8
0
  6
Continuous
 62
               4
100
AcDbLine
 10
864.78679656440374
 20
41.213203435596498
 30
0.0
 11
714.78679656440374
 21
41.213203435596498
 31
0.0
  0
LINE
  5
B4
100
AcDbEntity
  8
0
  6
Continuous
 62
               4
100
AcDbLine
 10
14.142135623730949
 20
595.85786437626905
 30
0.0
 11
14.142135623730949
 21
615.85786437626905
 31
0.0
  0
LINE
  5
B5
100
AcDbEntity
  8
0
  6
Continuous
 62
               4
100
AcDbLine
 10
164.14213562373095
 20
595.85786437626905
 30
0.0
 11
14.142135623730949
 21
595.85786437626905
 31
0.0
  0
LINE
  5
B6
100
AcDbEntity
  8
0
  6
Continuous
 62
               4
100
AcDbLine
 10
164.14213562373095
 20
615.85786437626905
 30
0.0
 11
164.14213562373095
 21
595.85786437626905
 31
0.0
  0
LINE
  5
B7
100
AcDbEntity
  8
0
  6
Continuous
 62
               4
100
AcDbLine
 10
164.14213562373095
 20
615.85786437626905
 30
0.0
 11
14.142135623730949
 21
615.85786437626905
 31
0.0
  0
LINE
  5
B8
100
AcDbEntity
  8
0
  6
Continuous
 62
               4
100
AcDbLine
 10
686.74552095022341
 20
311.9337155729653
 30
0.0
 11
442.17087720058686
 21
373.07737651037462
 31
0.0
  0
LINE
  5
B9
100
AcDbEntity
  8
0
  6
Continuous
 62
               4
100
AcDbLine
 10
186.74552095022341
 20
311.93369258319967
 30
0.0
 11
431.32016384359059
 21
373.07737624241793
 31
0.0
  0
LINE
  5
BA
100
AcDbEntity
  8
0
  6
Continuous
 62
               2
100
AcDbLine
 10
436.74552095022347
 20
424.94176105616361
 30
0.0
 11
341.25002279753841
 21
401.06787756255471
 31
0.0
  0
LINE
  5
BB
100
AcDbEntity
  8
0
  6
Continuous
 62
               2
100
AcDbLine
 10
356.26030698785286
 20
400.29071136570167
 30
0.0
 11
341.87558535713612
 21
398.00306546900674
 31
0.0
  0
LINE
  5
BC
100
AcDbEntity
  8
0
  6
Continuous
 62
               4
100
AcDbLine
 10
430.92467429683444
 20
448.22513893578594
 30
0.0
 11
435.2903066862437
 21
430.7626159285951
 31
0.0
  0
LINE
  5
BD
100
AcDbEntity
  8
0
  6
Continuous
 62
               4
100
AcDbLine
 10
333.91042642297549
 20
423.9715678694572
 30
0.0
 11
338.65574638510458
 21
404.99029514109259
 31
0.0
  0
LINE
  5
BE
100
AcDbEntity
  8
0
  6
Continuous
 62
               4
100
AcDbLine
 10
431.65228142882444
 20
445.31471149956997
 30
0.0
 11
334.63803355496549
 21
421.06114043324146
 31
0.0
  0
LINE
  5
BF
100
AcDbEntity
  8
0
  6
Continuous
 62
               4
100
AcDbLine
 10
421.2724826296481
 20
421.07350002497924
 30
0.0
 11
392.95676449581907
 21
470.11776248557044
 31
0.0
  0
LINE
  5
C0
100
AcDbEntity
  8
0
  6
Continuous
 62
               4
100
AcDbLine
 10
392.95677247271311
 20
470.11776248557044
 30
0.0
 11
302.7526074260702
 21
470.11776248557044
 31
0.0
  0
LINE
  5
C1
100
AcDbEntity
  8
0
  6
Continuous
 62
               4
100
AcDbLine
 10
324.20225658737775
 20
435.34720731793732
 30
0.0
 11
247.97731710087902
 21
435.34720731793732
 31
0.0
  0
LINE
  5
C2
100
AcDbEntity
  8
0
  6
Continuous
 62
               4
100
AcDbLine
 10
421.2724826296481
 20
421.07350002497924
 30
0.0
 11
415.48739414246921
 21
427.96790001304998
 31
0.0
  0
LINE
  5
C3
100
AcDbEntity
  8
0
  6
Continuous
 62
               4
100
AcDbLine
 10
421.2724826296481
 20
421.07350002497924
 30
0.0
 11
418.19430133971701
 21
429.53073361205247
 31
0.0
  0
LINE
  5
C4
100
AcDbEntity
  8
0
  6
Continuous
 62
               4
100
AcDbLine
 10
369.77537465793949
 20
389.77408924737551
 30
0.0
 11
324.20225658737775
 21
435.34720731793732
 31
0.0
  0
LINE
  5
C5
100
AcDbEntity
  8
0
  6
Continuous
 62
               4
100
AcDbLine
 10
369.77537465793949
 20
389.77408924737551
 30
0.0
 11
362.40300625933861
 21
394.93627717453501
 31
0.0
  0
LINE
  5
C6
100
AcDbEntity
  8
0
  6
Continuous
 62
               4
100
AcDbLine
 10
369.77537465793949
 20
389.77408924737551
 30
0.0
 11
364.61318673078
 21
397.1464576459764
 31
0.0
  0
LINE
  5
C7
100
AcDbEntity
  8
0
  6
Continuous
 62
               2
100
AcDbLine
 10
365.80385232893201
 20
405.66017260430408
 30
0.0
 11
342.03536159983656
 21
399.71804769305368
 31
0.0
  0
LINE
  5
C8
100
AcDbEntity
  8
0
  6
Continuous
 62
               2
100
AcDbLine
 10
366.04638803959534
 20
404.69003012556561
 30
0.0
 11
342.2778973104999
 21
398.7479052143151
 31
0.0
  0
LINE
  5
C9
100
AcDbEntity
  8
0
  6
Continuous
 62
               2
100
AcDbLine
 10
365.80385232893201
 20
405.66017260430408
 30
0.0
 11
413.51627431499202
 21
415.98047966532181
 31
0.0
  0
LINE
  5
CA
100
AcDbEntity
  8
0
  6
Continuous
 62
               2
100
AcDbLine
 10
436.74552095022347
 20
424.94176105616361
 30
0.0
 11
532.24101910290847
 21
401.06787756255471
 31
0.0
  0
LINE
  5
CB
100
AcDbEntity
  8
0
  6
Continuous
 62
               2
100
AcDbLine
 10
517.23073491259402
 20
400.29071136570167
 30
0.0
 11
531.61545654331076
 21
398.00306546900674
 31
0.0
  0
LINE
  5
CC
100
AcDbEntity
  8
0
  6
Continuous
 62
               4
100
AcDbLine
 10
442.56636760361249
 20
448.22513893578594
 30
0.0
 11
438.20073521420323
 21
430.7626159285951
 31
0.0
  0
LINE
  5
CD
100
AcDbEntity
  8
0
  6
Continuous
 62
               4
100
AcDbLine
 10
539.58061547747138
 20
423.9715678694572
 30
0.0
 11
534.8352955153423
 21
404.99029514109259
 31
0.0
  0
LINE
  5
CE
100
AcDbEntity
  8
0
  6
Continuous
 62
               4
100
AcDbLine
 10
441.83876047162272
 20
445.31471149956997
 30
0.0
 11
538.85300834548161
 21
421.06114043324146
 31
0.0
  0
LINE
  5
CF
100
AcDbEntity
  8
0
  6
Continuous
 62
               2
100
AcDbLine
 10
507.68718957151492
 20
405.66017260430408
 30
0.0
 11
531.45568030061031
 21
399.71804769305368
 31
0.0
  0
LINE
  5
D0
100
AcDbEntity
  8
0
  6
Continuous
 62
               2
100
AcDbLine
 10
507.44465386085159
 20
404.69003012556561
 30
0.0
 11
531.21314458994698
 21
398.7479052143151
 31
0.0
  0
LINE
  5
D1
100
AcDbEntity
  8
0
  6
Continuous
 62
               2
100
AcDbLine
 10
507.68718957151492
 20
405.66017260430408
 30
0.0
 11
459.97476758545514
 21
415.98047966532181
 31
0.0
  0
LINE
  5
D2
100
AcDbEntity
  8
0
  6
Continuous
 62
               4
100
AcDbLine
 10
221.42810172452306
 20
366.98927977235167
 30
0.0
 11
234.76756567721151
 21
313.63144397689769
 31
0.0
  0
LINE
  5
D3
100
AcDbEntity
  8
0
  6
Continuous
 62
               4
100
AcDbLine
 10
420.40605699753479
 20
416.73378725048565
 30
0.0
 11
433.74552095022347
 21
363.3759514550319
 31
0.0
  0
LINE
  5
D4
100
AcDbEntity
  8
0
  6
Continuous
 62
               2
100
AcDbLine
 10
425.07426273991501
 20
417.90083912385876
 30
0.0
 11
433.74552095022347
 21
363.3759514550319
 31
0.0
  0
LINE
  5
D5
100
AcDbEntity
  8
0
  6
Continuous
 62
               4
100
AcDbLine
 10
453.08498032722201
 20
416.73378901691433
 30
0.0
 11
439.74553440280516
 21
363.37596918213887
 31
0.0
  0
LINE
  5
D6
100
AcDbEntity
  8
0
  6
Continuous
 62
               2
100
AcDbLine
 10
448.41677443501402
 20
417.90084048996641
 30
0.0
 11
439.74552095022347
 21
363.37595150892128
 31
0.0
  0
LINE
  5
D7
100
AcDbEntity
  8
0
  6
Continuous
 62
               4
100
AcDbLine
 10
420.4060569975349
 20
416.73378725048576
 30
0.0
 11
186.74552095022341
 21
358.31863132629155
 31
0.0
  0
LINE
  5
D8
100
AcDbEntity
  8
0
  6
Continuous
 62
               4
100
AcDbLine
 10
186.74552095022341
 20
355.22630203884432
 30
0.0
 11
421.13366412952479
 21
413.82335981427002
 31
0.0
  0
LINE
  5
D9
100
AcDbEntity
  8
0
  6
Continuous
 62
               4
100
AcDbLine
 10
453.08498032722201
 20
416.73378901691433
 30
0.0
 11
686.74552095022341
 21
358.31865386116397
 31
0.0
  0
LINE
  5
DA
100
AcDbEntity
  8
0
  6
DASHED
 62
               4
100
AcDbLine
 10
686.74552095022341
 20
355.2263246419509
 30
0.0
 11
452.35737345211311
 21
413.82336151647837
 31
0.0
  0
LINE
  5
DB
100
AcDbEntity
  8
0
  6
Continuous
 62
               2
100
AcDbLine
 10
494.1051897743709
 20
351.33219379494312
 30
0.0
 11
507.44465386085159
 21
404.69003012556561
 31
0.0
  0
LINE
  5
DC
100
AcDbEntity
  8
0
  6
Continuous
 62
               2
100
AcDbLine
 10
492.49439250635334
 20
360.94468882292324
 30
0.0
 11
492.64997605626303
 21
351.69599736093801
 31
0.0
  0
LINE
  5
DD
100
AcDbEntity
  8
0
  6
Continuous
 62
               2
100
AcDbLine
 10
379.38585212607614
 20
351.33219379494312
 30
0.0
 11
366.04638803959546
 21
404.69003012556561
 31
0.0
  0
LINE
  5
DE
100
AcDbEntity
  8
0
  6
Continuous
 62
               2
100
AcDbLine
 10
380.99664939409371
 20
360.94468882292324
 30
0.0
 11
380.84106584418402
 21
351.69599736093801
 31
0.0
  0
LINE
  5
DF
100
AcDbEntity
  8
0
  6
DASHDOT
 62
               4
100
AcDbLine
 10
436.74552095022347
 20
197.2413863537513
 30
0.0
 11
436.74552095022347
 21
466.05854776079605
 31
0.0
  0
LINE
  5
E0
100
AcDbEntity
  8
0
  6
Continuous
 62
               7
100
AcDbLine
 10
393.730778925175
 20
412.39017488350686
 30
0.0
 11
383.54428289841997
 21
409.84354992154232
 31
0.0
  0
LINE
  5
E1
100
AcDbEntity
  8
0
  6
Continuous
 62
               7
100
AcDbLine
 10
383.42301504308836
 20
410.3286211609115
 30
0.0
 11
383.54428289841997
 21
409.84354992154232
 31
0.0
  0
LINE
  5
E2
100
AcDbEntity
  8
0
  6
Continuous
 62
               7
100
AcDbLine
 10
393.00317197514244
 20
413.23904950691383
 30
0.0
 11
383.78681842712598
 21
410.93496025561251
 31
0.0
  0
LINE
  5
E3
100
AcDbEntity
  8
0
  6
Continuous
 62
               7
100
AcDbLine
 10
393.60951106984339
 20
412.87524612287615
 30
0.0
 11
393.730778925175
 21
412.39017488350686
 31
0.0
  0
LINE
  5
E4
100
AcDbEntity
  8
0
  6
Continuous
 62
               7
100
AcDbLine
 10
390.09274590360639
 20
397.04979627885763
 30
0.0
 11
386.69724595432052
 21
410.63179098119798
 31
0.0
  0
LINE
  5
E5
100
AcDbEntity
  8
0
  6
Continuous
 62
               7
100
AcDbLine
 10
392.51810228241004
 20
395.59458274270708
 30
0.0
 11
390.09274590360639
 21
397.04979627885763
 31
0.0
  0
LINE
  5
E6
100
AcDbEntity
  8
0
  6
Continuous
 62
               7
100
AcDbLine
 10
393.97331581856065
 20
398.01993912151073
 30
0.0
 11
392.51810228241004
 21
395.59458274270708
 31
0.0
  0
LINE
  5
E7
100
AcDbEntity
  8
0
  6
Continuous
 62
               7
100
AcDbLine
 10
393.97331581856065
 20
398.01993912151073
 30
0.0
 11
390.57781586927462
 21
411.60193382385108
 31
0.0
  0
LINE
  5
E8
100
AcDbEntity
  8
0
  6
Continuous
 62
               7
100
AcDbLine
 10
479.76026297527193
 20
412.39017488350686
 30
0.0
 11
489.94675900202697
 21
409.84354992154232
 31
0.0
  0
LINE
  5
E9
100
AcDbEntity
  8
0
  6
Continuous
 62
               7
100
AcDbLine
 10
490.06802685735857
 20
410.3286211609115
 30
0.0
 11
489.94675900202697
 21
409.84354992154232
 31
0.0
  0
LINE
  5
EA
100
AcDbEntity
  8
0
  6
Continuous
 62
               7
100
AcDbLine
 10
480.48786992530449
 20
413.23904950691383
 30
0.0
 11
489.70422347332095
 21
410.93496025561251
 31
0.0
  0
LINE
  5
EB
100
AcDbEntity
  8
0
  6
Continuous
 62
               7
100
AcDbLine
 10
479.88153083060354
 20
412.87524612287615
 30
0.0
 11
479.76026297527193
 21
412.39017488350686
 31
0.0
  0
LINE
  5
EC
100
AcDbEntity
  8
0
  6
Continuous
 62
               7
100
AcDbLine
 10
483.39829599684055
 20
397.04979627885763
 30
0.0
 11
486.79379594612641
 21
410.63179098119798
 31
0.0
  0
LINE
  5
ED
100
AcDbEntity
  8
0
  6
Continuous
 62
               7
100
AcDbLine
 10
480.97293961803689
 20
395.59458274270708
 30
0.0
 11
483.39829599684055
 21
397.04979627885763
 31
0.0
  0
LINE
  5
EE
100
AcDbEntity
  8
0
  6
Continuous
 62
               7
100
AcDbLine
 10
479.51772608188628
 20
398.01993912151073
 30
0.0
 11
480.97293961803689
 21
395.59458274270708
 31
0.0
  0
LINE
  5
EF
100
AcDbEntity
  8
0
  6
Continuous
 62
               7
100
AcDbLine
 10
479.51772608188628
 20
398.01993912151073
 30
0.0
 11
482.91322603117231
 21
411.60193382385108
 31
0.0
  0
CIRCLE
  5
F0
100
AcDbEntity
  8
0
  6
Continuous
 62
               4
100
AcDbCircle
 10
234.76756567721145
 20
313.63144397689769
 30
0.0
 40
1.5
  0
CIRCLE
  5
F1
100
AcDbEntity
  8
0
  6
Continuous
 62
               4
100
AcDbCircle
 10
234.76757152702055
 20
313.6314454393505
 30
0.0
 40
1.5
  0
CIRCLE
  5
F2
100
AcDbEntity
  8
0
  6
Continuous
 62
               4
100
AcDbCircle
 10
240.10335158100048
 20
292.28833322954279
 30
0.0
 40
1.5
  0
CIRCLE
  5
F3
100
AcDbEntity
  8
0
  6
Continuous
 62
               4
100
AcDbCircle
 10
250.28985107980435
 20
317.51201723809788
 30
0.0
 40
1.5
  0
CIRCLE
  5
F4
100
AcDbEntity
  8
0
  6
Continuous
 62
               4
100
AcDbCircle
 10
251.25999392245745
 20
313.63144732314345
 30
0.0
 40
1.5
  0
CIRCLE
  5
F5
100
AcDbEntity
  8
0
  6
Continuous
 62
               4
100
AcDbCircle
 10
251.25999392245745
 20
313.63144732314345
 30
0.0
 40
1.5
  0
CIRCLE
  5
F6
100
AcDbEntity
  8
0
  6
Continuous
 62
               4
100
AcDbCircle
 10
255.62563280052666
 20
296.16889836132282
 30
0.0
 40
1.5
  0
CIRCLE
  5
F7
100
AcDbEntity
  8
0
  6
Continuous
 62
               4
100
AcDbCircle
 10
431.65228142882444
 20
445.31471149956997
 30
0.0
 40
1.5
  0
CIRCLE
  5
F8
100
AcDbEntity
  8
0
  6
Continuous
 62
               4
100
AcDbCircle
 10
334.63803355496549
 20
421.06114043324146
 30
0.0
 40
1.5
  0
CIRCLE
  5
F9
100
AcDbEntity
  8
0
  6
Continuous
 62
               4
100
AcDbCircle
 10
441.83876047162272
 20
445.31471149956997
 30
0.0
 40
1.5
  0
CIRCLE
  5
FA
100
AcDbEntity
  8
0
  6
Continuous
 62
               4
100
AcDbCircle
 10
538.85300834548161
 20
421.06114043324146
 30
0.0
 40
1.5
  0
CIRCLE
  5
FB
100
AcDbEntity
  8
0
  6
Continuous
 62
               4
100
AcDbCircle
 10
221.42810172452306
 20
366.98927977235167
 30
0.0
 40
1.5
  0
ARC
  5
FC
100
AcDbEntity
  8
0
  6
Continuous
 62
               2
100
AcDbCircle
 10
341.62971037025824
 20
399.54912784138082
 30
0.0
 40
1.565491414362767
100
AcDbArc
 50
104.03624852498056
 51
279.03624852498041
  0
ARC
  5
FD
100
AcDbEntity
  8
0
  6
Continuous
 62
               2
100
AcDbCircle
 10
342.15662945516834
 20
399.23297645368427
 30
0.0
 40
0.500000000000003
100
AcDbArc
 50
104.03624852498166
 51
284.03624852498172
  0
ARC
  5
FE
100
AcDbEntity
  8
0
  6
Continuous
 62
               2
100
AcDbCircle
 10
531.86133153018886
 20
399.54912784138082
 30
0.0
 40
1.565491414362767
100
AcDbArc
 50
260.96375147501948
 51
75.963751475019365
  0
ARC
  5
FF
100
AcDbEntity
  8
0
  6
Continuous
 62
               2
100
AcDbCircle
 10
531.33441244527876
 20
399.23297645368427
 30
0.0
 40
0.500000000000003
100
AcDbArc
 50
255.96375147501834
 51
75.963751475018341
  0
ARC
  5
100
100
AcDbEntity
  8
0
  6
Continuous
 62
               2
100
AcDbCircle
 10
493.37758291531696
 20
351.51409557794057
 30
0.0
 40
0.749999999999996
100
AcDbArc
 50
165.96375147501973
 51
345.96375147501954
  0
ARC
  5
101
100
AcDbEntity
  8
0
  6
Continuous
 62
               2
100
AcDbCircle
 10
380.11345898513008
 20
351.51409557794057
 30
0.0
 40
0.749999999999996
100
AcDbArc
 50
194.03624852498049
 51
14.036248524980335
  0
ARC
  5
102
100
AcDbEntity
  8
0
  6
Continuous
 62
               7
100
AcDbCircle
 10
383.90808628245765
 20
410.44988901624311
 30
0.0
 40
0.5
100
AcDbArc
 50
104.03624852498051
 51
194.03624852498049
  0
ARC
  5
103
100
AcDbEntity
  8
0
  6
Continuous
 62
               7
100
AcDbCircle
 10
393.1244398304741
 20
412.75397826754454
 30
0.0
 40
0.5
100
AcDbArc
 50
14.036248524980484
 51
104.03624852498051
  0
ARC
  5
104
100
AcDbEntity
  8
0
  6
Continuous
 62
               7
100
AcDbCircle
 10
489.58295561798928
 20
410.44988901624311
 30
0.0
 40
0.5
100
AcDbArc
 50
345.96375147501954
 51
75.963751475019507
  0
ARC
  5
105
100
AcDbEntity
  8
0
  6
Continuous
 62
               7
100
AcDbCircle
 10
480.36660206997283
 20
412.75397826754454
 30
0.0
 40
0.5
100
AcDbArc
 50
75.963751475019535
 51
165.96375147501951
  0
TEXT
  5
106
100
AcDbEntity
  8
0
 62
               7
100
AcDbText
 10
237.7268409316286
 20
307.98088543050255
 30
0.0
 40
9.6000003814697479
  1
23
 50
284.03625799367495
 41
0.7695
  7
FontTableH_0
 72
               5
 11
240.05518538564237
 21
298.66751764931394
 31
0.0
100
AcDbText
  0
TEXT
  5
107
100
AcDbEntity
  8
0
 62
               7
100
AcDbText
 10
250.19333263084735
 20
324.08549968831505
 30
0.0
 40
9.6000003814697479
  1
5
 50
284.03625799367495
 41
0.7695
  7
FontTableH_0
 72
               5
 11
251.35750485785425
 21
319.42881579772074
 31
0.0
100
AcDbText
  0
TEXT
  5
108
100
AcDbEntity
  8
0
 62
               7
100
AcDbText
 10
253.73437877342548
 20
309.92128460042443
 30
0.0
 40
9.6000003814697479
  1
18
 50
284.03625799367495
 41
0.7695
  7
FontTableH_0
 72
               5
 11
256.06272322743928
 21
300.60791681923581
 31
0.0
100
AcDbText
  0
TEXT
  5
109
100
AcDbEntity
  8
0
 62
               7
100
AcDbText
 10
509.31103892967553
 20
258.34355632894005
 30
0.0
 40
9.6000003814697479
  1
補強プレート（別途）
 41
0.7695
  7
FontTableH_0
 72
               5
 11
605.31104274437303
 21
258.34355632894005
 31
0.0
100
AcDbText
  0
TEXT
  5
10A
100
AcDbEntity
  8
0
 62
               7
100
AcDbText
 10
740.2867978757057
 20
26.713203554805766
 30
0.0
 40
8.9999997615814422
  1
下り棟詳細図 【S=1/3】
 41
0.7695
  7
FontTableH_0
 72
               5
 11
839.28679525310156
 21
26.713203554805766
 31
0.0
100
AcDbText
  0
TEXT
  5
10B
100
AcDbEntity
  8
0
 62
               7
100
AcDbText
 10
375.79626842186309
 20
432.8969630710817
 30
0.0
 40
9.6000003814697958
  1
100
 50
14.036262433071792
 41
0.7695
  7
FontTableH_0
 72
               5
 11
389.76631982303854
 21
436.38948083453118
 31
0.0
100
AcDbText
  0
TEXT
  5
10C
100
AcDbEntity
  8
0
 62
               7
100
AcDbText
 10
304.02801891014428
 20
471.6191310398317
 30
0.0
 40
8.9999997615814866
  1
棟カバー：屋根同材
 41
0.7695
  7
FontTableH_0
 72
               5
 11
385.02801676437713
 21
471.6191310398317
 31
0.0
100
AcDbText
  0
TEXT
  5
10D
100
AcDbEntity
  8
0
 62
               7
100
AcDbText
 10
249.66019054100366
 20
436.8487452976442
 30
0.0
 40
8.9999997615814866
  1
面戸：屋根同材
 41
0.7695
  7
FontTableH_0
 72
               5
 11
312.66018887207372
 21
436.8487452976442
 31
0.0
100
AcDbText
  0
TEXT
  5
10E
100
AcDbEntity
  8
0
 62
               7
100
AcDbText
 10
483.72455211326934
 20
436.38945574686295
 30
0.0
 40
9.6000003814696537
  1
100
 50
345.96372538672648
 41
0.7695
  7
FontTableH_0
 72
               5
 11
497.6946027719888
 21
432.89693501359545
 31
0.0
100
AcDbText
  0
TEXT
  5
10F
100
AcDbEntity
  8
0
 62
               7
100
AcDbText
 10
228.57079321473674
 20
344.60530815509037
 30
0.0
 40
9.6000003814697408
  1
55
 50
284.03625799367512
 41
0.7695
  7
FontTableH_0
 72
               5
 11
230.89913766875054
 21
335.29194037390175
 31
0.0
100
AcDbText
  0
TEXT
  5
110
100
AcDbEntity
  8
0
 62
               7
100
AcDbText
 10
23.892137352265493
 20
601.35786449547834
 30
0.0
 40
8.9999997615814422
  1
ハーパーズストロングルーフ300
 41
0.7695
  7
FontTableH_0
 72
               5
 11
154.39213389519639
 21
601.35786449547834
 31
0.0
100
AcDbText
  0
ENDSEC
  0
SECTION
  2
OBJECTS
  0
DICTIONARY
  5
19
100
AcDbDictionary
  3
ACAD_GROUP
350
1A
  3
ACAD_MLINESTYLE
350
1B
  3
DWGPROPS
350
111
  0
DICTIONARY
  5
1A
102
{ACAD_REACTORS
330
19
102
}
100
AcDbDictionary
  0
DICTIONARY
  5
1B
102
{ACAD_REACTORS
330
19
102
}
100
AcDbDictionary
  3
STANDARD
350
1C
  0
MLINESTYLE
  5
1C
102
{ACAD_REACTORS
330
1B
102
}
100
AcDbMlineStyle
  2
Standard
 70
               0
  3

 62
               0
 51
90.0
 52
90.0
 71
               2
 49
0.5
 62
             256
  6
ByLayer
 49
-0.5
 62
             256
  6
ByLayer
  0
XRECORD
  5
111
100
AcDbXrecord
  1
DWGPROPS COOKIE
  2

  3

  4

  6

  7

  0
ENDSEC
  0
EOF
