  0
SECTION
  2
HEADER
  9
$ACADVER
  1
AC1014
  9
$ACADMAINTVER
 70
               0
  9
$DWGCODEPAGE
  3
ANSI_932
  9
$INSBASE
 10
0.0
 20
0.0
 30
0.0
  9
$EXTMIN
 10
0.0
 20
0.0
 30
0.0
  9
$EXTMAX
 10
1452.1105828179161
 20
895.40830891612472
 30
0.0
  9
$LIMMIN
 10
0.0
 20
0.0
  9
$LIMMAX
 10
1452.1105828179161
 20
895.40830891612472
  9
$ORTHOMODE
 70
               0
  9
$REGENMODE
 70
               1
  9
$FILLMODE
 70
               1
  9
$QTEXTMODE
 70
               0
  9
$MIRRTEXT
 70
               1
  9
$DRAGMODE
 70
               2
  9
$LTSCALE
 40
1.0
  9
$OSMODE
 70
               0
  9
$ATTMODE
 70
               1
  9
$TEXTSIZE
 40
0.2
  9
$TRACEWID
 40
0.05
  9
$TEXTSTYLE
  7
Standard
  9
$CLAYER
  8
0
  9
$CELTYPE
  6
Continuous
  9
$CECOLOR
 62
             256
  9
$CELTSCALE
 40
1.0
  9
$DELOBJ
 70
               1
  9
$DISPSILH
 70
               0
  9
$DIMSCALE
 40
1.0
  9
$DIMASZ
 40
0.18
  9
$DIMEXO
 40
0.0625
  9
$DIMDLI
 40
0.38
  9
$DIMRND
 40
0.0
  9
$DIMDLE
 40
0.0
  9
$DIMEXE
 40
0.18
  9
$DIMTP
 40
0.0
  9
$DIMTM
 40
0.0
  9
$DIMTXT
 40
0.18
  9
$DIMCEN
 40
0.09
  9
$DIMTSZ
 40
0.0
  9
$DIMTOL
 70
               0
  9
$DIMLIM
 70
               0
  9
$DIMTIH
 70
               1
  9
$DIMTOH
 70
               1
  9
$DIMSE1
 70
               0
  9
$DIMSE2
 70
               0
  9
$DIMTAD
 70
               0
  9
$DIMZIN
 70
               0
  9
$DIMBLK
  1

  9
$DIMASO
 70
               1
  9
$DIMSHO
 70
               1
  9
$DIMPOST
  1

  9
$DIMAPOST
  1

  9
$DIMALT
 70
               0
  9
$DIMALTD
 70
               2
  9
$DIMALTF
 40
25.399999999999999
  9
$DIMLFAC
 40
1.0
  9
$DIMTOFL
 70
               0
  9
$DIMTVP
 40
0.0
  9
$DIMTIX
 70
               0
  9
$DIMSOXD
 70
               0
  9
$DIMSAH
 70
               0
  9
$DIMBLK1
  1

  9
$DIMBLK2
  1

  9
$DIMSTYLE
  2
Standard
  9
$DIMCLRD
 70
               0
  9
$DIMCLRE
 70
               0
  9
$DIMCLRT
 70
               0
  9
$DIMTFAC
 40
1.0
  9
$DIMGAP
 40
0.09
  9
$DIMJUST
 70
               0
  9
$DIMSD1
 70
               0
  9
$DIMSD2
 70
               0
  9
$DIMTOLJ
 70
               1
  9
$DIMTZIN
 70
               0
  9
$DIMALTZ
 70
               0
  9
$DIMALTTZ
 70
               0
  9
$DIMFIT
 70
               3
  9
$DIMUPT
 70
               0
  9
$DIMUNIT
 70
               2
  9
$DIMDEC
 70
               4
  9
$DIMTDEC
 70
               4
  9
$DIMALTU
 70
               2
  9
$DIMALTTD
 70
               2
  9
$DIMTXSTY
  7
Standard
  9
$DIMAUNIT
 70
               0
  9
$LUNITS
 70
               2
  9
$LUPREC
 70
               4
  9
$SKETCHINC
 40
0.1
  9
$FILLETRAD
 40
0.0
  9
$AUNITS
 70
               0
  9
$AUPREC
 70
               0
  9
$MENU
  1
acad
  9
$ELEVATION
 40
0.0
  9
$PELEVATION
 40
0.0
  9
$THICKNESS
 40
0.0
  9
$LIMCHECK
 70
               0
  9
$BLIPMODE
 70
               1
  9
$CHAMFERA
 40
0.0
  9
$CHAMFERB
 40
0.0
  9
$CHAMFERC
 40
0.0
  9
$CHAMFERD
 40
0.0
  9
$SKPOLY
 70
               0
  9
$TDCREATE
 40
0.000000000
  9
$TDUPDATE
 40
0.000000000
  9
$TDINDWG
 40
0.0000000000
  9
$TDUSRTIMER
 40
0.0000000000
  9
$USRTIMER
 70
               1
  9
$ANGBASE
 50
0.0
  9
$ANGDIR
 70
               0
  9
$PDMODE
 70
               0
  9
$PDSIZE
 40
0.0
  9
$PLINEWID
 40
0.0
  9
$COORDS
 70
               0
  9
$SPLFRAME
 70
               0
  9
$SPLINETYPE
 70
               6
  9
$SPLINESEGS
 70
               8
  9
$ATTDIA
 70
               0
  9
$ATTREQ
 70
               1
  9
$HANDLING
 70
               1
  9
$HANDSEED
  5
1FD
  9
$SURFTAB1
 70
               6
  9
$SURFTAB2
 70
               6
  9
$SURFTYPE
 70
               6
  9
$SURFU
 70
               6
  9
$SURFV
 70
               6
  9
$UCSNAME
  2

  9
$UCSORG
 10
0.0
 20
0.0
 30
0.0
  9
$UCSXDIR
 10
1.0
 20
0.0
 30
0.0
  9
$UCSYDIR
 10
0.0
 20
1.0
 30
0.0
  9
$PUCSNAME
  2

  9
$PUCSORG
 10
0.0
 20
0.0
 30
0.0
  9
$PUCSXDIR
 10
1.0
 20
0.0
 30
0.0
  9
$PUCSYDIR
 10
0.0
 20
1.0
 30
0.0
  9
$USERI1
 70
               0
  9
$USERI2
 70
               0
  9
$USERI3
 70
               0
  9
$USERI4
 70
               0
  9
$USERI5
 70
               0
  9
$USERR1
 40
0.0
  9
$USERR2
 40
0.0
  9
$USERR3
 40
0.0
  9
$USERR4
 40
0.0
  9
$USERR5
 40
0.0
  9
$WORLDVIEW
 70
               1
  9
$SHADEDGE
 70
               3
  9
$SHADEDIF
 70
              70
  9
$TILEMODE
 70
               1
  9
$MAXACTVP
 70
              16
  9
$PINSBASE
 10
0.0
 20
0.0
 30
0.0
  9
$PLIMCHECK
 70
               0
  9
$PEXTMIN
 10
1.0000000000000000E+20
 20
1.0000000000000000E+20
 30
1.0000000000000000E+20
  9
$PEXTMAX
 10
-1.0000000000000000E+20
 20
-1.0000000000000000E+20
 30
-1.0000000000000000E+20
  9
$PLIMMIN
 10
0.0
 20
0.0
  9
$PLIMMAX
 10
12.0
 20
9.0
  9
$UNITMODE
 70
               0
  9
$VISRETAIN
 70
               0
  9
$PLINEGEN
 70
               1
  9
$PSLTSCALE
 70
               0
  9
$TREEDEPTH
 70
            3020
  9
$PICKSTYLE
 70
               1
  9
$CMLSTYLE
  2
Standard
  9
$CMLJUST
 70
               0
  9
$CMLSCALE
 40
1.0
  9
$PROXYGRAPHICS
 70
               0
  9
$MEASUREMENT
 70
               0
  0
ENDSEC
  0
SECTION
  2
CLASSES
  0
CLASS
  1
LWPOLYLINE
  2
AcDbPolyline
  3
"AutoCAD"
 90
        0
280
               0
281
               1
  0
CLASS
  1
IMAGE
  2
AcDbRasterImage
  3
ISM
 90
      127
280
               0
281
               1
  0
CLASS
  1
OLE2FRAME
  2
AcDbOle2Frame
  3
""
 90
        0
280
               0
281
               1
  0
CLASS
  1
HATCH
  2
AcDbHatch
  3
"ACAD_SEDONA"
 90
        0
280
               0
281
               1
  0
CLASS
  1
DICTIONARYVAR
  2
AcDbDictionaryVar
  3
"AutoCAD"
 90
        0
280
               0
281
               0
  0
CLASS
  1
RASTERVARIABLES
  2
AcDbRasterVariables
  3
ISM
 90
        0
280
               0
281
               0
  0
CLASS
  1
IMAGEDEF
  2
AcDbRasterImageDef
  3
ISM
 90
        0
280
               0
281
               0
  0
CLASS
  1
IMAGEDEF_REACTOR
  2
AcDbRasterImageDefReactor
  3
ISM
 90
        1
280
               0
281
               0
  0
CLASS
  1
IDBUFFER
  2
AcDbIdBuffer
  3
"Acad"
 90
        0
280
               0
281
               0
  0
CLASS
  1
SPATIAL_FILTER
  2
AcDbSpatialFilter
  3
"Acad"
 90
        0
280
               0
281
               0
  0
CLASS
  1
XRECORD
  2
AcDbXrecord
  3
"<Built In>"
 90
        0
280
               0
281
               0
  0
CLASS
  1
SORTENTSTABLE
  2
AcDbSortentsTable
  3
"AutoCAD"
 90
        0
280
               0
281
               0
  0
CLASS
  1
LAYER_INDEX
  2
AcDbLayerIndex
  3
"Acad"
 90
        0
280
               0
281
               0
  0
CLASS
  1
SPATIAL_INDEX
  2
AcDbSpatialIndex
  3
"Acad"
 90
        0
280
               0
281
               0
  0
CLASS
  1
OBJECT_PTR
  2
CAseDLPNTableRecord
  3
"ASE-LPNTableRecord"
 90
        1
280
               0
281
               0
  0
CLASS
  1
LAYOUT
  2
AcDbLayout
  3
"AutoCAD 2000"
 90
        0
280
               0
281
               0
  0
CLASS
  1
PLOTSETTINGS
  2
AcDbPlotSettings
  3
"AutoCAD 2000"
 90
        0
280
               0
281
               0
  0
CLASS
  1
ACDBDICTIONARYWDFLT
  2
AcDbDictionaryWithDefault
  3
"AutoCAD 2000"
 90
        0
280
               0
281
               0
  0
CLASS
  1
ACDBPLACEHOLDER
  2
AcDbPlaceHolder
  3
"AutoCAD 2000"
 90
        0
280
               0
281
               0
  0
CLASS
  1
VBA_PROJECT
  2
AcDbVbaProject
  3
"acadvba"
 90
        0
280
               0
281
               0
  0
CLASS
  1
WIPEOUT
  2
AcDbWipeout
  3
WipeOut|AutoCAD Express Tool|expresstools@autodesk.com
 90
      127
280
               0
281
               1
  0
CLASS
  1
WIPEOUTVARIABLES
  2
AcDbWipeoutVariables
  3
WipeOut|AutoCAD Express Tool|expresstools@autodesk.com
 90
        0
280
               0
281
               0
  0
CLASS
  1
RTEXT
  2
RText
  3
RText|AutoCAD Express Tool|expresstools@autodesk.com
 90
        0
280
               0
281
               1
  0
CLASS
  1
ARCALIGNEDTEXT
  2
AcDbArcAlignedText
  3
ATEXT|AutoCAD Express Tool|expresstools@autodesk.com
 90
        0
280
               0
281
               1
  0
ENDSEC
  0
SECTION
  2
TABLES
  0
TABLE
  2
VPORT
  5
7
100
AcDbSymbolTable
 70
               1
  0
VPORT
  5
15
100
AcDbSymbolTableRecord
100
AcDbViewportTableRecord
  2
*ACTIVE
 70
               0
 10
0.0
 20
0.0
 11
1.0
 21
1.0
 12
726.05529140895806
 22
447.70415445806236
 13
0.0
 23
0.0
 14
10.0
 24
10.0
 15
10.0
 25
10.0
 16
0.0
 26
0.0
 36
1.0
 17
0.0
 27
0.0
 37
0.0
 40
895.40830891612472
 41
1.6217300737086853
 42
50.0
 43
0.0
 44
0.0
 50
0.0
 51
0.0
 71
               0
 72
             100
 73
               1
 74
               1
 75
               0
 76
               0
 77
               0
 78
               0
  0
ENDTAB
  0
TABLE
  2
LTYPE
  5
4
100
AcDbSymbolTable
 70
              38
  0
LTYPE
  5
11
100
AcDbSymbolTableRecord
100
AcDbLinetypeTableRecord
  2
ByBlock
 70
              64
  3

 72
              65
 73
               0
 40
0.0
  0
LTYPE
  5
12
100
AcDbSymbolTableRecord
100
AcDbLinetypeTableRecord
  2
ByLayer
 70
              64
  3

 72
              65
 73
               0
 40
0.0
  0
LTYPE
  5
13
100
AcDbSymbolTableRecord
100
AcDbLinetypeTableRecord
  2
Continuous
 70
              64
  3
Solid line
 72
              65
 73
               0
 40
0.0
  0
LTYPE
  5
1D
100
AcDbSymbolTableRecord
100
AcDbLinetypeTableRecord
  2
DOT
 70
              64
  3
Dot . . . . . . . . . . . . . . . . . . . . . .
 72
              65
 73
               2
 40
6.3499999999999996
 49
0.35
 74
               0
 49
-6.0
 74
               0
  0
LTYPE
  5
1E
100
AcDbSymbolTableRecord
100
AcDbLinetypeTableRecord
  2
DOT2
 70
              64
  3
Dot (.5x) .....................................
 72
              65
 73
               2
 40
3.1749999999999998
 49
0.175
 74
               0
 49
-3.0
 74
               0
  0
LTYPE
  5
1F
100
AcDbSymbolTableRecord
100
AcDbLinetypeTableRecord
  2
DOTX2
 70
              64
  3
Dot (2x) .  .  .  .  .  .  .  .  .  .  .  .  . 
 72
              65
 73
               2
 40
12.699999999999999
 49
0.7
 74
               0
 49
-12.0
 74
               0
  0
LTYPE
  5
20
100
AcDbSymbolTableRecord
100
AcDbLinetypeTableRecord
  2
DASHED
 70
              64
  3
Dashed __ __ __ __ __ __ __ __ __ __ __ __ __ _
 72
              65
 73
               2
 40
12.699999999999999
 49
6.3499999999999996
 74
               0
 49
-6.3499999999999996
 74
               0
  0
LTYPE
  5
21
100
AcDbSymbolTableRecord
100
AcDbLinetypeTableRecord
  2
DASHED2
 70
              64
  3
Dashed (.5x) _ _ _ _ _ _ _ _ _ _ _ _ _ _ _ _ _
 72
              65
 73
               2
 40
6.3499999999999996
 49
3.1749999999999998
 74
               0
 49
-3.1749999999999998
 74
               0
  0
LTYPE
  5
22
100
AcDbSymbolTableRecord
100
AcDbLinetypeTableRecord
  2
DASHEDX2
 70
              64
  3
Dashed (2x) ____  ____  ____  ____  ____  ___
 72
              65
 73
               2
 40
25.399999999999999
 49
12.699999999999999
 74
               0
 49
-12.699999999999999
 74
               0
  0
LTYPE
  5
23
100
AcDbSymbolTableRecord
100
AcDbLinetypeTableRecord
  2
DASHDOT
 70
              64
  3
Dash dot __ . __ . __ . __ . __ . __ . __ . __
 72
              65
 73
               4
 40
25.399999999999999
 49
12.699999999999999
 74
               0
 49
-6.0
 74
               0
 49
0.7
 74
               0
 49
-6.0
 74
               0
  0
LTYPE
  5
24
100
AcDbSymbolTableRecord
100
AcDbLinetypeTableRecord
  2
DASHDOT2
 70
              64
  3
Dash dot (.5x) _._._._._._._._._._._._._._._.
 72
              65
 73
               4
 40
12.699999999999999
 49
6.3499999999999996
 74
               0
 49
-3.0
 74
               0
 49
0.35
 74
               0
 49
-3.0
 74
               0
  0
LTYPE
  5
25
100
AcDbSymbolTableRecord
100
AcDbLinetypeTableRecord
  2
DASHDOTX2
 70
              64
  3
Dash dot (2x) ____  .  ____  .  ____  .  ___
 72
              65
 73
               4
 40
50.799999999999997
 49
25.399999999999999
 74
               0
 49
-12.0
 74
               0
 49
1.3999999999999999
 74
               0
 49
-12.0
 74
               0
  0
LTYPE
  5
26
100
AcDbSymbolTableRecord
100
AcDbLinetypeTableRecord
  2
DIVIDE
 70
              64
  3
Divide ____ . . ____ . . ____ . . ____ . . ____
 72
              65
 73
               6
 40
31.75
 49
12.699999999999999
 74
               0
 49
-6.0
 74
               0
 49
0.875
 74
               0
 49
-6.0
 74
               0
 49
0.875
 74
               0
 49
-6.0
 74
               0
  0
LTYPE
  5
27
100
AcDbSymbolTableRecord
100
AcDbLinetypeTableRecord
  2
DIVIDE2
 70
              64
  3
Divide (.5x) __..__..__..__..__..__..__..__.._
 72
              65
 73
               6
 40
15.875
 49
6.3499999999999996
 74
               0
 49
-3.0
 74
               0
 49
0.4375
 74
               0
 49
-3.0
 74
               0
 49
0.4375
 74
               0
 49
-3.0
 74
               0
  0
LTYPE
  5
28
100
AcDbSymbolTableRecord
100
AcDbLinetypeTableRecord
  2
DIVIDEX2
 70
              64
  3
Divide (2x) ________  .  .  ________  .  .  _
 72
              65
 73
               6
 40
63.5
 49
25.399999999999999
 74
               0
 49
-12.0
 74
               0
 49
1.75
 74
               0
 49
-12.0
 74
               0
 49
1.75
 74
               0
 49
-12.0
 74
               0
  0
LTYPE
  5
29
100
AcDbSymbolTableRecord
100
AcDbLinetypeTableRecord
  2
HIDDEN
 70
              64
  3
Hidden __ __ __ __ __ __ __ __ __ __ __ __ __ _
 72
              65
 73
               2
 40
9.5250000000000004
 49
6.3499999999999996
 74
               0
 49
-3.1749999999999998
 74
               0
  0
LTYPE
  5
2A
100
AcDbSymbolTableRecord
100
AcDbLinetypeTableRecord
  2
HIDDEN2
 70
              64
  3
Hidden (.5x) _ _ _ _ _ _ _ _ _ _ _ _ _ _ _ _ _
 72
              65
 73
               2
 40
4.7625000000000002
 49
3.1749999999999998
 74
               0
 49
-1.5874999999999999
 74
               0
  0
LTYPE
  5
2B
100
AcDbSymbolTableRecord
100
AcDbLinetypeTableRecord
  2
HIDDENX2
 70
              64
  3
Hidden (2x) ____ ____ ____ ____ ____ ____ ____
 72
              65
 73
               2
 40
19.050000000000001
 49
12.699999999999999
 74
               0
 49
-6.3499999999999996
 74
               0
  0
LTYPE
  5
2C
100
AcDbSymbolTableRecord
100
AcDbLinetypeTableRecord
  2
CENTER
 70
              64
  3
Center ____ _ ____ _ ____ _ ____ _ ____ _ ____
 72
              65
 73
               4
 40
50.799999999999997
 49
31.75
 74
               0
 49
-6.3499999999999996
 74
               0
 49
6.3499999999999996
 74
               0
 49
-6.3499999999999996
 74
               0
  0
LTYPE
  5
2D
100
AcDbSymbolTableRecord
100
AcDbLinetypeTableRecord
  2
CENTER2
 70
              64
  3
Center (.5x) ___ _ ___ _ ___ _ ___ _ ___ _ ___
 72
              65
 73
               4
 40
25.399999999999999
 49
15.875
 74
               0
 49
-3.1749999999999998
 74
               0
 49
3.1749999999999998
 74
               0
 49
-3.1749999999999998
 74
               0
  0
LTYPE
  5
2E
100
AcDbSymbolTableRecord
100
AcDbLinetypeTableRecord
  2
CENTERX2
 70
              64
  3
Center (2x) ________  __  ________  __  _____
 72
              65
 73
               4
 40
101.59999999999999
 49
63.5
 74
               0
 49
-12.699999999999999
 74
               0
 49
12.699999999999999
 74
               0
 49
-12.699999999999999
 74
               0
  0
LTYPE
  5
2F
100
AcDbSymbolTableRecord
100
AcDbLinetypeTableRecord
  2
PHANTOM
 70
              64
  3
Phantom ______  __  __  ______  __  __  ______
 72
              65
 73
               6
 40
63.5
 49
31.75
 74
               0
 49
-6.3499999999999996
 74
               0
 49
6.3499999999999996
 74
               0
 49
-6.3499999999999996
 74
               0
 49
6.3499999999999996
 74
               0
 49
-6.3499999999999996
 74
               0
  0
LTYPE
  5
30
100
AcDbSymbolTableRecord
100
AcDbLinetypeTableRecord
  2
PHANTOM2
 70
              64
  3
Phantom Phantom (.5x) ___ _ _ ___ _ _ ___ _ _ ___ _ _
 72
              65
 73
               6
 40
31.75
 49
15.875
 74
               0
 49
-3.1749999999999998
 74
               0
 49
3.1749999999999998
 74
               0
 49
-3.1749999999999998
 74
               0
 49
3.1749999999999998
 74
               0
 49
-3.1749999999999998
 74
               0
  0
LTYPE
  5
31
100
AcDbSymbolTableRecord
100
AcDbLinetypeTableRecord
  2
PHANTOM
 70
              64
  3
Phantom (2x) ____________    ____    ____   _
 72
              65
 73
               6
 40
127.0
 49
63.5
 74
               0
 49
-12.699999999999999
 74
               0
 49
12.699999999999999
 74
               0
 49
-12.699999999999999
 74
               0
 49
12.699999999999999
 74
               0
 49
-12.699999999999999
 74
               0
  0
LTYPE
  5
32
100
AcDbSymbolTableRecord
100
AcDbLinetypeTableRecord
  2
ACAD_ISO02W100
 70
              64
  3
ISO dash __ __ __ __ __ __ __ __ __ __ __ __ __
 72
              65
 73
               2
 40
15.0
 49
12.0
 74
               0
 49
-3.0
 74
               0
  0
LTYPE
  5
33
100
AcDbSymbolTableRecord
100
AcDbLinetypeTableRecord
  2
ACAD_ISO03W100
 70
              64
  3
ISO dash space __ __ __ __ __ __ __ __ __ __ __ __ __ __
 72
              65
 73
               2
 40
30.0
 49
12.0
 74
               0
 49
-18.0
 74
               0
  0
LTYPE
  5
34
100
AcDbSymbolTableRecord
100
AcDbLinetypeTableRecord
  2
ACAD_ISO04W100
 70
              64
  3
ISO long-dash dot ____ . ____ . ____ . ____ . _
 72
              65
 73
               4
 40
30.0
 49
24.0
 74
               0
 49
-3.0
 74
               0
 49
0.0
 74
               0
 49
-3.0
 74
               0
  0
LTYPE
  5
35
100
AcDbSymbolTableRecord
100
AcDbLinetypeTableRecord
  2
ACAD_ISO05W100
 70
              64
  3
ISO long-dash double-dot ____ .. ____ .. ____ .
 72
              65
 73
               6
 40
33.0
 49
24.0
 74
               0
 49
-3.0
 74
               0
 49
0.0
 74
               0
 49
-3.0
 74
               0
 49
0.0
 74
               0
 49
-3.0
 74
               0
  0
LTYPE
  5
36
100
AcDbSymbolTableRecord
100
AcDbLinetypeTableRecord
  2
ACAD_ISO06W100
 70
              64
  3
ISO long-dash triple-dot ____ ... ____ ... ____
 72
              65
 73
               8
 40
36.0
 49
24.0
 74
               0
 49
-3.0
 74
               0
 49
0.0
 74
               0
 49
-3.0
 74
               0
 49
0.0
 74
               0
 49
-3.0
 74
               0
 49
0.0
 74
               0
 49
-3.0
 74
               0
  0
LTYPE
  5
37
100
AcDbSymbolTableRecord
100
AcDbLinetypeTableRecord
  2
ACAD_ISO07W100
 70
              64
  3
ISO dot . . . . . . . . . . . . . . . . . . . .
 72
              65
 73
               2
 40
3.0
 49
0.0
 74
               0
 49
-3.0
 74
               0
  0
LTYPE
  5
38
100
AcDbSymbolTableRecord
100
AcDbLinetypeTableRecord
  2
ACAD_ISO08W100
 70
              64
  3
ISO long-dash short-dash ____ __ ____ __ ____ _
 72
              65
 73
               4
 40
36.0
 49
24.0
 74
               0
 49
-3.0
 74
               0
 49
6.0
 74
               0
 49
-3.0
 74
               0
  0
LTYPE
  5
39
100
AcDbSymbolTableRecord
100
AcDbLinetypeTableRecord
  2
ACAD_ISO09W100
 70
              64
  3
ISO long-dash double-short-dash ____ __ __ ____
 72
              65
 73
               6
 40
45.0
 49
24.0
 74
               0
 49
-3.0
 74
               0
 49
6.0
 74
               0
 49
-3.0
 74
               0
 49
6.0
 74
               0
 49
-3.0
 74
               0
  0
LTYPE
  5
3A
100
AcDbSymbolTableRecord
100
AcDbLinetypeTableRecord
  2
ACAD_ISO10W100
 70
              64
  3
ISO dash dot __ . __ . __ . __ . __ . __ . __ .
 72
              65
 73
               4
 40
18.0
 49
12.0
 74
               0
 49
-3.0
 74
               0
 49
0.0
 74
               0
 49
-3.0
 74
               0
  0
LTYPE
  5
3B
100
AcDbSymbolTableRecord
100
AcDbLinetypeTableRecord
  2
ACAD_ISO11W100
 70
              64
  3
ISO double-dash dot __ __ . __ __ . __ __ . __ 
 72
              65
 73
               6
 40
33.0
 49
12.0
 74
               0
 49
-3.0
 74
               0
 49
12.0
 74
               0
 49
-3.0
 74
               0
 49
0.0
 74
               0
 49
-3.0
 74
               0
  0
LTYPE
  5
3C
100
AcDbSymbolTableRecord
100
AcDbLinetypeTableRecord
  2
ACAD_ISO12W100
 70
              64
  3
ISO dash double-dot __ . . __ . . __ . . __ . .
 72
              65
 73
               6
 40
21.0
 49
12.0
 74
               0
 49
-3.0
 74
               0
 49
0.0
 74
               0
 49
-3.0
 74
               0
 49
0.0
 74
               0
 49
-3.0
 74
               0
  0
LTYPE
  5
3D
100
AcDbSymbolTableRecord
100
AcDbLinetypeTableRecord
  2
ACAD_ISO13W100
 70
              64
  3
ISO double-dash double-dot __ __ . . __ __ . . 
 72
              65
 73
               8
 40
36.0
 49
12.0
 74
               0
 49
-3.0
 74
               0
 49
12.0
 74
               0
 49
-3.0
 74
               0
 49
0.0
 74
               0
 49
-3.0
 74
               0
 49
0.0
 74
               0
 49
-3.0
 74
               0
  0
LTYPE
  5
3E
100
AcDbSymbolTableRecord
100
AcDbLinetypeTableRecord
  2
ACAD_ISO14W100
 70
              64
  3
ISO dash triple-dot __ . . . __ . . . __ . . . 
 72
              65
 73
               8
 40
24.0
 49
12.0
 74
               0
 49
-3.0
 74
               0
 49
0.0
 74
               0
 49
-3.0
 74
               0
 49
0.0
 74
               0
 49
-3.0
 74
               0
 49
0.0
 74
               0
 49
-3.0
 74
               0
  0
LTYPE
  5
3F
100
AcDbSymbolTableRecord
100
AcDbLinetypeTableRecord
  2
ACAD_ISO15W100
 70
              64
  3
ISO double-dash double-dot __ __ . . __ __ . . 
 72
              65
 73
              10
 40
39.0
 49
12.0
 74
               0
 49
-3.0
 74
               0
 49
12.0
 74
               0
 49
-3.0
 74
               0
 49
0.0
 74
               0
 49
-3.0
 74
               0
 49
0.0
 74
               0
 49
-3.0
 74
               0
 49
0.0
 74
               0
 49
-3.0
 74
               0
  0
ENDTAB
  0
TABLE
  2
LAYER
  5
2
100
AcDbSymbolTable
 70
              16
  0
LAYER
  5
14
100
AcDbSymbolTableRecord
100
AcDbLayerTableRecord
  2
0
 70
               0
 62
               7
  6
Continuous
  0
LAYER
  5
41
100
AcDbSymbolTableRecord
100
AcDbLayerTableRecord
  2
Layer00001
 70
               0
 62
               7
  6
Continuous
  0
LAYER
  5
42
100
AcDbSymbolTableRecord
100
AcDbLayerTableRecord
  2
Layer00002
 70
               0
 62
               7
  6
Continuous
  0
LAYER
  5
43
100
AcDbSymbolTableRecord
100
AcDbLayerTableRecord
  2
Layer00003
 70
               0
 62
               7
  6
Continuous
  0
LAYER
  5
44
100
AcDbSymbolTableRecord
100
AcDbLayerTableRecord
  2
Layer00004
 70
               0
 62
               7
  6
Continuous
  0
LAYER
  5
45
100
AcDbSymbolTableRecord
100
AcDbLayerTableRecord
  2
Layer00005
 70
               0
 62
               7
  6
Continuous
  0
LAYER
  5
46
100
AcDbSymbolTableRecord
100
AcDbLayerTableRecord
  2
Layer00006
 70
               0
 62
               7
  6
Continuous
  0
LAYER
  5
47
100
AcDbSymbolTableRecord
100
AcDbLayerTableRecord
  2
Layer00007
 70
               0
 62
               7
  6
Continuous
  0
LAYER
  5
48
100
AcDbSymbolTableRecord
100
AcDbLayerTableRecord
  2
Layer00008
 70
               0
 62
               7
  6
Continuous
  0
LAYER
  5
49
100
AcDbSymbolTableRecord
100
AcDbLayerTableRecord
  2
Layer00009
 70
               0
 62
               7
  6
Continuous
  0
LAYER
  5
4A
100
AcDbSymbolTableRecord
100
AcDbLayerTableRecord
  2
Layer00010
 70
               0
 62
               7
  6
Continuous
  0
LAYER
  5
4B
100
AcDbSymbolTableRecord
100
AcDbLayerTableRecord
  2
Layer00011
 70
               0
 62
               7
  6
Continuous
  0
LAYER
  5
4C
100
AcDbSymbolTableRecord
100
AcDbLayerTableRecord
  2
Layer00012
 70
               0
 62
               7
  6
Continuous
  0
LAYER
  5
4D
100
AcDbSymbolTableRecord
100
AcDbLayerTableRecord
  2
Layer00013
 70
               0
 62
               7
  6
Continuous
  0
LAYER
  5
4E
100
AcDbSymbolTableRecord
100
AcDbLayerTableRecord
  2
Layer00014
 70
               0
 62
               7
  6
Continuous
  0
LAYER
  5
4F
100
AcDbSymbolTableRecord
100
AcDbLayerTableRecord
  2
Layer00015
 70
               0
 62
               7
  6
Continuous
  0
ENDTAB
  0
TABLE
  2
STYLE
  5
3
100
AcDbSymbolTable
 70
               2
  0
STYLE
  5
17
100
AcDbSymbolTableRecord
100
AcDbTextStyleTableRecord
  2
Standard
 70
               0
 40
0.0
 41
1.0
 50
0.0
 71
               0
 42
0.0
  3
txt.shx
  4
bigfont.shx
  0
STYLE
  5
40
100
AcDbSymbolTableRecord
100
AcDbTextStyleTableRecord
  2
STANDARD_T
 70
               4
 40
0.0
 41
1.0
 50
0.0
 71
               0
 42
0.0
  3
txt.shx
  4
bigfont.shx
  0
ENDTAB
  0
TABLE
  2
VIEW
  5
5
100
AcDbSymbolTable
 70
               0
  0
ENDTAB
  0
TABLE
  2
UCS
  5
6
100
AcDbSymbolTable
 70
               0
  0
ENDTAB
  0
TABLE
  2
APPID
  5
8
100
AcDbSymbolTable
 70
               1
  0
APPID
  5
16
100
AcDbSymbolTableRecord
100
AcDbRegAppTableRecord
  2
ACAD
 70
               0
  0
ENDTAB
  0
TABLE
  2
DIMSTYLE
  5
9
100
AcDbSymbolTable
 70
               1
  0
DIMSTYLE
105
18
100
AcDbSymbolTableRecord
100
AcDbDimStyleTableRecord
  2
Standard
 70
               0
  3

  4

  5

  6

  7

 40
1.0
 41
0.18
 42
0.0625
 43
0.38
 44
0.18
 45
0.0
 46
0.0
 47
0.0
 48
0.0
 71
               0
 72
               0
 73
               1
 74
               1
 75
               0
 76
               0
 77
               0
 78
               0
140
0.18
141
0.09
142
0.0
143
25.399999999999999
144
1.0
145
0.0
146
1.0
147
0.09
170
               0
171
               2
172
               0
173
               0
174
               0
175
               0
176
               0
177
               0
178
               0
270
               2
271
               4
272
               4
273
               2
274
               2
275
               0
280
               0
281
               0
282
               0
283
               1
284
               0
285
               0
286
               0
287
               3
288
               0
340
17
  0
ENDTAB
  0
TABLE
  2
BLOCK_RECORD
  5
1
100
AcDbSymbolTable
 70
               0
  0
BLOCK_RECORD
  5
A
100
AcDbSymbolTableRecord
100
AcDbBlockTableRecord
  2
*MODEL_SPACE
  0
BLOCK_RECORD
  5
B
100
AcDbSymbolTableRecord
100
AcDbBlockTableRecord
  2
*PAPER_SPACE
  0
ENDTAB
  0
ENDSEC
  0
SECTION
  2
BLOCKS
  0
BLOCK
  5
D
100
AcDbEntity
  8
0
100
AcDbBlockBegin
  2
*MODEL_SPACE
 70
               0
 10
0.0
 20
0.0
 30
0.0
  3
*MODEL_SPACE
  1

  0
ENDBLK
  5
E
100
AcDbEntity
  8
0
100
AcDbBlockEnd
  0
BLOCK
  5
F
100
AcDbEntity
 67
               1
  8
0
100
AcDbBlockBegin
  2
*PAPER_SPACE
 70
               0
 10
0.0
 20
0.0
 30
0.0
  3
*PAPER_SPACE
  1

  0
ENDBLK
  5
10
100
AcDbEntity
 67
               1
  8
0
100
AcDbBlockEnd
  0
ENDSEC
  0
SECTION
  2
ENTITIES
  0
LINE
  5
50
100
AcDbEntity
  8
0
  6
Continuous
 62
               2
100
AcDbLine
 10
815.96481906156782
 20
470.48798564645369
 30
0.0
 11
815.96481906156782
 21
431.19378183487868
 31
0.0
  0
LINE
  5
51
100
AcDbEntity
  8
0
  6
Continuous
 62
               2
100
AcDbLine
 10
810.96481906156782
 20
469.98798181401372
 30
0.0
 11
810.96481906156782
 21
253.98798181401372
 31
0.0
  0
LINE
  5
52
100
AcDbEntity
  8
0
  6
Continuous
 62
               3
100
AcDbLine
 10
809.46481906156782
 20
444.48798181401372
 30
0.0
 11
809.46481906156782
 21
468.48798181401372
 31
0.0
  0
LINE
  5
53
100
AcDbEntity
  8
0
  6
Continuous
 62
               6
100
AcDbLine
 10
804.86481915693525
 20
444.48798181401372
 30
0.0
 11
764.06481896620051
 21
444.48798181401372
 31
0.0
  0
LINE
  5
54
100
AcDbEntity
  8
0
  6
Continuous
 62
               6
100
AcDbLine
 10
759.46481906156794
 20
439.8879819093811
 30
0.0
 11
759.46481906156794
 21
424.48798181401349
 31
0.0
  0
LINE
  5
55
100
AcDbEntity
  8
0
  6
Continuous
 62
               6
100
AcDbLine
 10
759.46481906156794
 20
424.48798181401349
 30
0.0
 11
761.76481901388422
 21
424.48798181401349
 31
0.0
  0
LINE
  5
56
100
AcDbEntity
  8
0
  6
Continuous
 62
               6
100
AcDbLine
 10
761.76481901388422
 20
424.48798181401349
 30
0.0
 11
761.76481901388422
 21
439.8879819093811
 31
0.0
  0
LINE
  5
57
100
AcDbEntity
  8
0
  6
Continuous
 62
               6
100
AcDbLine
 10
764.06481896620051
 20
442.18798186169738
 30
0.0
 11
804.86481915693525
 21
442.18798186169738
 31
0.0
  0
LINE
  5
58
100
AcDbEntity
  8
0
  6
Continuous
 62
               6
100
AcDbLine
 10
807.16481910925154
 20
439.8879819093811
 30
0.0
 11
807.16481910925154
 21
349.08798171864612
 31
0.0
  0
LINE
  5
59
100
AcDbEntity
  8
0
  6
Continuous
 62
               6
100
AcDbLine
 10
804.86481915693525
 20
346.78798176632978
 30
0.0
 11
764.06481896620051
 21
346.78798176632978
 31
0.0
  0
LINE
  5
5A
100
AcDbEntity
  8
0
  6
Continuous
 62
               6
100
AcDbLine
 10
761.76481901388422
 20
349.08798171864612
 30
0.0
 11
761.76481901388422
 21
364.48798181401349
 31
0.0
  0
LINE
  5
5B
100
AcDbEntity
  8
0
  6
Continuous
 62
               6
100
AcDbLine
 10
761.76481901388422
 20
364.48798181401349
 30
0.0
 11
759.46481906156794
 21
364.48798181401349
 31
0.0
  0
LINE
  5
5C
100
AcDbEntity
  8
0
  6
Continuous
 62
               6
100
AcDbLine
 10
759.46481906156794
 20
364.48798181401349
 30
0.0
 11
759.46481906156794
 21
349.08798171864612
 31
0.0
  0
LINE
  5
5D
100
AcDbEntity
  8
0
  6
Continuous
 62
               6
100
AcDbLine
 10
764.06481896620051
 20
344.48798181401349
 30
0.0
 11
804.86481915693525
 21
344.48798181401349
 31
0.0
  0
LINE
  5
5E
100
AcDbEntity
  8
0
  6
Continuous
 62
               6
100
AcDbLine
 10
809.46481906156782
 20
349.08798171864612
 30
0.0
 11
809.46481906156782
 21
439.8879819093811
 31
0.0
  0
LINE
  5
5F
100
AcDbEntity
  8
0
  6
Continuous
 62
               7
100
AcDbLine
 10
809.46481906156782
 20
456.69360929878502
 30
0.0
 11
809.25919157679641
 21
456.48798181401361
 31
0.0
  0
LINE
  5
60
100
AcDbEntity
  8
0
  6
Continuous
 62
               7
100
AcDbLine
 10
809.46481906156782
 20
463.76467711065061
 30
0.0
 11
802.18812376493111
 21
456.48798181401361
 31
0.0
  0
LINE
  5
61
100
AcDbEntity
  8
0
  6
Continuous
 62
               7
100
AcDbLine
 10
807.11705595306557
 20
468.48798181401372
 30
0.0
 11
795.11705595306557
 21
456.48798181401361
 31
0.0
  0
LINE
  5
62
100
AcDbEntity
  8
0
  6
Continuous
 62
               7
100
AcDbLine
 10
800.04598814120004
 20
468.48798181401372
 30
0.0
 11
788.04598814120004
 21
456.48798181401361
 31
0.0
  0
LINE
  5
63
100
AcDbEntity
  8
0
  6
Continuous
 62
               7
100
AcDbLine
 10
792.97492032933462
 20
468.48798181401372
 30
0.0
 11
780.97492032933462
 21
456.48798181401361
 31
0.0
  0
LINE
  5
64
100
AcDbEntity
  8
0
  6
Continuous
 62
               7
100
AcDbLine
 10
785.9038525174692
 20
468.48798181401372
 30
0.0
 11
773.9038525174692
 21
456.48798181401361
 31
0.0
  0
LINE
  5
65
100
AcDbEntity
  8
0
  6
Continuous
 62
               7
100
AcDbLine
 10
778.83278470560367
 20
468.48798181401372
 30
0.0
 11
766.83278470560367
 21
456.48798181401361
 31
0.0
  0
LINE
  5
66
100
AcDbEntity
  8
0
  6
Continuous
 62
               7
100
AcDbLine
 10
771.76171689373814
 20
468.48798181401372
 30
0.0
 11
759.76171689373814
 21
456.48798181401361
 31
0.0
  0
LINE
  5
67
100
AcDbEntity
  8
0
  6
Continuous
 62
               7
100
AcDbLine
 10
764.69064908187272
 20
468.48798181401372
 30
0.0
 11
752.69064908187272
 21
456.48798181401361
 31
0.0
  0
LINE
  5
68
100
AcDbEntity
  8
0
  6
Continuous
 62
               7
100
AcDbLine
 10
757.6195812700073
 20
468.48798181401372
 30
0.0
 11
745.6195812700073
 21
456.48798181401361
 31
0.0
  0
LINE
  5
69
100
AcDbEntity
  8
0
  6
Continuous
 62
               7
100
AcDbLine
 10
750.54851345814177
 20
468.48798181401372
 30
0.0
 11
738.54851345814177
 21
456.48798181401361
 31
0.0
  0
LINE
  5
6A
100
AcDbEntity
  8
0
  6
Continuous
 62
               7
100
AcDbLine
 10
743.47744564627624
 20
468.48798181401372
 30
0.0
 11
731.47744564627624
 21
456.48798181401361
 31
0.0
  0
LINE
  5
6B
100
AcDbEntity
  8
0
  6
Continuous
 62
               7
100
AcDbLine
 10
736.40637783441082
 20
468.48798181401372
 30
0.0
 11
724.40637783441082
 21
456.48798181401361
 31
0.0
  0
LINE
  5
6C
100
AcDbEntity
  8
0
  6
Continuous
 62
               7
100
AcDbLine
 10
729.3353100225454
 20
468.48798181401372
 30
0.0
 11
717.3353100225454
 21
456.48798181401361
 31
0.0
  0
LINE
  5
6D
100
AcDbEntity
  8
0
  6
Continuous
 62
               7
100
AcDbLine
 10
722.26424221067987
 20
468.48798181401372
 30
0.0
 11
710.26424221067987
 21
456.48798181401361
 31
0.0
  0
LINE
  5
6E
100
AcDbEntity
  8
0
  6
Continuous
 62
               7
100
AcDbLine
 10
715.19317439881434
 20
468.48798181401372
 30
0.0
 11
703.19317439881434
 21
456.48798181401361
 31
0.0
  0
LINE
  5
6F
100
AcDbEntity
  8
0
  6
Continuous
 62
               7
100
AcDbLine
 10
708.12210658694892
 20
468.48798181401372
 30
0.0
 11
696.12210658694892
 21
456.48798181401361
 31
0.0
  0
LINE
  5
70
100
AcDbEntity
  8
0
  6
Continuous
 62
               7
100
AcDbLine
 10
701.0510387750835
 20
468.48798181401372
 30
0.0
 11
689.0510387750835
 21
456.48798181401361
 31
0.0
  0
LINE
  5
71
100
AcDbEntity
  8
0
  6
Continuous
 62
               7
100
AcDbLine
 10
693.97997096321797
 20
468.48798181401372
 30
0.0
 11
681.97997096321797
 21
456.48798181401361
 31
0.0
  0
LINE
  5
72
100
AcDbEntity
  8
0
  6
Continuous
 62
               7
100
AcDbLine
 10
686.90890315135243
 20
468.48798181401372
 30
0.0
 11
674.90890315135243
 21
456.48798181401361
 31
0.0
  0
LINE
  5
73
100
AcDbEntity
  8
0
  6
Continuous
 62
               7
100
AcDbLine
 10
679.83783533948701
 20
468.48798181401372
 30
0.0
 11
669.56749377744836
 21
458.21764025197501
 31
0.0
  0
LINE
  5
74
100
AcDbEntity
  8
0
  6
Continuous
 62
               7
100
AcDbLine
 10
672.7667675276216
 20
468.48798181401372
 30
0.0
 11
669.56749377744836
 21
465.28870806384049
 31
0.0
  0
LINE
  5
75
100
AcDbEntity
  8
0
  6
Continuous
 62
               7
100
AcDbLine
 10
639.16675913800054
 20
463.17224467185457
 30
0.0
 11
632.48249628015969
 21
456.48798181401361
 31
0.0
  0
LINE
  5
76
100
AcDbEntity
  8
0
  6
Continuous
 62
               7
100
AcDbLine
 10
637.41142846829416
 20
468.48798181401372
 30
0.0
 11
625.41142846829416
 21
456.48798181401361
 31
0.0
  0
LINE
  5
77
100
AcDbEntity
  8
0
  6
Continuous
 62
               7
100
AcDbLine
 10
630.34036065642863
 20
468.48798181401372
 30
0.0
 11
618.34036065642863
 21
456.48798181401361
 31
0.0
  0
LINE
  5
78
100
AcDbEntity
  8
0
  6
Continuous
 62
               7
100
AcDbLine
 10
623.26929284456321
 20
468.48798181401372
 30
0.0
 11
611.26929284456321
 21
456.48798181401361
 31
0.0
  0
LINE
  5
79
100
AcDbEntity
  8
0
  6
Continuous
 62
               7
100
AcDbLine
 10
474.77686879538822
 20
468.48798181401372
 30
0.0
 11
462.77686879538822
 21
456.48798181401361
 31
0.0
  0
LINE
  5
7A
100
AcDbEntity
  8
0
  6
Continuous
 62
               7
100
AcDbLine
 10
472.7617168937382
 20
444.48798181401372
 30
0.0
 11
460.7617168937382
 21
456.48798181401361
 31
0.0
  0
LINE
  5
7B
100
AcDbEntity
  8
0
  6
Continuous
 62
               7
100
AcDbLine
 10
479.83278470560373
 20
444.48798181401372
 30
0.0
 11
467.83278470560373
 21
456.48798181401361
 31
0.0
  0
LINE
  5
7C
100
AcDbEntity
  8
0
  6
Continuous
 62
               7
100
AcDbLine
 10
486.90385251746909
 20
444.48798181401372
 30
0.0
 11
474.90385251746909
 21
456.48798181401361
 31
0.0
  0
LINE
  5
7D
100
AcDbEntity
  8
0
  6
Continuous
 62
               7
100
AcDbLine
 10
493.97492032933462
 20
444.48798181401372
 30
0.0
 11
481.97492032933462
 21
456.48798181401361
 31
0.0
  0
LINE
  5
7E
100
AcDbEntity
  8
0
  6
Continuous
 62
               7
100
AcDbLine
 10
501.0459881412001
 20
444.48798181401372
 30
0.0
 11
489.0459881412001
 21
456.48798181401361
 31
0.0
  0
LINE
  5
7F
100
AcDbEntity
  8
0
  6
Continuous
 62
               7
100
AcDbLine
 10
508.11705595306563
 20
444.48798181401372
 30
0.0
 11
496.11705595306563
 21
456.48798181401361
 31
0.0
  0
LINE
  5
80
100
AcDbEntity
  8
0
  6
Continuous
 62
               7
100
AcDbLine
 10
515.18812376493099
 20
444.48798181401372
 30
0.0
 11
503.18812376493099
 21
456.48798181401361
 31
0.0
  0
LINE
  5
81
100
AcDbEntity
  8
0
  6
Continuous
 62
               7
100
AcDbLine
 10
522.25919157679652
 20
444.48798181401372
 30
0.0
 11
510.25919157679652
 21
456.48798181401361
 31
0.0
  0
LINE
  5
82
100
AcDbEntity
  8
0
  6
Continuous
 62
               7
100
AcDbLine
 10
529.33025938866206
 20
444.48798181401372
 30
0.0
 11
517.33025938866194
 21
456.48798181401361
 31
0.0
  0
LINE
  5
83
100
AcDbEntity
  8
0
  6
Continuous
 62
               7
100
AcDbLine
 10
536.40132720052748
 20
444.48798181401372
 30
0.0
 11
524.40132720052748
 21
456.48798181401361
 31
0.0
  0
LINE
  5
84
100
AcDbEntity
  8
0
  6
Continuous
 62
               7
100
AcDbLine
 10
543.47239501239301
 20
444.48798181401372
 30
0.0
 11
531.47239501239301
 21
456.48798181401361
 31
0.0
  0
LINE
  5
85
100
AcDbEntity
  8
0
  6
Continuous
 62
               7
100
AcDbLine
 10
550.54346282425843
 20
444.48798181401372
 30
0.0
 11
538.54346282425843
 21
456.48798181401361
 31
0.0
  0
LINE
  5
86
100
AcDbEntity
  8
0
  6
Continuous
 62
               7
100
AcDbLine
 10
557.61453063612396
 20
444.48798181401372
 30
0.0
 11
545.61453063612396
 21
456.48798181401361
 31
0.0
  0
LINE
  5
87
100
AcDbEntity
  8
0
  6
Continuous
 62
               7
100
AcDbLine
 10
564.68559844798938
 20
444.48798181401372
 30
0.0
 11
552.68559844798938
 21
456.48798181401361
 31
0.0
  0
LINE
  5
88
100
AcDbEntity
  8
0
  6
Continuous
 62
               7
100
AcDbLine
 10
571.75666625985491
 20
444.48798181401372
 30
0.0
 11
559.75666625985491
 21
456.48798181401361
 31
0.0
  0
LINE
  5
89
100
AcDbEntity
  8
0
  6
Continuous
 62
               7
100
AcDbLine
 10
578.82773407172033
 20
444.48798181401372
 30
0.0
 11
566.82773407172033
 21
456.48798181401361
 31
0.0
  0
LINE
  5
8A
100
AcDbEntity
  8
0
  6
Continuous
 62
               7
100
AcDbLine
 10
585.89880188358586
 20
444.48798181401372
 30
0.0
 11
573.89880188358586
 21
456.48798181401361
 31
0.0
  0
LINE
  5
8B
100
AcDbEntity
  8
0
  6
Continuous
 62
               7
100
AcDbLine
 10
592.96986969545128
 20
444.48798181401372
 30
0.0
 11
580.96986969545128
 21
456.48798181401361
 31
0.0
  0
LINE
  5
8C
100
AcDbEntity
  8
0
  6
Continuous
 62
               7
100
AcDbLine
 10
600.04093750731681
 20
444.48798181401372
 30
0.0
 11
588.04093750731681
 21
456.48798181401361
 31
0.0
  0
LINE
  5
8D
100
AcDbEntity
  8
0
  6
Continuous
 62
               7
100
AcDbLine
 10
607.11200531918223
 20
444.48798181401372
 30
0.0
 11
595.11200531918223
 21
456.48798181401361
 31
0.0
  0
LINE
  5
8E
100
AcDbEntity
  8
0
  6
Continuous
 62
               7
100
AcDbLine
 10
614.18307313104776
 20
444.48798181401372
 30
0.0
 11
602.18307313104776
 21
456.48798181401361
 31
0.0
  0
LINE
  5
8F
100
AcDbEntity
  8
0
  6
Continuous
 62
               7
100
AcDbLine
 10
621.25414094291318
 20
444.48798181401372
 30
0.0
 11
609.25414094291318
 21
456.48798181401361
 31
0.0
  0
LINE
  5
90
100
AcDbEntity
  8
0
  6
Continuous
 62
               7
100
AcDbLine
 10
628.32520875477871
 20
444.48798181401372
 30
0.0
 11
616.32520875477871
 21
456.48798181401361
 31
0.0
  0
LINE
  5
91
100
AcDbEntity
  8
0
  6
Continuous
 62
               7
100
AcDbLine
 10
635.39627656664413
 20
444.48798181401372
 30
0.0
 11
623.39627656664413
 21
456.48798181401361
 31
0.0
  0
LINE
  5
92
100
AcDbEntity
  8
0
  6
Continuous
 62
               7
100
AcDbLine
 10
639.16675913800054
 20
447.78856705452267
 30
0.0
 11
630.46734437850967
 21
456.48798181401361
 31
0.0
  0
LINE
  5
93
100
AcDbEntity
  8
0
  6
Continuous
 62
               7
100
AcDbLine
 10
639.16675913800054
 20
454.85963486638809
 30
0.0
 11
637.53841219037508
 21
456.48798181401361
 31
0.0
  0
LINE
  5
94
100
AcDbEntity
  8
0
  6
Continuous
 62
               7
100
AcDbLine
 10
670.75161562597157
 20
444.48798181401372
 30
0.0
 11
669.56749377744836
 21
445.67210366253693
 31
0.0
  0
LINE
  5
95
100
AcDbEntity
  8
0
  6
Continuous
 62
               7
100
AcDbLine
 10
677.82268343783699
 20
444.48798181401372
 30
0.0
 11
669.56749377744836
 21
452.74317147440229
 31
0.0
  0
LINE
  5
96
100
AcDbEntity
  8
0
  6
Continuous
 62
               7
100
AcDbLine
 10
684.89375124970252
 20
444.48798181401372
 30
0.0
 11
672.89375124970252
 21
456.48798181401361
 31
0.0
  0
LINE
  5
97
100
AcDbEntity
  8
0
  6
Continuous
 62
               7
100
AcDbLine
 10
691.96481906156794
 20
444.48798181401372
 30
0.0
 11
679.96481906156794
 21
456.48798181401361
 31
0.0
  0
LINE
  5
98
100
AcDbEntity
  8
0
  6
Continuous
 62
               7
100
AcDbLine
 10
699.03588687343347
 20
444.48798181401372
 30
0.0
 11
687.03588687343347
 21
456.48798181401361
 31
0.0
  0
LINE
  5
99
100
AcDbEntity
  8
0
  6
Continuous
 62
               7
100
AcDbLine
 10
706.10695468529889
 20
444.48798181401372
 30
0.0
 11
694.10695468529889
 21
456.48798181401361
 31
0.0
  0
LINE
  5
9A
100
AcDbEntity
  8
0
  6
Continuous
 62
               7
100
AcDbLine
 10
713.17804538715484
 20
444.48798181401372
 30
0.0
 11
701.17802249716442
 21
456.48798181401361
 31
0.0
  0
LINE
  5
9B
100
AcDbEntity
  8
0
  6
Continuous
 62
               7
100
AcDbLine
 10
720.24909030902984
 20
444.48798181401372
 30
0.0
 11
708.24909030902984
 21
456.48798181401361
 31
0.0
  0
LINE
  5
9C
100
AcDbEntity
  8
0
  6
Continuous
 62
               7
100
AcDbLine
 10
727.32015812089537
 20
444.48798181401372
 30
0.0
 11
715.32015812089537
 21
456.48798181401361
 31
0.0
  0
LINE
  5
9D
100
AcDbEntity
  8
0
  6
Continuous
 62
               7
100
AcDbLine
 10
734.39122593276079
 20
444.48798181401372
 30
0.0
 11
722.39122593276079
 21
456.48798181401361
 31
0.0
  0
LINE
  5
9E
100
AcDbEntity
  8
0
  6
Continuous
 62
               7
100
AcDbLine
 10
741.46229374462632
 20
444.48798181401372
 30
0.0
 11
729.46229374462632
 21
456.48798181401361
 31
0.0
  0
LINE
  5
9F
100
AcDbEntity
  8
0
  6
Continuous
 62
               7
100
AcDbLine
 10
748.53336155649185
 20
444.48798181401372
 30
0.0
 11
736.53336155649174
 21
456.48798181401361
 31
0.0
  0
LINE
  5
A0
100
AcDbEntity
  8
0
  6
Continuous
 62
               7
100
AcDbLine
 10
755.60442936835727
 20
444.48798181401372
 30
0.0
 11
743.60442936835727
 21
456.48798181401361
 31
0.0
  0
LINE
  5
A1
100
AcDbEntity
  8
0
  6
Continuous
 62
               7
100
AcDbLine
 10
762.67549718022269
 20
444.48798181401372
 30
0.0
 11
750.67549718022269
 21
456.48798181401361
 31
0.0
  0
LINE
  5
A2
100
AcDbEntity
  8
0
  6
Continuous
 62
               7
100
AcDbLine
 10
769.74656499208822
 20
444.48798181401372
 30
0.0
 11
757.74656499208822
 21
456.48798181401361
 31
0.0
  0
LINE
  5
A3
100
AcDbEntity
  8
0
  6
Continuous
 62
               7
100
AcDbLine
 10
776.81763280395376
 20
444.48798181401372
 30
0.0
 11
764.81763280395364
 21
456.48798181401361
 31
0.0
  0
LINE
  5
A4
100
AcDbEntity
  8
0
  6
Continuous
 62
               7
100
AcDbLine
 10
783.88870061581918
 20
444.48798181401372
 30
0.0
 11
771.88870061581918
 21
456.48798181401361
 31
0.0
  0
LINE
  5
A5
100
AcDbEntity
  8
0
  6
Continuous
 62
               7
100
AcDbLine
 10
790.95976842768459
 20
444.48798181401372
 30
0.0
 11
778.95976842768459
 21
456.48798181401361
 31
0.0
  0
LINE
  5
A6
100
AcDbEntity
  8
0
  6
Continuous
 62
               7
100
AcDbLine
 10
798.03083623955013
 20
444.48798181401372
 30
0.0
 11
786.03083623955013
 21
456.48798181401361
 31
0.0
  0
LINE
  5
A7
100
AcDbEntity
  8
0
  6
Continuous
 62
               7
100
AcDbLine
 10
805.10190405141566
 20
444.48798181401372
 30
0.0
 11
793.10190405141554
 21
456.48798181401372
 31
0.0
  0
LINE
  5
A8
100
AcDbEntity
  8
0
  6
Continuous
 62
               7
100
AcDbLine
 10
809.46481906156782
 20
447.19613461572669
 30
0.0
 11
800.17297186328096
 21
456.48798181401372
 31
0.0
  0
LINE
  5
A9
100
AcDbEntity
  8
0
  6
Continuous
 62
               7
100
AcDbLine
 10
809.46481906156782
 20
454.26720242759222
 30
0.0
 11
807.2440396751465
 21
456.48798181401372
 31
0.0
  0
LINE
  5
AA
100
AcDbEntity
  8
0
  6
Continuous
 62
               4
100
AcDbLine
 10
840.96481906156805
 20
476.48798181401361
 30
0.0
 11
840.96481906156805
 21
553.48798181401366
 31
0.0
  0
LINE
  5
AB
100
AcDbEntity
  8
0
  6
Continuous
 62
               4
100
AcDbLine
 10
815.96481906156782
 20
476.48798181401361
 30
0.0
 11
815.96481906156782
 21
497.48798181401361
 31
0.0
  0
LINE
  5
AC
100
AcDbEntity
  8
0
  6
Continuous
 62
               4
100
AcDbLine
 10
840.96481906156805
 20
494.48798181401361
 30
0.0
 11
815.96481906156782
 21
494.48798181401361
 31
0.0
  0
LINE
  5
AD
100
AcDbEntity
  8
0
  6
Continuous
 62
               4
100
AcDbLine
 10
845.36481906156791
 20
470.48798564645369
 30
0.0
 11
864.96481906156851
 21
470.48798564645369
 31
0.0
  0
LINE
  5
AE
100
AcDbEntity
  8
0
  6
Continuous
 62
               4
100
AcDbLine
 10
821.25902287314284
 20
430.48798564645369
 30
0.0
 11
864.96481906156851
 21
430.48798564645369
 31
0.0
  0
LINE
  5
AF
100
AcDbEntity
  8
0
  6
Continuous
 62
               4
100
AcDbLine
 10
861.96481906156805
 20
470.48798564645369
 30
0.0
 11
861.96481906156805
 21
430.48798564645369
 31
0.0
  0
LINE
  5
B0
100
AcDbEntity
  8
0
  6
Continuous
 62
               6
100
AcDbLine
 10
759.46480688052532
 20
444.48798181401372
 30
0.0
 11
759.46481906156794
 21
344.48798181401349
 31
0.0
  0
LINE
  5
B1
100
AcDbEntity
  8
0
  6
Continuous
 62
               6
100
AcDbLine
 10
779.46481906156794
 20
344.48798181401349
 30
0.0
 11
749.46481906156794
 21
344.48798181401349
 31
0.0
  0
LINE
  5
B2
100
AcDbEntity
  8
0
  6
Continuous
 62
               6
100
AcDbLine
 10
749.46481906156794
 20
344.48798181401349
 30
0.0
 11
749.46481906156794
 21
343.48798181401349
 31
0.0
  0
LINE
  5
B3
100
AcDbEntity
  8
0
  6
Continuous
 62
               6
100
AcDbLine
 10
751.46481906156794
 20
341.48798181401349
 30
0.0
 11
772.46481906156794
 21
341.48798181401349
 31
0.0
  0
LINE
  5
B4
100
AcDbEntity
  8
0
  6
Continuous
 62
               6
100
AcDbLine
 10
776.46481906156794
 20
337.48798181401349
 30
0.0
 11
776.46481906156794
 21
316.48798181401349
 31
0.0
  0
LINE
  5
B5
100
AcDbEntity
  8
0
  6
Continuous
 62
               6
100
AcDbLine
 10
778.46481906156794
 20
314.48798181401349
 30
0.0
 11
779.46481906156794
 21
314.48798181401349
 31
0.0
  0
LINE
  5
B6
100
AcDbEntity
  8
0
  6
Continuous
 62
               6
100
AcDbLine
 10
779.46481906156794
 20
314.48798181401349
 30
0.0
 11
779.46481906156794
 21
344.48798181401349
 31
0.0
  0
LINE
  5
B7
100
AcDbEntity
  8
0
  6
Continuous
 62
               6
100
AcDbLine
 10
779.46481906156805
 20
309.48798181401349
 30
0.0
 11
809.46481906156805
 21
309.48798181401361
 31
0.0
  0
LINE
  5
B8
100
AcDbEntity
  8
0
  6
Continuous
 62
               6
100
AcDbLine
 10
809.46481906156805
 20
309.48798181401361
 30
0.0
 11
809.46481906156805
 21
310.48798181401361
 31
0.0
  0
LINE
  5
B9
100
AcDbEntity
  8
0
  6
Continuous
 62
               6
100
AcDbLine
 10
807.46481906156805
 20
312.48798181401361
 30
0.0
 11
786.46481906156805
 21
312.48798181401349
 31
0.0
  0
LINE
  5
BA
100
AcDbEntity
  8
0
  6
Continuous
 62
               6
100
AcDbLine
 10
782.46481906156805
 20
316.48798181401349
 30
0.0
 11
782.46481906156794
 21
337.48798181401349
 31
0.0
  0
LINE
  5
BB
100
AcDbEntity
  8
0
  6
Continuous
 62
               6
100
AcDbLine
 10
780.46481906156794
 20
339.48798181401349
 30
0.0
 11
779.46481906156794
 21
339.48798181401349
 31
0.0
  0
LINE
  5
BC
100
AcDbEntity
  8
0
  6
Continuous
 62
               6
100
AcDbLine
 10
779.46481906156794
 20
339.48798181401349
 30
0.0
 11
779.46481906156805
 21
309.48798181401349
 31
0.0
  0
LINE
  5
BD
100
AcDbEntity
  8
0
  6
Continuous
 62
               4
100
AcDbLine
 10
810.96480775356531
 20
379.83797693375828
 30
0.0
 11
885.41575063716891
 21
419.93549585465678
 31
0.0
  0
LINE
  5
BE
100
AcDbEntity
  8
0
  6
Continuous
 62
               4
100
AcDbLine
 10
885.41575063716891
 20
419.93549585465678
 30
0.0
 11
983.41958472532247
 21
419.93549585465678
 31
0.0
  0
LINE
  5
BF
100
AcDbEntity
  8
0
  6
Continuous
 62
               4
100
AcDbLine
 10
810.96481906156782
 20
379.83798181401352
 30
0.0
 11
819.42205264864106
 21
382.91616310394448
 31
0.0
  0
LINE
  5
C0
100
AcDbEntity
  8
0
  6
Continuous
 62
               4
100
AcDbLine
 10
810.96481906156782
 20
379.83798181401352
 30
0.0
 11
817.8592190496388
 21
385.62307030119229
 31
0.0
  0
LINE
  5
C1
100
AcDbEntity
  8
0
  6
Continuous
 62
               4
100
AcDbLine
 10
809.46481906156737
 20
274.89223197247497
 30
0.0
 11
885.96481906156896
 21
316.17277621953372
 31
0.0
  0
LINE
  5
C2
100
AcDbEntity
  8
0
  6
Continuous
 62
               4
100
AcDbLine
 10
885.96481906156896
 20
316.17277621953372
 30
0.0
 11
913.05031272387805
 21
316.17277621953372
 31
0.0
  0
LINE
  5
C3
100
AcDbEntity
  8
0
  6
Continuous
 62
               4
100
AcDbLine
 10
809.46481906156737
 20
274.89223197247497
 30
0.0
 11
817.9220526486406
 21
277.97041326240611
 31
0.0
  0
LINE
  5
C4
100
AcDbEntity
  8
0
  6
Continuous
 62
               4
100
AcDbLine
 10
809.46481906156737
 20
274.89223197247497
 30
0.0
 11
816.35921904963811
 21
280.67732045965391
 31
0.0
  0
LINE
  5
C5
100
AcDbEntity
  8
0
  6
Continuous
 62
               4
100
AcDbLine
 10
815.96481906156782
 20
406.48798564645352
 30
0.0
 11
815.96481906156782
 21
425.19378183487862
 31
0.0
  0
LINE
  5
C6
100
AcDbEntity
  8
0
  6
Continuous
 62
               4
100
AcDbLine
 10
815.96481906156782
 20
409.48798564645352
 30
0.0
 11
810.96481906156782
 21
409.48798564645352
 31
0.0
  0
LINE
  5
C7
100
AcDbEntity
  8
0
  6
Continuous
 62
               4
100
AcDbLine
 10
901.38529012762956
 20
598.48798181401366
 30
0.0
 11
761.3852901276291
 21
598.48798181401366
 31
0.0
  0
LINE
  5
C8
100
AcDbEntity
  8
0
  6
Continuous
 62
               4
100
AcDbLine
 10
901.38529012762956
 20
582.48798181401366
 30
0.0
 11
752.14768582059514
 21
582.48798181401366
 31
0.0
  0
LINE
  5
C9
100
AcDbEntity
  8
0
  6
Continuous
 62
               4
100
AcDbLine
 10
901.38529012762956
 20
566.48798181401366
 30
0.0
 11
742.91008151356107
 21
566.48798181401366
 31
0.0
  0
LINE
  5
CA
100
AcDbEntity
  8
0
  6
Continuous
 62
               4
100
AcDbLine
 10
761.3852901276291
 20
598.48798181401366
 30
0.0
 11
675.9374502875645
 21
450.48798181401372
 31
0.0
  0
LINE
  5
CB
100
AcDbEntity
  8
0
  6
Continuous
 62
               4
100
AcDbLine
 10
815.96481906156782
 20
449.68798181401371
 30
0.0
 11
885.96481906156828
 21
487.21574931133938
 31
0.0
  0
LINE
  5
CC
100
AcDbEntity
  8
0
  6
Continuous
 62
               4
100
AcDbLine
 10
815.96481906156782
 20
449.68798181401371
 30
0.0
 11
822.8592190496388
 21
455.47307030119248
 31
0.0
  0
LINE
  5
CD
100
AcDbEntity
  8
0
  6
Continuous
 62
               4
100
AcDbLine
 10
815.96481906156782
 20
449.68798181401371
 30
0.0
 11
824.42205264864106
 21
452.76616310394468
 31
0.0
  0
LINE
  5
CE
100
AcDbEntity
  8
0
  6
Continuous
 62
               4
100
AcDbLine
 10
665.96481906156794
 20
444.48798181401372
 30
0.0
 11
665.96481906156794
 21
473.48798181401361
 31
0.0
  0
LINE
  5
CF
100
AcDbEntity
  8
0
  6
Continuous
 62
               4
100
AcDbLine
 10
651.96481906156794
 20
444.48798181401372
 30
0.0
 11
651.96481906156794
 21
456.48798181401361
 31
0.0
  0
LINE
  5
D0
100
AcDbEntity
  8
0
  6
Continuous
 62
               4
100
AcDbLine
 10
651.96481906156794
 20
456.48798181401361
 30
0.0
 11
651.96481906156794
 21
468.48798181401372
 31
0.0
  0
LINE
  5
D1
100
AcDbEntity
  8
0
  6
Continuous
 62
               4
100
AcDbLine
 10
651.96481906156794
 20
468.48798181401372
 30
0.0
 11
651.96481906156794
 21
473.48798181401361
 31
0.0
  0
LINE
  5
D2
100
AcDbEntity
  8
0
  6
Continuous
 62
               4
100
AcDbLine
 10
651.96481906156794
 20
473.48798181401361
 30
0.0
 11
651.96481906156794
 21
479.38797457305867
 31
0.0
  0
LINE
  5
D3
100
AcDbEntity
  8
0
  6
Continuous
 62
               2
100
AcDbLine
 10
809.46481906156737
 20
288.48798181401361
 30
0.0
 11
809.46481906156805
 21
253.48798181401361
 31
0.0
  0
LINE
  5
D4
100
AcDbEntity
  8
0
  6
Continuous
 62
               2
100
AcDbLine
 10
807.10127578355923
 20
270.46536913746399
 30
0.0
 11
807.96481906156782
 21
253.98798181401361
 31
0.0
  0
LINE
  5
D5
100
AcDbEntity
  8
0
  6
Continuous
 62
               2
100
AcDbLine
 10
809.46481906156737
 20
288.48798181401361
 30
0.0
 11
769.46481906156748
 21
288.48798181401321
 31
0.0
  0
LINE
  5
D6
100
AcDbEntity
  8
0
  6
Continuous
 62
               3
100
AcDbLine
 10
807.96481906156737
 20
287.48798181401349
 30
0.0
 11
807.9648190615676
 21
278.48798181401361
 31
0.0
  0
LINE
  5
D7
100
AcDbEntity
  8
0
  6
DIVIDE
 62
               4
100
AcDbLine
 10
809.46481906156737
 20
289.48798181401361
 30
0.0
 11
809.46481906156714
 21
309.48798181401372
 31
0.0
  0
LINE
  5
D8
100
AcDbEntity
  8
0
  6
Continuous
 62
               7
100
AcDbLine
 10
795.34504225558908
 20
306.62837919056881
 30
0.0
 11
795.3450422555884
 21
288.12837919056841
 31
0.0
  0
LINE
  5
D9
100
AcDbEntity
  8
0
  6
Continuous
 62
               7
100
AcDbLine
 10
792.84504225558817
 20
286.12837919056852
 30
0.0
 11
792.84504225558817
 21
288.12837919056852
 31
0.0
  0
LINE
  5
DA
100
AcDbEntity
  8
0
  6
Continuous
 62
               7
100
AcDbLine
 10
800.34504225558908
 20
306.62837919056858
 30
0.0
 11
800.34504225558817
 21
288.12837919056818
 31
0.0
  0
LINE
  5
DB
100
AcDbEntity
  8
0
  6
Continuous
 62
               7
100
AcDbLine
 10
802.84504225558817
 20
286.12837919056813
 30
0.0
 11
802.8450422555884
 21
288.1283791905683
 31
0.0
  0
LINE
  5
DC
100
AcDbEntity
  8
0
  6
Continuous
 62
               7
100
AcDbLine
 10
800.34504225558908
 20
306.62837919056858
 30
0.0
 11
797.84504225558919
 21
308.12837919056869
 31
0.0
  0
LINE
  5
DD
100
AcDbEntity
  8
0
  6
Continuous
 62
               7
100
AcDbLine
 10
795.34504225558908
 20
306.62837919056881
 30
0.0
 11
797.84504225558919
 21
308.12837919056869
 31
0.0
  0
LINE
  5
DE
100
AcDbEntity
  8
0
  6
Continuous
 62
               7
100
AcDbLine
 10
802.8450422555884
 20
288.1283791905683
 30
0.0
 11
792.84504225558817
 21
288.12837919056852
 31
0.0
  0
LINE
  5
DF
100
AcDbEntity
  8
0
  6
Continuous
 62
               7
100
AcDbLine
 10
795.3450422555884
 20
292.12837919056858
 30
0.0
 11
800.34504225558862
 21
294.12837919056858
 31
0.0
  0
LINE
  5
E0
100
AcDbEntity
  8
0
  6
Continuous
 62
               7
100
AcDbLine
 10
800.34504225558862
 20
296.12837919056852
 30
0.0
 11
795.34504225558851
 21
294.12837919056881
 31
0.0
  0
LINE
  5
E1
100
AcDbEntity
  8
0
  6
Continuous
 62
               7
100
AcDbLine
 10
795.34504225558862
 20
296.12837919056881
 30
0.0
 11
800.34504225558885
 21
298.12837919056852
 31
0.0
  0
LINE
  5
E2
100
AcDbEntity
  8
0
  6
Continuous
 62
               7
100
AcDbLine
 10
800.34504225558885
 20
300.12837919056852
 30
0.0
 11
795.34504225558885
 21
298.12837919056892
 31
0.0
  0
LINE
  5
E3
100
AcDbEntity
  8
0
  6
Continuous
 62
               7
100
AcDbLine
 10
800.34504225558908
 20
302.12837919056852
 30
0.0
 11
797.34504225558885
 21
300.92837919056882
 31
0.0
  0
LINE
  5
E4
100
AcDbEntity
  8
0
  6
Continuous
 62
               7
100
AcDbLine
 10
795.84504225558908
 20
306.12837919056881
 30
0.0
 11
795.84504225558885
 21
300.3283791905688
 31
0.0
  0
LINE
  5
E5
100
AcDbEntity
  8
0
  6
Continuous
 62
               7
100
AcDbLine
 10
795.34504225558908
 20
306.62837919056881
 30
0.0
 11
795.84504225558908
 21
306.12837919056881
 31
0.0
  0
LINE
  5
E6
100
AcDbEntity
  8
0
  6
Continuous
 62
               7
100
AcDbLine
 10
795.84504225558885
 20
300.32837919056891
 30
0.0
 11
796.2950422555889
 21
299.87837919056881
 31
0.0
  0
LINE
  5
E7
100
AcDbEntity
  8
0
  6
Continuous
 62
               7
100
AcDbLine
 10
797.34504225558885
 20
300.92837919056882
 30
0.0
 11
796.2950422555889
 21
299.87837919056881
 31
0.0
  0
LINE
  5
E8
100
AcDbEntity
  8
0
  6
Continuous
 62
               7
100
AcDbLine
 10
795.84504225558885
 20
300.3283791905688
 30
0.0
 11
795.34504225558885
 21
300.12837919056881
 31
0.0
  0
LINE
  5
E9
100
AcDbEntity
  8
0
  6
Continuous
 62
               2
100
AcDbLine
 10
811.96481906156782
 20
440.48798564645369
 30
0.0
 11
814.46481906156782
 21
431.23798564645369
 31
0.0
  0
LINE
  5
EA
100
AcDbEntity
  8
0
  6
Continuous
 62
               7
100
AcDbLine
 10
764.9121199298138
 20
431.68798181401388
 30
0.0
 11
764.91211992981414
 21
467.68798181401388
 31
0.0
  0
LINE
  5
EB
100
AcDbEntity
  8
0
  6
Continuous
 62
               7
100
AcDbLine
 10
762.41211992981414
 20
470.18798181401388
 30
0.0
 11
762.41211992981414
 21
469.68798181401382
 31
0.0
  0
LINE
  5
EC
100
AcDbEntity
  8
0
  6
Continuous
 62
               7
100
AcDbLine
 10
769.9121199298138
 20
431.68798181401382
 30
0.0
 11
769.91211992981414
 21
467.68798181401382
 31
0.0
  0
LINE
  5
ED
100
AcDbEntity
  8
0
  6
Continuous
 62
               7
100
AcDbLine
 10
772.41211992981414
 20
470.18798181401388
 30
0.0
 11
772.41211992981414
 21
469.68798181401382
 31
0.0
  0
LINE
  5
EE
100
AcDbEntity
  8
0
  6
Continuous
 62
               7
100
AcDbLine
 10
762.41211992981414
 20
470.18798181401388
 30
0.0
 11
772.41211992981414
 21
470.18798181401388
 31
0.0
  0
LINE
  5
EF
100
AcDbEntity
  8
0
  6
Continuous
 62
               7
100
AcDbLine
 10
764.91211992981414
 20
467.68798181401388
 30
0.0
 11
769.91211992981414
 21
467.68798181401382
 31
0.0
  0
LINE
  5
F0
100
AcDbEntity
  8
0
  6
Continuous
 62
               7
100
AcDbLine
 10
762.41211992981414
 20
469.68798181401388
 30
0.0
 11
764.91211992981414
 21
467.68798181401388
 31
0.0
  0
LINE
  5
F1
100
AcDbEntity
  8
0
  6
Continuous
 62
               7
100
AcDbLine
 10
769.91211992981414
 20
467.68798181401382
 30
0.0
 11
772.41211992981414
 21
469.68798181401382
 31
0.0
  0
LINE
  5
F2
100
AcDbEntity
  8
0
  6
Continuous
 62
               7
100
AcDbLine
 10
762.41211992981414
 20
469.68798181401382
 30
0.0
 11
772.41211992981414
 21
469.68798181401382
 31
0.0
  0
LINE
  5
F3
100
AcDbEntity
  8
0
  6
Continuous
 62
               7
100
AcDbLine
 10
764.9121199298138
 20
431.68798181401388
 30
0.0
 11
767.4121199298138
 21
430.18798181401382
 31
0.0
  0
LINE
  5
F4
100
AcDbEntity
  8
0
  6
Continuous
 62
               7
100
AcDbLine
 10
769.9121199298138
 20
431.68798181401382
 30
0.0
 11
767.4121199298138
 21
430.18798181401382
 31
0.0
  0
LINE
  5
F5
100
AcDbEntity
  8
0
  6
Continuous
 62
               7
100
AcDbLine
 10
764.91211992981403
 20
460.68798181401388
 30
0.0
 11
769.91211992981403
 21
462.68798181401382
 31
0.0
  0
LINE
  5
F6
100
AcDbEntity
  8
0
  6
Continuous
 62
               7
100
AcDbLine
 10
764.91211992981403
 20
458.68798181401388
 30
0.0
 11
769.91211992981414
 21
460.68798181401382
 31
0.0
  0
LINE
  5
F7
100
AcDbEntity
  8
0
  6
Continuous
 62
               7
100
AcDbLine
 10
764.91211992981403
 20
456.68798181401388
 30
0.0
 11
769.91211992981403
 21
458.68798181401388
 31
0.0
  0
LINE
  5
F8
100
AcDbEntity
  8
0
  6
Continuous
 62
               7
100
AcDbLine
 10
764.91211992981403
 20
454.68798181401388
 30
0.0
 11
769.91211992981403
 21
456.68798181401388
 31
0.0
  0
LINE
  5
F9
100
AcDbEntity
  8
0
  6
Continuous
 62
               7
100
AcDbLine
 10
764.91211992981403
 20
452.68798181401388
 30
0.0
 11
769.91211992981403
 21
454.68798181401388
 31
0.0
  0
LINE
  5
FA
100
AcDbEntity
  8
0
  6
Continuous
 62
               7
100
AcDbLine
 10
764.91211992981391
 20
450.68798181401399
 30
0.0
 11
769.91211992981391
 21
452.68798181401388
 31
0.0
  0
LINE
  5
FB
100
AcDbEntity
  8
0
  6
Continuous
 62
               7
100
AcDbLine
 10
764.91211992981391
 20
448.68798181401388
 30
0.0
 11
769.91211992981391
 21
450.68798181401388
 31
0.0
  0
LINE
  5
FC
100
AcDbEntity
  8
0
  6
Continuous
 62
               7
100
AcDbLine
 10
764.91211992981391
 20
446.68798181401399
 30
0.0
 11
769.91211992981391
 21
448.68798181401399
 31
0.0
  0
LINE
  5
FD
100
AcDbEntity
  8
0
  6
Continuous
 62
               7
100
AcDbLine
 10
764.91211992981391
 20
444.68798181401399
 30
0.0
 11
769.91211992981391
 21
446.68798181401399
 31
0.0
  0
LINE
  5
FE
100
AcDbEntity
  8
0
  6
Continuous
 62
               7
100
AcDbLine
 10
764.9121199298138
 20
442.68798181401388
 30
0.0
 11
769.91211992981391
 21
444.68798181401399
 31
0.0
  0
LINE
  5
FF
100
AcDbEntity
  8
0
  6
Continuous
 62
               7
100
AcDbLine
 10
764.91211992981391
 20
440.68798181401388
 30
0.0
 11
769.9121199298138
 21
442.68798181401399
 31
0.0
  0
LINE
  5
100
100
AcDbEntity
  8
0
  6
Continuous
 62
               7
100
AcDbLine
 10
764.9121199298138
 20
438.68798181401399
 30
0.0
 11
767.91211992981391
 21
439.88798181401398
 31
0.0
  0
LINE
  5
101
100
AcDbEntity
  8
0
  6
Continuous
 62
               7
100
AcDbLine
 10
769.4121199298138
 20
432.18798181401388
 30
0.0
 11
769.41211992981391
 21
440.48798181401412
 31
0.0
  0
LINE
  5
102
100
AcDbEntity
  8
0
  6
Continuous
 62
               7
100
AcDbLine
 10
767.91211992981391
 20
439.88798181401393
 30
0.0
 11
768.96211992981398
 21
440.93798181401411
 31
0.0
  0
LINE
  5
103
100
AcDbEntity
  8
0
  6
Continuous
 62
               7
100
AcDbLine
 10
769.41211992981391
 20
440.48798181401389
 30
0.0
 11
768.96211992981398
 21
440.93798181401411
 31
0.0
  0
LINE
  5
104
100
AcDbEntity
  8
0
  6
Continuous
 62
               7
100
AcDbLine
 10
769.41211992981391
 20
440.48798181401412
 30
0.0
 11
769.91211992981391
 21
440.68798181401399
 31
0.0
  0
LINE
  5
105
100
AcDbEntity
  8
0
  6
Continuous
 62
               7
100
AcDbLine
 10
769.9121199298138
 20
431.68798181401382
 30
0.0
 11
769.4121199298138
 21
432.18798181401388
 31
0.0
  0
LINE
  5
106
100
AcDbEntity
  8
0
  6
Continuous
 62
               7
100
AcDbLine
 10
778.64939769139937
 20
432.88798181401381
 30
0.0
 11
778.64939769139971
 21
468.88798181401381
 31
0.0
  0
LINE
  5
107
100
AcDbEntity
  8
0
  6
Continuous
 62
               7
100
AcDbLine
 10
776.14939769139971
 20
471.3879818140137
 30
0.0
 11
776.14939769139971
 21
470.8879818140137
 31
0.0
  0
LINE
  5
108
100
AcDbEntity
  8
0
  6
Continuous
 62
               7
100
AcDbLine
 10
783.64939769139937
 20
432.88798181401381
 30
0.0
 11
783.64939769139971
 21
468.8879818140137
 31
0.0
  0
LINE
  5
109
100
AcDbEntity
  8
0
  6
Continuous
 62
               7
100
AcDbLine
 10
786.14939769139971
 20
471.3879818140137
 30
0.0
 11
786.14939769139971
 21
470.8879818140137
 31
0.0
  0
LINE
  5
10A
100
AcDbEntity
  8
0
  6
Continuous
 62
               7
100
AcDbLine
 10
776.14939769139971
 20
471.3879818140137
 30
0.0
 11
786.14939769139971
 21
471.3879818140137
 31
0.0
  0
LINE
  5
10B
100
AcDbEntity
  8
0
  6
Continuous
 62
               7
100
AcDbLine
 10
778.64939769139971
 20
468.88798181401381
 30
0.0
 11
783.64939769139971
 21
468.8879818140137
 31
0.0
  0
LINE
  5
10C
100
AcDbEntity
  8
0
  6
Continuous
 62
               7
100
AcDbLine
 10
776.14939769139971
 20
470.8879818140137
 30
0.0
 11
778.64939769139971
 21
468.88798181401381
 31
0.0
  0
LINE
  5
10D
100
AcDbEntity
  8
0
  6
Continuous
 62
               7
100
AcDbLine
 10
783.64939769139971
 20
468.8879818140137
 30
0.0
 11
786.1493976913996
 21
470.88798181401359
 31
0.0
  0
LINE
  5
10E
100
AcDbEntity
  8
0
  6
Continuous
 62
               7
100
AcDbLine
 10
776.14939769139971
 20
470.8879818140137
 30
0.0
 11
786.1493976913996
 21
470.88798181401359
 31
0.0
  0
LINE
  5
10F
100
AcDbEntity
  8
0
  6
Continuous
 62
               7
100
AcDbLine
 10
778.64939769139937
 20
432.88798181401381
 30
0.0
 11
781.14939769139937
 21
431.38798181401381
 31
0.0
  0
LINE
  5
110
100
AcDbEntity
  8
0
  6
Continuous
 62
               7
100
AcDbLine
 10
783.64939769139937
 20
432.88798181401381
 30
0.0
 11
781.14939769139937
 21
431.38798181401381
 31
0.0
  0
LINE
  5
111
100
AcDbEntity
  8
0
  6
Continuous
 62
               7
100
AcDbLine
 10
778.6493976913996
 20
461.88798181401381
 30
0.0
 11
783.6493976913996
 21
463.8879818140137
 31
0.0
  0
LINE
  5
112
100
AcDbEntity
  8
0
  6
Continuous
 62
               7
100
AcDbLine
 10
778.6493976913996
 20
459.88798181401381
 30
0.0
 11
783.6493976913996
 21
461.8879818140137
 31
0.0
  0
LINE
  5
113
100
AcDbEntity
  8
0
  6
Continuous
 62
               7
100
AcDbLine
 10
778.6493976913996
 20
457.8879818140137
 30
0.0
 11
783.6493976913996
 21
459.88798181401381
 31
0.0
  0
LINE
  5
114
100
AcDbEntity
  8
0
  6
Continuous
 62
               7
100
AcDbLine
 10
778.64939769139949
 20
455.88798181401381
 30
0.0
 11
783.6493976913996
 21
457.8879818140137
 31
0.0
  0
LINE
  5
115
100
AcDbEntity
  8
0
  6
Continuous
 62
               7
100
AcDbLine
 10
778.6493976913996
 20
453.88798181401381
 30
0.0
 11
783.6493976913996
 21
455.8879818140137
 31
0.0
  0
LINE
  5
116
100
AcDbEntity
  8
0
  6
Continuous
 62
               7
100
AcDbLine
 10
778.64939769139949
 20
451.88798181401381
 30
0.0
 11
783.64939769139949
 21
453.88798181401381
 31
0.0
  0
LINE
  5
117
100
AcDbEntity
  8
0
  6
Continuous
 62
               7
100
AcDbLine
 10
778.64939769139949
 20
449.88798181401381
 30
0.0
 11
783.64939769139949
 21
451.8879818140137
 31
0.0
  0
LINE
  5
118
100
AcDbEntity
  8
0
  6
Continuous
 62
               7
100
AcDbLine
 10
778.64939769139949
 20
447.88798181401381
 30
0.0
 11
783.64939769139949
 21
449.88798181401393
 31
0.0
  0
LINE
  5
119
100
AcDbEntity
  8
0
  6
Continuous
 62
               7
100
AcDbLine
 10
778.64939769139937
 20
445.88798181401381
 30
0.0
 11
783.64939769139949
 21
447.88798181401393
 31
0.0
  0
LINE
  5
11A
100
AcDbEntity
  8
0
  6
Continuous
 62
               7
100
AcDbLine
 10
778.64939769139937
 20
443.88798181401381
 30
0.0
 11
783.64939769139937
 21
445.88798181401393
 31
0.0
  0
LINE
  5
11B
100
AcDbEntity
  8
0
  6
Continuous
 62
               7
100
AcDbLine
 10
778.64939769139937
 20
441.88798181401393
 30
0.0
 11
783.64939769139937
 21
443.88798181401393
 31
0.0
  0
LINE
  5
11C
100
AcDbEntity
  8
0
  6
Continuous
 62
               7
100
AcDbLine
 10
778.64939769139937
 20
439.88798181401393
 30
0.0
 11
781.64939769139949
 21
441.08798181401392
 31
0.0
  0
LINE
  5
11D
100
AcDbEntity
  8
0
  6
Continuous
 62
               7
100
AcDbLine
 10
783.14939769139937
 20
433.38798181401381
 30
0.0
 11
783.14939769139949
 21
441.68798181401388
 31
0.0
  0
LINE
  5
11E
100
AcDbEntity
  8
0
  6
Continuous
 62
               7
100
AcDbLine
 10
781.64939769139949
 20
441.08798181401392
 30
0.0
 11
782.69939769139944
 21
442.13798181401393
 31
0.0
  0
LINE
  5
11F
100
AcDbEntity
  8
0
  6
Continuous
 62
               7
100
AcDbLine
 10
783.14939769139949
 20
441.68798181401388
 30
0.0
 11
782.69939769139944
 21
442.13798181401393
 31
0.0
  0
LINE
  5
120
100
AcDbEntity
  8
0
  6
Continuous
 62
               7
100
AcDbLine
 10
783.14939769139949
 20
441.68798181401388
 30
0.0
 11
783.64939769139937
 21
441.88798181401393
 31
0.0
  0
LINE
  5
121
100
AcDbEntity
  8
0
  6
Continuous
 62
               7
100
AcDbLine
 10
783.64939769139937
 20
432.88798181401381
 30
0.0
 11
783.14939769139937
 21
433.38798181401381
 31
0.0
  0
LINE
  5
122
100
AcDbEntity
  8
0
  6
Continuous
 62
               2
100
AcDbLine
 10
710.96481906156794
 20
469.98798181401372
 30
0.0
 11
810.96481906156782
 21
469.98798181401372
 31
0.0
  0
LINE
  5
123
100
AcDbEntity
  8
0
  6
Continuous
 62
               2
100
AcDbLine
 10
730.96481906156794
 20
471.98800012456053
 30
0.0
 11
838.7148191893159
 21
471.98798177143095
 31
0.0
  0
LINE
  5
124
100
AcDbEntity
  8
0
  6
DASHED
 62
               6
100
AcDbLine
 10
710.96481906156794
 20
470.98798181401372
 30
0.0
 11
809.46481906156782
 21
470.98798181401372
 31
0.0
  0
LINE
  5
125
100
AcDbEntity
  8
0
  6
DASHED
 62
               6
100
AcDbLine
 10
710.96481906156794
 20
470.98798181401372
 30
0.0
 11
703.55435810471431
 21
470.48798181401372
 31
0.0
  0
LINE
  5
126
100
AcDbEntity
  8
0
  6
Continuous
 62
               2
100
AcDbLine
 10
815.96481906156782
 20
470.48798564645369
 30
0.0
 11
838.71481893381997
 21
470.48798177143101
 31
0.0
  0
LINE
  5
127
100
AcDbEntity
  8
0
  6
Continuous
 62
               2
100
AcDbLine
 10
817.96481906156782
 20
469.48798181401372
 30
0.0
 11
838.46481906156805
 21
468.48798181401372
 31
0.0
  0
LINE
  5
128
100
AcDbEntity
  8
0
  6
Continuous
 62
               4
100
AcDbLine
 10
1001.3776218792946
 20
150.38182398772608
 30
0.0
 11
1001.3776218792946
 21
170.38182398772608
 31
0.0
  0
LINE
  5
129
100
AcDbEntity
  8
0
  6
Continuous
 62
               4
100
AcDbLine
 10
1151.3776218792946
 20
150.38182398772608
 30
0.0
 11
1001.3776218792946
 21
150.38182398772608
 31
0.0
  0
LINE
  5
12A
100
AcDbEntity
  8
0
  6
Continuous
 62
               4
100
AcDbLine
 10
1151.3776218792946
 20
170.38182398772608
 30
0.0
 11
1151.3776218792946
 21
150.38182398772608
 31
0.0
  0
LINE
  5
12B
100
AcDbEntity
  8
0
  6
Continuous
 62
               4
100
AcDbLine
 10
1151.3776218792946
 20
170.38182398772608
 30
0.0
 11
1001.3776218792946
 21
170.38182398772608
 31
0.0
  0
LINE
  5
12C
100
AcDbEntity
  8
0
  6
Continuous
 62
               4
100
AcDbLine
 10
300.73296093862172
 20
725.02648492839865
 30
0.0
 11
300.73296093862172
 21
745.02648492839865
 31
0.0
  0
LINE
  5
12D
100
AcDbEntity
  8
0
  6
Continuous
 62
               4
100
AcDbLine
 10
450.73296093862172
 20
725.02648492839865
 30
0.0
 11
300.73296093862172
 21
725.02648492839865
 31
0.0
  0
LINE
  5
12E
100
AcDbEntity
  8
0
  6
Continuous
 62
               4
100
AcDbLine
 10
450.73296093862172
 20
745.02648492839865
 30
0.0
 11
450.73296093862172
 21
725.02648492839865
 31
0.0
  0
LINE
  5
12F
100
AcDbEntity
  8
0
  6
Continuous
 62
               4
100
AcDbLine
 10
450.73296093862172
 20
745.02648492839865
 30
0.0
 11
300.73296093862172
 21
745.02648492839865
 31
0.0
  0
LINE
  5
130
100
AcDbEntity
  8
0
  6
Continuous
 62
               4
100
AcDbLine
 10
885.96481906156828
 20
487.21574931133938
 30
0.0
 11
983.31184540762729
 21
487.21574931133938
 31
0.0
  0
LINE
  5
131
100
AcDbEntity
  8
0
  6
Continuous
 62
               7
100
AcDbLine
 10
604.19822503269791
 20
456.48798181401372
 30
0.0
 11
616.19822503269779
 21
468.48798181401372
 31
0.0
  0
LINE
  5
132
100
AcDbEntity
  8
0
  6
Continuous
 62
               7
100
AcDbLine
 10
597.12715722083294
 20
456.48798181401372
 30
0.0
 11
609.12715722083226
 21
468.48798181401372
 31
0.0
  0
LINE
  5
133
100
AcDbEntity
  8
0
  6
Continuous
 62
               3
100
AcDbLine
 10
481.46481906156782
 20
468.48798181401372
 30
0.0
 11
481.46481906156782
 21
456.48798181401349
 31
0.0
  0
LINE
  5
134
100
AcDbEntity
  8
0
  6
Continuous
 62
               3
100
AcDbLine
 10
585.46481906156782
 20
468.48798181401372
 30
0.0
 11
585.46481906156782
 21
456.48798181401349
 31
0.0
  0
LINE
  5
135
100
AcDbEntity
  8
0
  6
DASHED
 62
               6
100
AcDbLine
 10
584.46481906156782
 20
469.48798181401372
 30
0.0
 11
584.46481906156782
 21
458.98798181401349
 31
0.0
  0
LINE
  5
136
100
AcDbEntity
  8
0
  6
DASHED
 62
               6
100
AcDbLine
 10
482.46481906156782
 20
469.48798181401366
 30
0.0
 11
482.46481906156782
 21
458.98798181401349
 31
0.0
  0
LINE
  5
137
100
AcDbEntity
  8
0
  6
DASHED
 62
               6
100
AcDbLine
 10
435.96481906156788
 20
442.18798181401371
 30
0.0
 11
759.46481906156794
 21
442.18798181401371
 31
0.0
  0
LINE
  5
138
100
AcDbEntity
  8
0
  6
Continuous
 62
               6
100
AcDbLine
 10
435.96481906156788
 20
424.48798181401349
 30
0.0
 11
759.46481906156794
 21
424.48798181401349
 31
0.0
  0
LINE
  5
139
100
AcDbEntity
  8
0
  6
Continuous
 62
               6
100
AcDbLine
 10
435.96481906156788
 20
344.48798181401349
 30
0.0
 11
759.46481906156794
 21
344.48798181401349
 31
0.0
  0
LINE
  5
13A
100
AcDbEntity
  8
0
  6
DASHED
 62
               6
100
AcDbLine
 10
435.96481906156788
 20
346.78798181401339
 30
0.0
 11
759.46481906156794
 21
346.78798181401339
 31
0.0
  0
LINE
  5
13B
100
AcDbEntity
  8
0
  6
Continuous
 62
               6
100
AcDbLine
 10
435.96481906156788
 20
364.48798181401349
 30
0.0
 11
759.46481906156794
 21
364.48798181401349
 31
0.0
  0
LINE
  5
13C
100
AcDbEntity
  8
0
  6
Continuous
 62
               3
100
AcDbLine
 10
435.96481906156788
 20
287.48798181400946
 30
0.0
 11
807.96481906156737
 21
287.48798181401349
 31
0.0
  0
LINE
  5
13D
100
AcDbEntity
  8
0
  6
Continuous
 62
               3
100
AcDbLine
 10
435.96481906156782
 20
278.48798181400957
 30
0.0
 11
807.9648190615676
 21
278.48798181401361
 31
0.0
  0
LINE
  5
13E
100
AcDbEntity
  8
0
  6
Continuous
 62
               7
100
AcDbLine
 10
435.96481906156782
 20
280.73798181400957
 30
0.0
 11
807.9648190615676
 21
280.73798181401361
 31
0.0
  0
LINE
  5
13F
100
AcDbEntity
  8
0
  6
Continuous
 62
               7
100
AcDbLine
 10
435.96481906156782
 20
282.98798181400946
 30
0.0
 11
807.9648190615676
 21
282.98798181401349
 31
0.0
  0
LINE
  5
140
100
AcDbEntity
  8
0
  6
Continuous
 62
               7
100
AcDbLine
 10
435.96481906156788
 20
285.23798181400946
 30
0.0
 11
807.96481906156737
 21
285.23798181401349
 31
0.0
  0
LINE
  5
141
100
AcDbEntity
  8
0
  6
DIVIDE
 62
               4
100
AcDbLine
 10
435.96481906156788
 20
289.48798181401332
 30
0.0
 11
809.46481906156737
 21
289.48798181401361
 31
0.0
  0
LINE
  5
142
100
AcDbEntity
  8
0
  6
DIVIDE
 62
               4
100
AcDbLine
 10
435.96481906156788
 20
289.98798181401332
 30
0.0
 11
809.46481906156737
 21
289.98798181401361
 31
0.0
  0
LINE
  5
143
100
AcDbEntity
  8
0
  6
DIVIDE
 62
               4
100
AcDbLine
 10
435.96481906156788
 20
308.98798181401332
 30
0.0
 11
809.46481906156737
 21
308.98798181401361
 31
0.0
  0
LINE
  5
144
100
AcDbEntity
  8
0
  6
DIVIDE
 62
               4
100
AcDbLine
 10
435.96481906156788
 20
309.48798181401332
 30
0.0
 11
809.46481906156737
 21
309.48798181401361
 31
0.0
  0
LINE
  5
145
100
AcDbEntity
  8
0
  6
Continuous
 62
               7
100
AcDbLine
 10
455.70580098352264
 20
456.48798181401366
 30
0.0
 11
467.70580098352269
 21
468.48798181401372
 31
0.0
  0
LINE
  5
146
100
AcDbEntity
  8
0
  6
Continuous
 62
               7
100
AcDbLine
 10
453.69064908187261
 20
456.48798181401366
 30
0.0
 11
465.69064908187272
 21
444.48798181401372
 31
0.0
  0
LINE
  5
147
100
AcDbEntity
  8
0
  6
Continuous
 62
               7
100
AcDbLine
 10
448.6347331716571
 20
456.48798181401366
 30
0.0
 11
460.63473317165733
 21
468.48798181401372
 31
0.0
  0
LINE
  5
148
100
AcDbEntity
  8
0
  6
Continuous
 62
               7
100
AcDbLine
 10
446.61958127000696
 20
456.48798181401366
 30
0.0
 11
458.61958127000719
 21
444.48798181401372
 31
0.0
  0
LINE
  5
149
100
AcDbEntity
  8
0
  6
Continuous
 62
               7
100
AcDbLine
 10
441.56366535979157
 20
456.48798181401366
 30
0.0
 11
453.56366535979168
 21
468.48798181401372
 31
0.0
  0
LINE
  5
14A
100
AcDbEntity
  8
0
  6
Continuous
 62
               7
100
AcDbLine
 10
439.54851345814154
 20
456.48798181401366
 30
0.0
 11
451.54851345814166
 21
444.48798181401372
 31
0.0
  0
LINE
  5
14B
100
AcDbEntity
  8
0
  6
Continuous
 62
               3
100
AcDbLine
 10
809.46481906156782
 20
456.48798181401372
 30
0.0
 11
435.96481906156782
 21
456.48798181401366
 31
0.0
  0
LINE
  5
14C
100
AcDbEntity
  8
0
  6
Continuous
 62
               3
100
AcDbLine
 10
809.46481906156782
 20
444.48798181401372
 30
0.0
 11
435.96481906156782
 21
444.48798181401372
 31
0.0
  0
LINE
  5
14D
100
AcDbEntity
  8
0
  6
Continuous
 62
               7
100
AcDbLine
 10
435.96481906156788
 20
457.96020332765545
 30
0.0
 11
446.49259754792627
 21
468.48798181401372
 31
0.0
  0
LINE
  5
14E
100
AcDbEntity
  8
0
  6
Continuous
 62
               7
100
AcDbLine
 10
435.96481906156782
 20
453.00060839872179
 30
0.0
 11
444.47744564627612
 21
444.48798181401372
 31
0.0
  0
LINE
  5
14F
100
AcDbEntity
  8
0
  6
Continuous
 62
               7
100
AcDbLine
 10
435.96481906156788
 20
465.03127113952092
 30
0.0
 11
439.42152973606062
 21
468.48798181401372
 31
0.0
  0
LINE
  5
150
100
AcDbEntity
  8
0
  6
Continuous
 62
               7
100
AcDbLine
 10
435.96481906156782
 20
445.92954058685649
 30
0.0
 11
437.4063778344107
 21
444.48798181401372
 31
0.0
  0
LINE
  5
151
100
AcDbEntity
  8
0
  6
Continuous
 62
               7
100
AcDbLine
 10
585.46481906156782
 20
466.03884709034577
 30
0.0
 11
587.91395378523566
 21
468.48798181401372
 31
0.0
  0
LINE
  5
152
100
AcDbEntity
  8
0
  6
Continuous
 62
               7
100
AcDbLine
 10
585.46481906156782
 20
458.96777927847978
 30
0.0
 11
594.98502159710119
 21
468.48798181401372
 31
0.0
  0
LINE
  5
153
100
AcDbEntity
  8
0
  6
Continuous
 62
               7
100
AcDbLine
 10
590.05608940896741
 20
456.48798181401366
 30
0.0
 11
602.05608940896673
 21
468.48798181401372
 31
0.0
  0
LINE
  5
154
100
AcDbEntity
  8
0
  6
Continuous
 62
               3
100
AcDbLine
 10
585.46481906156782
 20
468.48798181401378
 30
0.0
 11
809.46481906156782
 21
468.48798181401372
 31
0.0
  0
LINE
  5
155
100
AcDbEntity
  8
0
  6
DASHED
 62
               6
100
AcDbLine
 10
585.46481906156782
 20
470.48798181401372
 30
0.0
 11
703.55435810471431
 21
470.48798181401372
 31
0.0
  0
LINE
  5
156
100
AcDbEntity
  8
0
  6
DASHED
 62
               6
100
AcDbLine
 10
481.46481906156782
 20
470.48798181401372
 30
0.0
 11
435.96481906156788
 21
470.48798181401372
 31
0.0
  0
LINE
  5
157
100
AcDbEntity
  8
0
  6
Continuous
 62
               7
100
AcDbLine
 10
481.46481906156782
 20
468.10486426832784
 30
0.0
 11
469.8479366072537
 21
456.48798181401361
 31
0.0
  0
LINE
  5
158
100
AcDbEntity
  8
0
  6
Continuous
 62
               3
100
AcDbLine
 10
481.46481906156782
 20
468.48798181401372
 30
0.0
 11
435.96481906156782
 21
468.48798181401372
 31
0.0
  0
LINE
  5
159
100
AcDbEntity
  8
0
  6
Continuous
 62
               7
100
AcDbLine
 10
481.46481906156782
 20
461.03379645646226
 30
0.0
 11
476.91900441911923
 21
456.48798181401361
 31
0.0
  0
LINE
  5
15A
100
AcDbEntity
  8
0
  6
Continuous
 62
               4
100
AcDbLine
 10
543.46481906156794
 20
477.48798585722903
 30
0.0
 11
543.46481906156794
 21
510.48798585722903
 31
0.0
  0
LINE
  5
15B
100
AcDbEntity
  8
0
  6
Continuous
 62
               4
100
AcDbLine
 10
543.46481906156794
 20
507.48798585722903
 30
0.0
 11
533.46481906156794
 21
507.48798585722903
 31
0.0
  0
LINE
  5
15C
100
AcDbEntity
  8
0
  6
DASHDOT
 62
               4
100
AcDbLine
 10
533.46481906156805
 20
450.48798181401372
 30
0.0
 11
533.46481906156805
 21
487.0314458785661
 31
0.0
  0
LINE
  5
15D
100
AcDbEntity
  8
0
  6
Continuous
 62
               4
100
AcDbLine
 10
533.46481906156805
 20
491.21351705504895
 30
0.0
 11
533.46481906156805
 21
553.48798181401366
 31
0.0
  0
LINE
  5
15E
100
AcDbEntity
  8
0
  6
Continuous
 62
               4
100
AcDbLine
 10
840.96481906156805
 20
550.48798181401366
 30
0.0
 11
533.46481906156805
 21
550.48798181401366
 31
0.0
  0
LINE
  5
15F
100
AcDbEntity
  8
0
  6
Continuous
 62
               4
100
AcDbLine
 10
533.46481906156805
 20
550.48798181401366
 30
0.0
 11
433.46481906156799
 21
550.48798181401366
 31
0.0
  0
LINE
  5
160
100
AcDbEntity
  8
0
  6
Continuous
 62
               4
100
AcDbLine
 10
433.46481906156799
 20
550.48798181401366
 30
0.0
 11
442.3280888386779
 21
552.05081541301593
 31
0.0
  0
LINE
  5
161
100
AcDbEntity
  8
0
  6
Continuous
 62
               4
100
AcDbLine
 10
433.46481906156799
 20
550.48798181401366
 30
0.0
 11
442.3280888386779
 21
548.92514821501118
 31
0.0
  0
LINE
  5
162
100
AcDbEntity
  8
0
  6
DASHED
 62
               6
100
AcDbLine
 10
583.46481906156782
 20
457.98798181401349
 30
0.0
 11
483.46481906156782
 21
457.98798181401349
 31
0.0
  0
LINE
  5
163
100
AcDbEntity
  8
0
  6
Continuous
 62
               2
100
AcDbLine
 10
543.46481906156782
 20
466.48798181401332
 30
0.0
 11
543.46481906156782
 21
472.48798181401332
 31
0.0
  0
LINE
  5
164
100
AcDbEntity
  8
0
  6
Continuous
 62
               2
100
AcDbLine
 10
518.46481906156794
 20
465.48798181401332
 30
0.0
 11
542.46481906156782
 21
465.48798181401332
 31
0.0
  0
LINE
  5
165
100
AcDbEntity
  8
0
  6
Continuous
 62
               2
100
AcDbLine
 10
518.46481906156782
 20
471.48798181401332
 30
0.0
 11
531.46481906156782
 21
471.48798181401332
 31
0.0
  0
LINE
  5
166
100
AcDbEntity
  8
0
  6
Continuous
 62
               2
100
AcDbLine
 10
532.22529132806892
 20
470.51077018449519
 30
0.0
 11
523.87900858240016
 21
469.03909534781212
 31
0.0
  0
LINE
  5
167
100
AcDbEntity
  8
0
  6
Continuous
 62
               7
100
AcDbLine
 10
462.45185231663618
 20
434.48798181402424
 30
0.0
 11
462.45185231663663
 21
470.48798181402424
 31
0.0
  0
LINE
  5
168
100
AcDbEntity
  8
0
  6
Continuous
 62
               7
100
AcDbLine
 10
459.95185231663663
 20
472.98798181402424
 30
0.0
 11
459.95185231663663
 21
472.48798181402424
 31
0.0
  0
LINE
  5
169
100
AcDbEntity
  8
0
  6
Continuous
 62
               7
100
AcDbLine
 10
467.45185231663618
 20
434.48798181402424
 30
0.0
 11
467.45185231663663
 21
470.48798181402424
 31
0.0
  0
LINE
  5
16A
100
AcDbEntity
  8
0
  6
Continuous
 62
               7
100
AcDbLine
 10
469.95185231663663
 20
472.98798181402424
 30
0.0
 11
469.95185231663663
 21
472.48798181402424
 31
0.0
  0
LINE
  5
16B
100
AcDbEntity
  8
0
  6
Continuous
 62
               7
100
AcDbLine
 10
459.95185231663663
 20
472.98798181402424
 30
0.0
 11
469.95185231663663
 21
472.98798181402424
 31
0.0
  0
LINE
  5
16C
100
AcDbEntity
  8
0
  6
Continuous
 62
               7
100
AcDbLine
 10
462.45185231663663
 20
470.48798181402424
 30
0.0
 11
467.45185231663663
 21
470.48798181402424
 31
0.0
  0
LINE
  5
16D
100
AcDbEntity
  8
0
  6
Continuous
 62
               7
100
AcDbLine
 10
459.95185231663663
 20
472.48798181402424
 30
0.0
 11
462.45185231663663
 21
470.48798181402424
 31
0.0
  0
LINE
  5
16E
100
AcDbEntity
  8
0
  6
Continuous
 62
               7
100
AcDbLine
 10
467.45185231663663
 20
470.48798181402424
 30
0.0
 11
469.95185231663663
 21
472.48798181402424
 31
0.0
  0
LINE
  5
16F
100
AcDbEntity
  8
0
  6
Continuous
 62
               7
100
AcDbLine
 10
459.95185231663663
 20
472.48798181402424
 30
0.0
 11
469.95185231663663
 21
472.48798181402424
 31
0.0
  0
LINE
  5
170
100
AcDbEntity
  8
0
  6
Continuous
 62
               7
100
AcDbLine
 10
462.45185231663618
 20
434.48798181402424
 30
0.0
 11
464.95185231663618
 21
432.98798181402424
 31
0.0
  0
LINE
  5
171
100
AcDbEntity
  8
0
  6
Continuous
 62
               7
100
AcDbLine
 10
467.45185231663618
 20
434.48798181402424
 30
0.0
 11
464.95185231663618
 21
432.98798181402424
 31
0.0
  0
LINE
  5
172
100
AcDbEntity
  8
0
  6
Continuous
 62
               7
100
AcDbLine
 10
462.45185231663618
 20
463.48798181402424
 30
0.0
 11
467.45185231663618
 21
465.48798181402424
 31
0.0
  0
LINE
  5
173
100
AcDbEntity
  8
0
  6
Continuous
 62
               7
100
AcDbLine
 10
462.45185231663618
 20
461.48798181402424
 30
0.0
 11
467.45185231663663
 21
463.48798181402424
 31
0.0
  0
LINE
  5
174
100
AcDbEntity
  8
0
  6
Continuous
 62
               7
100
AcDbLine
 10
462.45185231663618
 20
459.48798181402424
 30
0.0
 11
467.45185231663618
 21
461.48798181402424
 31
0.0
  0
LINE
  5
175
100
AcDbEntity
  8
0
  6
Continuous
 62
               7
100
AcDbLine
 10
462.45185231663618
 20
457.48798181402424
 30
0.0
 11
467.45185231663618
 21
459.48798181402424
 31
0.0
  0
LINE
  5
176
100
AcDbEntity
  8
0
  6
Continuous
 62
               7
100
AcDbLine
 10
462.45185231663618
 20
455.48798181402424
 30
0.0
 11
467.45185231663618
 21
457.48798181402424
 31
0.0
  0
LINE
  5
177
100
AcDbEntity
  8
0
  6
Continuous
 62
               7
100
AcDbLine
 10
462.45185231663618
 20
453.48798181402447
 30
0.0
 11
467.45185231663618
 21
455.48798181402424
 31
0.0
  0
LINE
  5
178
100
AcDbEntity
  8
0
  6
Continuous
 62
               7
100
AcDbLine
 10
462.45185231663618
 20
451.48798181402424
 30
0.0
 11
467.45185231663618
 21
453.48798181402424
 31
0.0
  0
LINE
  5
179
100
AcDbEntity
  8
0
  6
Continuous
 62
               7
100
AcDbLine
 10
462.45185231663618
 20
449.48798181402447
 30
0.0
 11
467.45185231663618
 21
451.48798181402447
 31
0.0
  0
LINE
  5
17A
100
AcDbEntity
  8
0
  6
Continuous
 62
               7
100
AcDbLine
 10
462.45185231663618
 20
447.48798181402447
 30
0.0
 11
467.45185231663618
 21
449.48798181402447
 31
0.0
  0
LINE
  5
17B
100
AcDbEntity
  8
0
  6
Continuous
 62
               7
100
AcDbLine
 10
462.45185231663618
 20
445.48798181402424
 30
0.0
 11
467.45185231663618
 21
447.48798181402447
 31
0.0
  0
LINE
  5
17C
100
AcDbEntity
  8
0
  6
Continuous
 62
               7
100
AcDbLine
 10
462.45185231663618
 20
443.48798181402424
 30
0.0
 11
467.45185231663618
 21
445.48798181402447
 31
0.0
  0
LINE
  5
17D
100
AcDbEntity
  8
0
  6
Continuous
 62
               7
100
AcDbLine
 10
462.45185231663618
 20
441.48798181402447
 30
0.0
 11
465.45185231663618
 21
442.68798181402451
 31
0.0
  0
LINE
  5
17E
100
AcDbEntity
  8
0
  6
Continuous
 62
               7
100
AcDbLine
 10
466.95185231663618
 20
434.98798181402424
 30
0.0
 11
466.95185231663618
 21
443.28798181402465
 31
0.0
  0
LINE
  5
17F
100
AcDbEntity
  8
0
  6
Continuous
 62
               7
100
AcDbLine
 10
465.45185231663618
 20
442.68798181402428
 30
0.0
 11
466.50185231663636
 21
443.73798181402447
 31
0.0
  0
LINE
  5
180
100
AcDbEntity
  8
0
  6
Continuous
 62
               7
100
AcDbLine
 10
466.95185231663618
 20
443.28798181402442
 30
0.0
 11
466.50185231663636
 21
443.73798181402447
 31
0.0
  0
LINE
  5
181
100
AcDbEntity
  8
0
  6
Continuous
 62
               7
100
AcDbLine
 10
466.95185231663618
 20
443.28798181402465
 30
0.0
 11
467.45185231663618
 21
443.48798181402447
 31
0.0
  0
LINE
  5
182
100
AcDbEntity
  8
0
  6
Continuous
 62
               7
100
AcDbLine
 10
467.45185231663618
 20
434.48798181402424
 30
0.0
 11
466.95185231663618
 21
434.98798181402424
 31
0.0
  0
LINE
  5
183
100
AcDbEntity
  8
0
  6
Continuous
 62
               7
100
AcDbLine
 10
597.9906283308635
 20
433.48797777079812
 30
0.0
 11
597.99062833086396
 21
469.48797777079812
 31
0.0
  0
LINE
  5
184
100
AcDbEntity
  8
0
  6
Continuous
 62
               7
100
AcDbLine
 10
595.49062833086396
 20
471.98797777079812
 30
0.0
 11
595.49062833086396
 21
471.48797777079812
 31
0.0
  0
LINE
  5
185
100
AcDbEntity
  8
0
  6
Continuous
 62
               7
100
AcDbLine
 10
602.9906283308635
 20
433.48797777079812
 30
0.0
 11
602.99062833086396
 21
469.48797777079812
 31
0.0
  0
LINE
  5
186
100
AcDbEntity
  8
0
  6
Continuous
 62
               7
100
AcDbLine
 10
605.49062833086396
 20
471.98797777079812
 30
0.0
 11
605.49062833086396
 21
471.48797777079812
 31
0.0
  0
LINE
  5
187
100
AcDbEntity
  8
0
  6
Continuous
 62
               7
100
AcDbLine
 10
595.49062833086396
 20
471.98797777079812
 30
0.0
 11
605.49062833086396
 21
471.98797777079812
 31
0.0
  0
LINE
  5
188
100
AcDbEntity
  8
0
  6
Continuous
 62
               7
100
AcDbLine
 10
597.99062833086396
 20
469.48797777079812
 30
0.0
 11
602.99062833086396
 21
469.48797777079812
 31
0.0
  0
LINE
  5
189
100
AcDbEntity
  8
0
  6
Continuous
 62
               7
100
AcDbLine
 10
595.49062833086396
 20
471.48797777079812
 30
0.0
 11
597.99062833086396
 21
469.48797777079812
 31
0.0
  0
LINE
  5
18A
100
AcDbEntity
  8
0
  6
Continuous
 62
               7
100
AcDbLine
 10
602.99062833086396
 20
469.48797777079812
 30
0.0
 11
605.49062833086396
 21
471.48797777079812
 31
0.0
  0
LINE
  5
18B
100
AcDbEntity
  8
0
  6
Continuous
 62
               7
100
AcDbLine
 10
595.49062833086396
 20
471.48797777079812
 30
0.0
 11
605.49062833086396
 21
471.48797777079812
 31
0.0
  0
LINE
  5
18C
100
AcDbEntity
  8
0
  6
Continuous
 62
               7
100
AcDbLine
 10
597.9906283308635
 20
433.48797777079812
 30
0.0
 11
600.4906283308635
 21
431.98797777079812
 31
0.0
  0
LINE
  5
18D
100
AcDbEntity
  8
0
  6
Continuous
 62
               7
100
AcDbLine
 10
602.9906283308635
 20
433.48797777079812
 30
0.0
 11
600.4906283308635
 21
431.98797777079812
 31
0.0
  0
LINE
  5
18E
100
AcDbEntity
  8
0
  6
Continuous
 62
               7
100
AcDbLine
 10
597.9906283308635
 20
462.48797777079812
 30
0.0
 11
602.9906283308635
 21
464.48797777079812
 31
0.0
  0
LINE
  5
18F
100
AcDbEntity
  8
0
  6
Continuous
 62
               7
100
AcDbLine
 10
597.9906283308635
 20
460.48797777079812
 30
0.0
 11
602.99062833086396
 21
462.48797777079812
 31
0.0
  0
LINE
  5
190
100
AcDbEntity
  8
0
  6
Continuous
 62
               7
100
AcDbLine
 10
597.9906283308635
 20
458.48797777079812
 30
0.0
 11
602.9906283308635
 21
460.48797777079812
 31
0.0
  0
LINE
  5
191
100
AcDbEntity
  8
0
  6
Continuous
 62
               7
100
AcDbLine
 10
597.9906283308635
 20
456.48797777079812
 30
0.0
 11
602.9906283308635
 21
458.48797777079812
 31
0.0
  0
LINE
  5
192
100
AcDbEntity
  8
0
  6
Continuous
 62
               7
100
AcDbLine
 10
597.9906283308635
 20
454.48797777079812
 30
0.0
 11
602.9906283308635
 21
456.48797777079812
 31
0.0
  0
LINE
  5
193
100
AcDbEntity
  8
0
  6
Continuous
 62
               7
100
AcDbLine
 10
597.9906283308635
 20
452.48797777079835
 30
0.0
 11
602.9906283308635
 21
454.48797777079812
 31
0.0
  0
LINE
  5
194
100
AcDbEntity
  8
0
  6
Continuous
 62
               7
100
AcDbLine
 10
597.9906283308635
 20
450.48797777079812
 30
0.0
 11
602.9906283308635
 21
452.48797777079812
 31
0.0
  0
LINE
  5
195
100
AcDbEntity
  8
0
  6
Continuous
 62
               7
100
AcDbLine
 10
597.9906283308635
 20
448.48797777079835
 30
0.0
 11
602.9906283308635
 21
450.48797777079835
 31
0.0
  0
LINE
  5
196
100
AcDbEntity
  8
0
  6
Continuous
 62
               7
100
AcDbLine
 10
597.9906283308635
 20
446.48797777079835
 30
0.0
 11
602.9906283308635
 21
448.48797777079835
 31
0.0
  0
LINE
  5
197
100
AcDbEntity
  8
0
  6
Continuous
 62
               7
100
AcDbLine
 10
597.9906283308635
 20
444.48797777079812
 30
0.0
 11
602.9906283308635
 21
446.48797777079835
 31
0.0
  0
LINE
  5
198
100
AcDbEntity
  8
0
  6
Continuous
 62
               7
100
AcDbLine
 10
597.9906283308635
 20
442.48797777079812
 30
0.0
 11
602.9906283308635
 21
444.48797777079835
 31
0.0
  0
LINE
  5
199
100
AcDbEntity
  8
0
  6
Continuous
 62
               7
100
AcDbLine
 10
597.9906283308635
 20
440.48797777079835
 30
0.0
 11
600.9906283308635
 21
441.6879777707984
 31
0.0
  0
LINE
  5
19A
100
AcDbEntity
  8
0
  6
Continuous
 62
               7
100
AcDbLine
 10
602.4906283308635
 20
433.98797777079812
 30
0.0
 11
602.4906283308635
 21
442.28797777079853
 31
0.0
  0
LINE
  5
19B
100
AcDbEntity
  8
0
  6
Continuous
 62
               7
100
AcDbLine
 10
600.9906283308635
 20
441.68797777079817
 30
0.0
 11
602.04062833086368
 21
442.73797777079835
 31
0.0
  0
LINE
  5
19C
100
AcDbEntity
  8
0
  6
Continuous
 62
               7
100
AcDbLine
 10
602.4906283308635
 20
442.28797777079831
 30
0.0
 11
602.04062833086368
 21
442.73797777079835
 31
0.0
  0
LINE
  5
19D
100
AcDbEntity
  8
0
  6
Continuous
 62
               7
100
AcDbLine
 10
602.4906283308635
 20
442.28797777079853
 30
0.0
 11
602.9906283308635
 21
442.48797777079835
 31
0.0
  0
LINE
  5
19E
100
AcDbEntity
  8
0
  6
Continuous
 62
               7
100
AcDbLine
 10
602.9906283308635
 20
433.48797777079812
 30
0.0
 11
602.4906283308635
 21
433.98797777079812
 31
0.0
  0
LINE
  5
19F
100
AcDbEntity
  8
0
  6
Continuous
 62
               6
100
AcDbLine
 10
583.46481906156828
 20
471.48797777079812
 30
0.0
 11
618.46481906156828
 21
471.48797777079812
 31
0.0
  0
LINE
  5
1A0
100
AcDbEntity
  8
0
  6
Continuous
 62
               6
100
AcDbLine
 10
483.46481906156782
 20
471.48797777079812
 30
0.0
 11
483.46481906156782
 21
459.8879818140133
 31
0.0
  0
LINE
  5
1A1
100
AcDbEntity
  8
0
  6
Continuous
 62
               6
100
AcDbLine
 10
448.46481906156782
 20
471.48797777079812
 30
0.0
 11
483.46481906156782
 21
471.48797777079812
 31
0.0
  0
LINE
  5
1A2
100
AcDbEntity
  8
0
  6
Continuous
 62
               6
100
AcDbLine
 10
583.46481906156828
 20
459.8879818140133
 30
0.0
 11
483.46481906156782
 21
459.8879818140133
 31
0.0
  0
LINE
  5
1A3
100
AcDbEntity
  8
0
  6
Continuous
 62
               6
100
AcDbLine
 10
583.46481906156828
 20
459.8879818140133
 30
0.0
 11
583.46481906156828
 21
471.48797777079812
 31
0.0
  0
LINE
  5
1A4
100
AcDbEntity
  8
0
  6
Continuous
 62
               3
100
AcDbLine
 10
531.71481906154884
 20
472.48798181402793
 30
0.0
 11
445.46481906156805
 21
472.4879818140206
 31
0.0
  0
LINE
  5
1A5
100
AcDbEntity
  8
0
  6
Continuous
 62
               3
100
AcDbLine
 10
531.71481906154895
 20
470.98798181402799
 30
0.0
 11
524.50453532012898
 21
470.23015045533674
 31
0.0
  0
LINE
  5
1A6
100
AcDbEntity
  8
0
  6
Continuous
 62
               2
100
AcDbLine
 10
435.96481906156782
 20
473.48798181401361
 30
0.0
 11
531.96481906156851
 21
473.48798181401361
 31
0.0
  0
LINE
  5
1A7
100
AcDbEntity
  8
0
  6
Continuous
 62
               2
100
AcDbLine
 10
838.46481906156805
 20
473.48798181401361
 30
0.0
 11
544.46481906156782
 21
473.48798181401355
 31
0.0
  0
LINE
  5
1A8
100
AcDbEntity
  8
0
  6
Continuous
 62
               4
100
AcDbLine
 10
499.46481906156794
 20
472.48798181402475
 30
0.0
 11
493.67973057438883
 21
479.38238180209549
 31
0.0
  0
LINE
  5
1A9
100
AcDbEntity
  8
0
  6
Continuous
 62
               4
100
AcDbLine
 10
499.46481906156794
 20
472.48798181402475
 30
0.0
 11
496.38663777163663
 21
480.94521540109776
 31
0.0
  0
LINE
  5
1AA
100
AcDbEntity
  8
0
  6
Continuous
 62
               4
100
AcDbLine
 10
563.46481906156782
 20
459.88798181401307
 30
0.0
 11
566.54300035149879
 21
468.34521540108625
 31
0.0
  0
LINE
  5
1AB
100
AcDbEntity
  8
0
  6
Continuous
 62
               4
100
AcDbLine
 10
563.46481906156782
 20
459.88798181401307
 30
0.0
 11
569.24990754874659
 21
466.78238180208393
 31
0.0
  0
LINE
  5
1AC
100
AcDbEntity
  8
0
  6
Continuous
 62
               4
100
AcDbLine
 10
475.27939628199408
 20
514.37836287077982
 30
0.0
 11
499.46481906156794
 21
472.48798181402475
 31
0.0
  0
LINE
  5
1AD
100
AcDbEntity
  8
0
  6
Continuous
 62
               4
100
AcDbLine
 10
436.87202328630076
 20
514.37836287077982
 30
0.0
 11
475.27939628199408
 21
514.37836287077982
 31
0.0
  0
LINE
  5
1AE
100
AcDbEntity
  8
0
  6
Continuous
 62
               4
100
AcDbLine
 10
582.5922702069098
 20
493.01769901703688
 30
0.0
 11
563.46481906156782
 21
459.88798181401307
 31
0.0
  0
LINE
  5
1AF
100
AcDbEntity
  8
0
  6
Continuous
 62
               4
100
AcDbLine
 10
582.5922702069098
 20
493.01769901703688
 30
0.0
 11
617.75159135067702
 21
493.01769901703688
 31
0.0
  0
CIRCLE
  5
1B0
100
AcDbEntity
  8
0
  6
Continuous
 62
               4
100
AcDbCircle
 10
840.96481906156805
 20
494.48798181401361
 30
0.0
 40
1.5
  0
CIRCLE
  5
1B1
100
AcDbEntity
  8
0
  6
Continuous
 62
               4
100
AcDbCircle
 10
815.96481906156782
 20
494.48798181401361
 30
0.0
 40
1.5
  0
CIRCLE
  5
1B2
100
AcDbEntity
  8
0
  6
Continuous
 62
               4
100
AcDbCircle
 10
840.96481906156805
 20
550.48798181401366
 30
0.0
 40
1.5
  0
CIRCLE
  5
1B3
100
AcDbEntity
  8
0
  6
Continuous
 62
               4
100
AcDbCircle
 10
861.96481906156805
 20
470.48798564645369
 30
0.0
 40
1.5
  0
CIRCLE
  5
1B4
100
AcDbEntity
  8
0
  6
Continuous
 62
               4
100
AcDbCircle
 10
861.96481906156805
 20
430.48798564645369
 30
0.0
 40
1.5
  0
CIRCLE
  5
1B5
100
AcDbEntity
  8
0
  6
Continuous
 62
               4
100
AcDbCircle
 10
815.96481906156782
 20
409.48798564645352
 30
0.0
 40
1.5
  0
CIRCLE
  5
1B6
100
AcDbEntity
  8
0
  6
Continuous
 62
               4
100
AcDbCircle
 10
810.96481906156782
 20
409.48798564645352
 30
0.0
 40
1.5
  0
CIRCLE
  5
1B7
100
AcDbEntity
  8
0
  6
Continuous
 62
               4
100
AcDbCircle
 10
675.83901370169565
 20
450.48798181401372
 30
0.0
 40
1.5
  0
CIRCLE
  5
1B8
100
AcDbEntity
  8
0
  6
Continuous
 62
               4
100
AcDbCircle
 10
682.86565351783997
 20
462.48798181401372
 30
0.0
 40
1.5
  0
CIRCLE
  5
1B9
100
AcDbEntity
  8
0
  6
Continuous
 62
               4
100
AcDbCircle
 10
687.48445567135707
 20
470.48798181401372
 30
0.0
 40
1.5
  0
CIRCLE
  5
1BA
100
AcDbEntity
  8
0
  6
Continuous
 62
               4
100
AcDbCircle
 10
689.21650647892591
 20
473.48798181401361
 30
0.0
 40
1.5
  0
CIRCLE
  5
1BB
100
AcDbEntity
  8
0
  6
Continuous
 62
               4
100
AcDbCircle
 10
665.96481906156794
 20
444.48798181401372
 30
0.0
 40
1.5
  0
CIRCLE
  5
1BC
100
AcDbEntity
  8
0
  6
Continuous
 62
               4
100
AcDbCircle
 10
665.96481906156794
 20
473.48798181401361
 30
0.0
 40
1.5
  0
CIRCLE
  5
1BD
100
AcDbEntity
  8
0
  6
Continuous
 62
               4
100
AcDbCircle
 10
651.96481906156794
 20
444.48798181401372
 30
0.0
 40
1.5
  0
CIRCLE
  5
1BE
100
AcDbEntity
  8
0
  6
Continuous
 62
               4
100
AcDbCircle
 10
651.96481906156794
 20
456.48798181401361
 30
0.0
 40
1.5
  0
CIRCLE
  5
1BF
100
AcDbEntity
  8
0
  6
Continuous
 62
               4
100
AcDbCircle
 10
651.96481906156794
 20
456.48798181401361
 30
0.0
 40
1.5
  0
CIRCLE
  5
1C0
100
AcDbEntity
  8
0
  6
Continuous
 62
               4
100
AcDbCircle
 10
651.96481906156794
 20
468.48798181401372
 30
0.0
 40
1.5
  0
CIRCLE
  5
1C1
100
AcDbEntity
  8
0
  6
Continuous
 62
               4
100
AcDbCircle
 10
651.96481906156794
 20
468.48798181401372
 30
0.0
 40
1.5
  0
CIRCLE
  5
1C2
100
AcDbEntity
  8
0
  6
Continuous
 62
               4
100
AcDbCircle
 10
651.96481906156794
 20
473.48798181401361
 30
0.0
 40
1.5
  0
CIRCLE
  5
1C3
100
AcDbEntity
  8
0
  6
Continuous
 62
               4
100
AcDbCircle
 10
543.46481906156794
 20
507.48798585722903
 30
0.0
 40
1.500000000000002
  0
CIRCLE
  5
1C4
100
AcDbEntity
  8
0
  6
Continuous
 62
               4
100
AcDbCircle
 10
533.46481906156794
 20
507.48798585722903
 30
0.0
 40
1.500000000000002
  0
CIRCLE
  5
1C5
100
AcDbEntity
  8
0
  6
Continuous
 62
               4
100
AcDbCircle
 10
533.46481906156805
 20
550.48798181401366
 30
0.0
 40
1.5
  0
CIRCLE
  5
1C6
100
AcDbEntity
  8
0
  6
Continuous
 62
               4
100
AcDbCircle
 10
533.46481906156805
 20
550.48798181401366
 30
0.0
 40
1.5
  0
ARC
  5
1C7
100
AcDbEntity
  8
0
  6
Continuous
 62
               6
100
AcDbCircle
 10
804.86481915693525
 20
439.8879819093811
 30
0.0
 40
2.2999999523162842
100
AcDbArc
 50
0.0
 51
90.000000000000028
  0
ARC
  5
1C8
100
AcDbEntity
  8
0
  6
Continuous
 62
               6
100
AcDbCircle
 10
804.86481915693525
 20
439.8879819093811
 30
0.0
 40
4.5999999046325684
100
AcDbArc
 50
0.0
 51
90.000000000000028
  0
ARC
  5
1C9
100
AcDbEntity
  8
0
  6
Continuous
 62
               6
100
AcDbCircle
 10
764.06481896620051
 20
439.8879819093811
 30
0.0
 40
2.2999999523162842
100
AcDbArc
 50
90.000000000000028
 51
180.0
  0
ARC
  5
1CA
100
AcDbEntity
  8
0
  6
Continuous
 62
               6
100
AcDbCircle
 10
764.06481896620051
 20
439.8879819093811
 30
0.0
 40
4.5999999046325684
100
AcDbArc
 50
90.000000000000028
 51
180.0
  0
ARC
  5
1CB
100
AcDbEntity
  8
0
  6
Continuous
 62
               6
100
AcDbCircle
 10
764.06481896620051
 20
349.08798171864612
 30
0.0
 40
4.5999999046325684
100
AcDbArc
 50
180.0
 51
270.0
  0
ARC
  5
1CC
100
AcDbEntity
  8
0
  6
Continuous
 62
               6
100
AcDbCircle
 10
764.06481896620051
 20
349.08798171864612
 30
0.0
 40
2.2999999523162842
100
AcDbArc
 50
180.0
 51
270.0
  0
ARC
  5
1CD
100
AcDbEntity
  8
0
  6
Continuous
 62
               6
100
AcDbCircle
 10
804.86481915693525
 20
349.08798171864612
 30
0.0
 40
2.2999999523162842
100
AcDbArc
 50
270.0
 51
0.0
  0
ARC
  5
1CE
100
AcDbEntity
  8
0
  6
Continuous
 62
               6
100
AcDbCircle
 10
804.86481915693525
 20
349.08798171864612
 30
0.0
 40
4.5999999046325684
100
AcDbArc
 50
270.0
 51
0.0
  0
ARC
  5
1CF
100
AcDbEntity
  8
0
  6
Continuous
 62
               2
100
AcDbCircle
 10
838.46481906156805
 20
470.98798181401372
 30
0.0
 40
2.5000000000000142
100
AcDbArc
 50
270.0
 51
90.0
  0
ARC
  5
1D0
100
AcDbEntity
  8
0
  6
Continuous
 62
               6
100
AcDbCircle
 10
751.46481906156794
 20
343.48798181401349
 30
0.0
 40
2.0
100
AcDbArc
 50
180.0
 51
270.0
  0
ARC
  5
1D1
100
AcDbEntity
  8
0
  6
Continuous
 62
               6
100
AcDbCircle
 10
778.46481906156794
 20
316.48798181401349
 30
0.0
 40
2.0
100
AcDbArc
 50
180.0
 51
270.0
  0
ARC
  5
1D2
100
AcDbEntity
  8
0
  6
Continuous
 62
               6
100
AcDbCircle
 10
772.46481906156794
 20
337.48798181401349
 30
0.0
 40
4.0
100
AcDbArc
 50
0.0
 51
90.000000000000199
  0
ARC
  5
1D3
100
AcDbEntity
  8
0
  6
Continuous
 62
               6
100
AcDbCircle
 10
807.46481906156805
 20
310.48798181401361
 30
0.0
 40
2.0
100
AcDbArc
 50
0.0
 51
90.000000000000028
  0
ARC
  5
1D4
100
AcDbEntity
  8
0
  6
Continuous
 62
               6
100
AcDbCircle
 10
780.46481906156794
 20
337.48798181401349
 30
0.0
 40
2.0
100
AcDbArc
 50
0.0
 51
90.000000000000028
  0
ARC
  5
1D5
100
AcDbEntity
  8
0
  6
Continuous
 62
               6
100
AcDbCircle
 10
786.46481906156805
 20
316.48798181401349
 30
0.0
 40
4.0
100
AcDbArc
 50
180.0
 51
270.0
  0
ARC
  5
1D6
100
AcDbEntity
  8
0
  6
Continuous
 62
               2
100
AcDbCircle
 10
809.46481906156782
 20
253.98798181401361
 30
0.0
 40
1.500000000000004
100
AcDbArc
 50
180.0
 51
0.0
  0
ARC
  5
1D7
100
AcDbEntity
  8
0
  6
Continuous
 62
               7
100
AcDbCircle
 10
797.84504225558885
 20
298.12837919056869
 30
0.0
 40
13.0
100
AcDbArc
 50
247.38013505196099
 51
292.61986494804154
  0
ARC
  5
1D8
100
AcDbEntity
  8
0
  6
Continuous
 62
               7
100
AcDbCircle
 10
817.33526391891291
 20
301.55370938428848
 30
0.0
 40
20.0
100
AcDbArc
 50
161.71562731393624
 51
181.7917310571265
  0
ARC
  5
1D9
100
AcDbEntity
  8
0
  6
Continuous
 62
               2
100
AcDbCircle
 10
815.21481906156782
 20
431.23798564645369
 30
0.0
 40
0.750000000000007
100
AcDbArc
 50
180.0
 51
0.0
  0
ARC
  5
1DA
100
AcDbEntity
  8
0
  6
Continuous
 62
               7
100
AcDbCircle
 10
737.95302320930728
 20
438.32192827364338
 30
0.0
 40
30.0
100
AcDbArc
 50
344.86278517270802
 51
2.9923020128758626
  0
ARC
  5
1DB
100
AcDbEntity
  8
0
  6
Continuous
 62
               7
100
AcDbCircle
 10
751.69030097089285
 20
439.52192827364343
 30
0.0
 40
30.0
100
AcDbArc
 50
344.86278517270802
 51
2.9923020128758626
  0
ARC
  5
1DC
100
AcDbEntity
  8
0
  6
Continuous
 62
               2
100
AcDbCircle
 10
838.71481906156805
 20
471.23798177143095
 30
0.0
 40
0.749999999999996
100
AcDbArc
 50
269.99999024077198
 51
89.999990240771467
  0
ARC
  5
1DD
100
AcDbEntity
  8
0
  6
DASHED
 62
               6
100
AcDbCircle
 10
483.46481906156782
 20
458.98798181401349
 30
0.0
 40
1.0
100
AcDbArc
 50
180.0
 51
270.0
  0
ARC
  5
1DE
100
AcDbEntity
  8
0
  6
DASHED
 62
               6
100
AcDbCircle
 10
585.46481906156782
 20
469.48798181401372
 30
0.0
 40
1.0
100
AcDbArc
 50
90.000000000000028
 51
180.0
  0
ARC
  5
1DF
100
AcDbEntity
  8
0
  6
DASHED
 62
               6
100
AcDbCircle
 10
481.46481906156782
 20
469.48798181401366
 30
0.0
 40
1.0
100
AcDbArc
 50
0.0
 51
90.000000000000028
  0
ARC
  5
1E0
100
AcDbEntity
  8
0
  6
DASHED
 62
               6
100
AcDbCircle
 10
583.46481906156782
 20
458.98798181401349
 30
0.0
 40
1.0
100
AcDbArc
 50
270.0
 51
0.0
  0
ARC
  5
1E1
100
AcDbEntity
  8
0
  6
Continuous
 62
               2
100
AcDbCircle
 10
542.46481906156782
 20
466.48798181401332
 30
0.0
 40
1.0
100
AcDbArc
 50
269.99999999999994
 51
0.0
  0
ARC
  5
1E2
100
AcDbEntity
  8
0
  6
Continuous
 62
               2
100
AcDbCircle
 10
544.46481906156782
 20
472.48798181401332
 30
0.0
 40
1.0
100
AcDbArc
 50
89.999999999999957
 51
180.0
  0
ARC
  5
1E3
100
AcDbEntity
  8
0
  6
Continuous
 62
               2
100
AcDbCircle
 10
518.46481906156782
 20
468.48798181401332
 30
0.0
 40
3.0
100
AcDbArc
 50
90.000000000000028
 51
270.0
  0
ARC
  5
1E4
100
AcDbEntity
  8
0
  6
Continuous
 62
               2
100
AcDbCircle
 10
531.96481906156851
 20
471.98798181401355
 30
0.0
 40
1.5
100
AcDbArc
 50
279.99999999999966
 51
90.0
  0
ARC
  5
1E5
100
AcDbEntity
  8
0
  6
Continuous
 62
               7
100
AcDbCircle
 10
435.49275559612943
 20
441.12192827365391
 30
0.0
 40
30.0
100
AcDbArc
 50
344.86278517270802
 51
2.9923020128758626
  0
ARC
  5
1E6
100
AcDbEntity
  8
0
  6
Continuous
 62
               7
100
AcDbCircle
 10
571.03153161035675
 20
440.12192423042779
 30
0.0
 40
30.0
100
AcDbArc
 50
344.86278517270802
 51
2.9923020128758626
  0
ARC
  5
1E7
100
AcDbEntity
  8
0
  6
Continuous
 62
               3
100
AcDbCircle
 10
531.71481906154895
 20
471.73798181402805
 30
0.0
 40
0.749999999999886
100
AcDbArc
 50
270.00000000000875
 51
90.000000000008654
  0
TEXT
  5
1E8
100
AcDbEntity
  8
0
 62
               7
100
AcDbText
 10
1026.8776231905965
 20
155.88182410693537
 30
0.0
 40
8.9999997615814333
  1
ケラバ詳細図 【S=1/3】
 41
0.9999999999999998
 72
               5
 11
1125.8776205679924
 21
155.88182410693537
 31
0.0
100
AcDbText
  0
TEXT
  5
1E9
100
AcDbEntity
  8
0
 62
               7
100
AcDbText
 10
823.66484879012501
 20
495.9883134556747
 30
0.0
 40
9.6000000000000103
  1
25
 41
1.0000000000000013
 72
               5
 11
833.26484879012503
 21
495.9883134556747
 31
0.0
100
AcDbText
  0
TEXT
  5
1EA
100
AcDbEntity
  8
0
 62
               7
100
AcDbText
 10
655.26464127059376
 20
551.98831345567464
 30
0.0
 40
9.6000000000000103
  1
（割付により調整）
 72
               5
 11
741.66464127059385
 21
551.98831345567464
 31
0.0
100
AcDbText
  0
TEXT
  5
1EB
100
AcDbEntity
  8
0
 62
               7
100
AcDbText
 10
860.46550796981251
 20
445.68841721544032
 30
0.0
 40
9.6000000000000103
  1
40
 50
89.999982013910653
 41
0.9999999999999972
 72
               5
 11
860.4655109834107
 21
455.28841721543984
 31
0.0
100
AcDbText
  0
TEXT
  5
1EC
100
AcDbEntity
  8
0
 62
               7
100
AcDbText
 10
892.73796890731251
 20
317.6752031041122
 30
0.0
 40
9.6000000000000103
  1
力板
 41
1.0000000000000013
 72
               5
 11
911.93796890731255
 21
317.6752031041122
 31
0.0
100
AcDbText
  0
TEXT
  5
1ED
100
AcDbEntity
  8
0
 62
               7
100
AcDbText
 10
811.06475113387501
 20
410.98822190294032
 30
0.0
 40
9.6000000000000103
  1
5
 41
0.9999999999999895
 72
               5
 11
815.86475113387496
 21
410.98822190294032
 31
0.0
100
AcDbText
  0
TEXT
  5
1EE
100
AcDbEntity
  8
0
 62
               7
100
AcDbText
 10
664.46465347762501
 20
454.1881425572372
 30
0.0
 40
9.6000000000000103
  1
29
 50
89.999982013910653
 41
0.9999999999999972
 72
               5
 11
664.4646564912232
 21
463.78814255723671
 31
0.0
100
AcDbText
  0
TEXT
  5
1EF
100
AcDbEntity
  8
0
 62
               7
100
AcDbText
 10
650.46465347762501
 20
445.68817307481532
 30
0.0
 40
9.6000000000000103
  1
12
 50
89.999982013910653
 41
0.9999999999999972
 72
               5
 11
650.4646564912232
 21
455.28817307481484
 31
0.0
100
AcDbText
  0
TEXT
  5
1F0
100
AcDbEntity
  8
0
 62
               7
100
AcDbText
 10
650.46465347762501
 20
457.6881425572372
 30
0.0
 40
9.6000000000000103
  1
12
 50
89.999982013910653
 41
0.9999999999999972
 72
               5
 11
650.4646564912232
 21
467.28814255723671
 31
0.0
100
AcDbText
  0
TEXT
  5
1F1
100
AcDbEntity
  8
0
 62
               7
100
AcDbText
 10
650.46465347762501
 20
474.58822800645595
 30
0.0
 40
9.6000000000000103
  1
5
 50
89.999982013910653
 41
1.0000000000000031
 72
               5
 11
650.4646549844241
 21
479.38822800645573
 31
0.0
100
AcDbText
  0
TEXT
  5
1F2
100
AcDbEntity
  8
0
 62
               7
100
AcDbText
 10
761.38528574975476
 20
583.99130614080377
 30
0.0
 40
9.6000000000000103
  1
アスファルトルーフィング 22kg
 50
359.99998269715599
 41
0.9999999999999998
 72
               5
 11
900.58528574974855
 21
583.99126410357326
 31
0.0
100
AcDbText
  0
TEXT
  5
1F3
100
AcDbEntity
  8
0
 62
               7
100
AcDbText
 10
761.38528091790749
 20
567.99136717596161
 30
0.0
 40
9.6000000000000103
  1
硬質木片セメント板 12mm＋12mm
 50
359.99998269715599
 41
0.9999999999999998
 72
               5
 11
900.58528091790129
 21
567.9913251387311
 31
0.0
100
AcDbText
  0
TEXT
  5
1F4
100
AcDbEntity
  8
0
 62
               7
100
AcDbText
 10
885.96481906156828
 20
488.7159745884872
 30
0.0
 40
9.6000000000000103
  1
ケラバ唐草：屋根同材
 41
1.0000000000000002
 72
               5
 11
981.96481906156839
 21
488.7159745884872
 31
0.0
100
AcDbText
  0
TEXT
  5
1F5
100
AcDbEntity
  8
0
 62
               7
100
AcDbText
 10
885.41575063716914
 20
421.43774582872157
 30
0.0
 40
9.6000000000000103
  1
ケラバ役物：屋根同材
 41
1.0000000000000002
 72
               5
 11
981.41575063716925
 21
421.43774582872157
 31
0.0
100
AcDbText
  0
TEXT
  5
1F6
100
AcDbEntity
  8
0
 62
               7
100
AcDbText
 10
761.38529058160248
 20
599.99124646460837
 30
0.0
 40
9.6000000000000103
  1
プロムナ－ル－フT：各種金属板
 50
359.99998269715599
 41
0.9999999999999998
 72
               5
 11
900.58529058159627
 21
599.99120442737785
 31
0.0
100
AcDbText
  0
TEXT
  5
1F7
100
AcDbEntity
  8
0
 62
               7
100
AcDbText
 10
337.48296195190062
 20
730.52648504760793
 30
0.0
 40
8.9999997615814333
  1
プロムナールーフT
 41
1.0000000000000002
 72
               5
 11
413.98295992534281
 21
730.52648504760793
 31
0.0
100
AcDbText
  0
TEXT
  5
1F8
100
AcDbEntity
  8
0
 62
               7
100
AcDbText
 10
533.66481906156798
 20
507.48798585722903
 30
0.0
 40
9.6000000000000103
  1
10
 41
1.0000000000000013
 72
               5
 11
543.26481906156801
 21
507.48798585722903
 31
0.0
100
AcDbText
  0
TEXT
  5
1F9
100
AcDbEntity
  8
0
 62
               7
100
AcDbText
 10
475.63024156147583
 20
550.48798181401366
 30
0.0
 40
9.6000000000001471
  1
@390
 41
0.999999999999987
 72
               5
 11
494.83024156147587
 21
550.48798181401366
 31
0.0
100
AcDbText
  0
TEXT
  5
1FA
100
AcDbEntity
  8
0
 62
               7
100
AcDbText
 10
583.17463119817182
 20
493.01769901703688
 30
0.0
 40
9.5999999999999659
  1
ガーター
 41
0.8750000000000037
 72
               5
 11
616.77463119817185
 21
493.01769901703688
 31
0.0
100
AcDbText
  0
TEXT
  5
1FB
100
AcDbEntity
  8
0
 62
               7
100
AcDbText
 10
436.87202328630076
 20
514.37836287077982
 30
0.0
 40
9.6000000000001187
  1
吊り子
 50
0.0000173028439658
 41
0.9999999999999883
 72
               5
 11
465.67202328629946
 21
514.37837156813782
 31
0.0
100
AcDbText
  0
ENDSEC
  0
SECTION
  2
OBJECTS
  0
DICTIONARY
  5
19
100
AcDbDictionary
  3
ACAD_GROUP
350
1A
  3
ACAD_MLINESTYLE
350
1B
  3
DWGPROPS
350
1FC
  0
DICTIONARY
  5
1A
102
{ACAD_REACTORS
330
19
102
}
100
AcDbDictionary
  0
DICTIONARY
  5
1B
102
{ACAD_REACTORS
330
19
102
}
100
AcDbDictionary
  3
STANDARD
350
1C
  0
MLINESTYLE
  5
1C
102
{ACAD_REACTORS
330
1B
102
}
100
AcDbMlineStyle
  2
Standard
 70
               0
  3

 62
               0
 51
90.0
 52
90.0
 71
               2
 49
0.5
 62
             256
  6
ByLayer
 49
-0.5
 62
             256
  6
ByLayer
  0
XRECORD
  5
1FC
100
AcDbXrecord
  1
DWGPROPS COOKIE
  2

  3

  4

  6

  7

  0
ENDSEC
  0
EOF
