  0
SECTION
  2
HEADER
  9
$ACADVER
  1
AC1014
  9
$ACADMAINTVER
 70
               0
  9
$DWGCODEPAGE
  3
ANSI_932
  9
$INSBASE
 10
0.0
 20
0.0
 30
0.0
  9
$EXTMIN
 10
0.0
 20
0.0
 30
0.0
  9
$EXTMAX
 10
891.00000000000091
 20
630.00000000000068
 30
0.0
  9
$LIMMIN
 10
0.0
 20
0.0
  9
$LIMMAX
 10
891.00000000000091
 20
630.00000000000068
  9
$ORTHOMODE
 70
               0
  9
$REGENMODE
 70
               1
  9
$FILLMODE
 70
               1
  9
$QTEXTMODE
 70
               0
  9
$MIRRTEXT
 70
               1
  9
$DRAGMODE
 70
               2
  9
$LTSCALE
 40
3.0000000000000031
  9
$OSMODE
 70
               0
  9
$ATTMODE
 70
               1
  9
$TEXTSIZE
 40
0.2
  9
$TRACEWID
 40
0.05
  9
$TEXTSTYLE
  7
Standard
  9
$CLAYER
  8
0
  9
$CELTYPE
  6
Continuous
  9
$CECOLOR
 62
             256
  9
$CELTSCALE
 40
1.0
  9
$DELOBJ
 70
               1
  9
$DISPSILH
 70
               0
  9
$DIMSCALE
 40
1.0
  9
$DIMASZ
 40
0.18
  9
$DIMEXO
 40
0.0625
  9
$DIMDLI
 40
0.38
  9
$DIMRND
 40
0.0
  9
$DIMDLE
 40
0.0
  9
$DIMEXE
 40
0.18
  9
$DIMTP
 40
0.0
  9
$DIMTM
 40
0.0
  9
$DIMTXT
 40
0.18
  9
$DIMCEN
 40
0.09
  9
$DIMTSZ
 40
0.0
  9
$DIMTOL
 70
               0
  9
$DIMLIM
 70
               0
  9
$DIMTIH
 70
               1
  9
$DIMTOH
 70
               1
  9
$DIMSE1
 70
               0
  9
$DIMSE2
 70
               0
  9
$DIMTAD
 70
               0
  9
$DIMZIN
 70
               0
  9
$DIMBLK
  1

  9
$DIMASO
 70
               1
  9
$DIMSHO
 70
               1
  9
$DIMPOST
  1

  9
$DIMAPOST
  1

  9
$DIMALT
 70
               0
  9
$DIMALTD
 70
               2
  9
$DIMALTF
 40
25.399999999999999
  9
$DIMLFAC
 40
1.0
  9
$DIMTOFL
 70
               0
  9
$DIMTVP
 40
0.0
  9
$DIMTIX
 70
               0
  9
$DIMSOXD
 70
               0
  9
$DIMSAH
 70
               0
  9
$DIMBLK1
  1

  9
$DIMBLK2
  1

  9
$DIMSTYLE
  2
Standard
  9
$DIMCLRD
 70
               0
  9
$DIMCLRE
 70
               0
  9
$DIMCLRT
 70
               0
  9
$DIMTFAC
 40
1.0
  9
$DIMGAP
 40
0.09
  9
$DIMJUST
 70
               0
  9
$DIMSD1
 70
               0
  9
$DIMSD2
 70
               0
  9
$DIMTOLJ
 70
               1
  9
$DIMTZIN
 70
               0
  9
$DIMALTZ
 70
               0
  9
$DIMALTTZ
 70
               0
  9
$DIMFIT
 70
               3
  9
$DIMUPT
 70
               0
  9
$DIMUNIT
 70
               2
  9
$DIMDEC
 70
               4
  9
$DIMTDEC
 70
               4
  9
$DIMALTU
 70
               2
  9
$DIMALTTD
 70
               2
  9
$DIMTXSTY
  7
Standard
  9
$DIMAUNIT
 70
               0
  9
$LUNITS
 70
               2
  9
$LUPREC
 70
               4
  9
$SKETCHINC
 40
0.1
  9
$FILLETRAD
 40
0.0
  9
$AUNITS
 70
               0
  9
$AUPREC
 70
               0
  9
$MENU
  1
acad
  9
$ELEVATION
 40
0.0
  9
$PELEVATION
 40
0.0
  9
$THICKNESS
 40
0.0
  9
$LIMCHECK
 70
               0
  9
$BLIPMODE
 70
               1
  9
$CHAMFERA
 40
0.0
  9
$CHAMFERB
 40
0.0
  9
$CHAMFERC
 40
0.0
  9
$CHAMFERD
 40
0.0
  9
$SKPOLY
 70
               0
  9
$TDCREATE
 40
0.000000000
  9
$TDUPDATE
 40
0.000000000
  9
$TDINDWG
 40
0.0000000000
  9
$TDUSRTIMER
 40
0.0000000000
  9
$USRTIMER
 70
               1
  9
$ANGBASE
 50
0.0
  9
$ANGDIR
 70
               0
  9
$PDMODE
 70
               0
  9
$PDSIZE
 40
0.0
  9
$PLINEWID
 40
0.0
  9
$COORDS
 70
               0
  9
$SPLFRAME
 70
               0
  9
$SPLINETYPE
 70
               6
  9
$SPLINESEGS
 70
               8
  9
$ATTDIA
 70
               0
  9
$ATTREQ
 70
               1
  9
$HANDLING
 70
               1
  9
$HANDSEED
  5
1AF
  9
$SURFTAB1
 70
               6
  9
$SURFTAB2
 70
               6
  9
$SURFTYPE
 70
               6
  9
$SURFU
 70
               6
  9
$SURFV
 70
               6
  9
$UCSNAME
  2

  9
$UCSORG
 10
0.0
 20
0.0
 30
0.0
  9
$UCSXDIR
 10
1.0
 20
0.0
 30
0.0
  9
$UCSYDIR
 10
0.0
 20
1.0
 30
0.0
  9
$PUCSNAME
  2

  9
$PUCSORG
 10
0.0
 20
0.0
 30
0.0
  9
$PUCSXDIR
 10
1.0
 20
0.0
 30
0.0
  9
$PUCSYDIR
 10
0.0
 20
1.0
 30
0.0
  9
$USERI1
 70
               0
  9
$USERI2
 70
               0
  9
$USERI3
 70
               0
  9
$USERI4
 70
               0
  9
$USERI5
 70
               0
  9
$USERR1
 40
0.0
  9
$USERR2
 40
0.0
  9
$USERR3
 40
0.0
  9
$USERR4
 40
0.0
  9
$USERR5
 40
0.0
  9
$WORLDVIEW
 70
               1
  9
$SHADEDGE
 70
               3
  9
$SHADEDIF
 70
              70
  9
$TILEMODE
 70
               1
  9
$MAXACTVP
 70
              16
  9
$PINSBASE
 10
0.0
 20
0.0
 30
0.0
  9
$PLIMCHECK
 70
               0
  9
$PEXTMIN
 10
1.0000000000000000E+20
 20
1.0000000000000000E+20
 30
1.0000000000000000E+20
  9
$PEXTMAX
 10
-1.0000000000000000E+20
 20
-1.0000000000000000E+20
 30
-1.0000000000000000E+20
  9
$PLIMMIN
 10
0.0
 20
0.0
  9
$PLIMMAX
 10
12.0
 20
9.0
  9
$UNITMODE
 70
               0
  9
$VISRETAIN
 70
               0
  9
$PLINEGEN
 70
               1
  9
$PSLTSCALE
 70
               0
  9
$TREEDEPTH
 70
            3020
  9
$PICKSTYLE
 70
               1
  9
$CMLSTYLE
  2
Standard
  9
$CMLJUST
 70
               0
  9
$CMLSCALE
 40
1.0
  9
$PROXYGRAPHICS
 70
               0
  9
$MEASUREMENT
 70
               0
  0
ENDSEC
  0
SECTION
  2
CLASSES
  0
CLASS
  1
LWPOLYLINE
  2
AcDbPolyline
  3
"AutoCAD"
 90
        0
280
               0
281
               1
  0
CLASS
  1
IMAGE
  2
AcDbRasterImage
  3
ISM
 90
      127
280
               0
281
               1
  0
CLASS
  1
OLE2FRAME
  2
AcDbOle2Frame
  3
""
 90
        0
280
               0
281
               1
  0
CLASS
  1
HATCH
  2
AcDbHatch
  3
"ACAD_SEDONA"
 90
        0
280
               0
281
               1
  0
CLASS
  1
DICTIONARYVAR
  2
AcDbDictionaryVar
  3
"AutoCAD"
 90
        0
280
               0
281
               0
  0
CLASS
  1
RASTERVARIABLES
  2
AcDbRasterVariables
  3
ISM
 90
        0
280
               0
281
               0
  0
CLASS
  1
IMAGEDEF
  2
AcDbRasterImageDef
  3
ISM
 90
        0
280
               0
281
               0
  0
CLASS
  1
IMAGEDEF_REACTOR
  2
AcDbRasterImageDefReactor
  3
ISM
 90
        1
280
               0
281
               0
  0
CLASS
  1
IDBUFFER
  2
AcDbIdBuffer
  3
"Acad"
 90
        0
280
               0
281
               0
  0
CLASS
  1
SPATIAL_FILTER
  2
AcDbSpatialFilter
  3
"Acad"
 90
        0
280
               0
281
               0
  0
CLASS
  1
XRECORD
  2
AcDbXrecord
  3
"<Built In>"
 90
        0
280
               0
281
               0
  0
CLASS
  1
SORTENTSTABLE
  2
AcDbSortentsTable
  3
"AutoCAD"
 90
        0
280
               0
281
               0
  0
CLASS
  1
LAYER_INDEX
  2
AcDbLayerIndex
  3
"Acad"
 90
        0
280
               0
281
               0
  0
CLASS
  1
SPATIAL_INDEX
  2
AcDbSpatialIndex
  3
"Acad"
 90
        0
280
               0
281
               0
  0
CLASS
  1
OBJECT_PTR
  2
CAseDLPNTableRecord
  3
"ASE-LPNTableRecord"
 90
        1
280
               0
281
               0
  0
CLASS
  1
LAYOUT
  2
AcDbLayout
  3
"AutoCAD 2000"
 90
        0
280
               0
281
               0
  0
CLASS
  1
PLOTSETTINGS
  2
AcDbPlotSettings
  3
"AutoCAD 2000"
 90
        0
280
               0
281
               0
  0
CLASS
  1
ACDBDICTIONARYWDFLT
  2
AcDbDictionaryWithDefault
  3
"AutoCAD 2000"
 90
        0
280
               0
281
               0
  0
CLASS
  1
ACDBPLACEHOLDER
  2
AcDbPlaceHolder
  3
"AutoCAD 2000"
 90
        0
280
               0
281
               0
  0
CLASS
  1
VBA_PROJECT
  2
AcDbVbaProject
  3
"acadvba"
 90
        0
280
               0
281
               0
  0
CLASS
  1
WIPEOUT
  2
AcDbWipeout
  3
WipeOut|AutoCAD Express Tool|expresstools@autodesk.com
 90
      127
280
               0
281
               1
  0
CLASS
  1
WIPEOUTVARIABLES
  2
AcDbWipeoutVariables
  3
WipeOut|AutoCAD Express Tool|expresstools@autodesk.com
 90
        0
280
               0
281
               0
  0
CLASS
  1
RTEXT
  2
RText
  3
RText|AutoCAD Express Tool|expresstools@autodesk.com
 90
        0
280
               0
281
               1
  0
CLASS
  1
ARCALIGNEDTEXT
  2
AcDbArcAlignedText
  3
ATEXT|AutoCAD Express Tool|expresstools@autodesk.com
 90
        0
280
               0
281
               1
  0
ENDSEC
  0
SECTION
  2
TABLES
  0
TABLE
  2
VPORT
  5
7
100
AcDbSymbolTable
 70
               1
  0
VPORT
  5
15
100
AcDbSymbolTableRecord
100
AcDbViewportTableRecord
  2
*ACTIVE
 70
               0
 10
0.0
 20
0.0
 11
1.0
 21
1.0
 12
445.50000000000045
 22
315.00000000000034
 13
0.0
 23
0.0
 14
10.0
 24
10.0
 15
10.0
 25
10.0
 16
0.0
 26
0.0
 36
1.0
 17
0.0
 27
0.0
 37
0.0
 40
630.00000000000068
 41
1.4142857142857141
 42
50.0
 43
0.0
 44
0.0
 50
0.0
 51
0.0
 71
               0
 72
             100
 73
               1
 74
               1
 75
               0
 76
               0
 77
               0
 78
               0
  0
ENDTAB
  0
TABLE
  2
LTYPE
  5
4
100
AcDbSymbolTable
 70
              24
  0
LTYPE
  5
11
100
AcDbSymbolTableRecord
100
AcDbLinetypeTableRecord
  2
ByBlock
 70
              64
  3

 72
              65
 73
               0
 40
0.0
  0
LTYPE
  5
12
100
AcDbSymbolTableRecord
100
AcDbLinetypeTableRecord
  2
ByLayer
 70
              64
  3

 72
              65
 73
               0
 40
0.0
  0
LTYPE
  5
13
100
AcDbSymbolTableRecord
100
AcDbLinetypeTableRecord
  2
Continuous
 70
              64
  3
Solid line
 72
              65
 73
               0
 40
0.0
  0
LTYPE
  5
1D
100
AcDbSymbolTableRecord
100
AcDbLinetypeTableRecord
  2
DOT
 70
              64
  3
Dot . . . . . . . . . . . . . . . . . . . . . .
 72
              65
 73
               2
 40
6.3499999999999996
 49
0.35
 74
               0
 49
-6.0
 74
               0
  0
LTYPE
  5
1E
100
AcDbSymbolTableRecord
100
AcDbLinetypeTableRecord
  2
DASHED
 70
              64
  3
Dashed __ __ __ __ __ __ __ __ __ __ __ __ __ _
 72
              65
 73
               2
 40
12.699999999999999
 49
6.3499999999999996
 74
               0
 49
-6.3499999999999996
 74
               0
  0
LTYPE
  5
1F
100
AcDbSymbolTableRecord
100
AcDbLinetypeTableRecord
  2
DASHDOT
 70
              64
  3
Dash dot __ . __ . __ . __ . __ . __ . __ . __
 72
              65
 73
               4
 40
25.399999999999999
 49
12.699999999999999
 74
               0
 49
-6.0
 74
               0
 49
0.7
 74
               0
 49
-6.0
 74
               0
  0
LTYPE
  5
20
100
AcDbSymbolTableRecord
100
AcDbLinetypeTableRecord
  2
DIVIDE
 70
              64
  3
Divide ____ . . ____ . . ____ . . ____ . . ____
 72
              65
 73
               6
 40
31.75
 49
12.699999999999999
 74
               0
 49
-6.0
 74
               0
 49
0.875
 74
               0
 49
-6.0
 74
               0
 49
0.875
 74
               0
 49
-6.0
 74
               0
  0
LTYPE
  5
21
100
AcDbSymbolTableRecord
100
AcDbLinetypeTableRecord
  2
HIDDEN
 70
              64
  3
Hidden __ __ __ __ __ __ __ __ __ __ __ __ __ _
 72
              65
 73
               2
 40
9.5250000000000004
 49
6.3499999999999996
 74
               0
 49
-3.1749999999999998
 74
               0
  0
LTYPE
  5
22
100
AcDbSymbolTableRecord
100
AcDbLinetypeTableRecord
  2
CENTER
 70
              64
  3
Center ____ _ ____ _ ____ _ ____ _ ____ _ ____
 72
              65
 73
               4
 40
50.799999999999997
 49
31.75
 74
               0
 49
-6.3499999999999996
 74
               0
 49
6.3499999999999996
 74
               0
 49
-6.3499999999999996
 74
               0
  0
LTYPE
  5
23
100
AcDbSymbolTableRecord
100
AcDbLinetypeTableRecord
  2
PHANTOM
 70
              64
  3
Phantom ______  __  __  ______  __  __  ______
 72
              65
 73
               6
 40
63.5
 49
31.75
 74
               0
 49
-6.3499999999999996
 74
               0
 49
6.3499999999999996
 74
               0
 49
-6.3499999999999996
 74
               0
 49
6.3499999999999996
 74
               0
 49
-6.3499999999999996
 74
               0
  0
LTYPE
  5
24
100
AcDbSymbolTableRecord
100
AcDbLinetypeTableRecord
  2
ACAD_ISO02W100
 70
              64
  3
ISO dash __ __ __ __ __ __ __ __ __ __ __ __ __
 72
              65
 73
               2
 40
15.0
 49
12.0
 74
               0
 49
-3.0
 74
               0
  0
LTYPE
  5
25
100
AcDbSymbolTableRecord
100
AcDbLinetypeTableRecord
  2
ACAD_ISO03W100
 70
              64
  3
ISO dash space __ __ __ __ __ __ __ __ __ __ __ __ __ __
 72
              65
 73
               2
 40
30.0
 49
12.0
 74
               0
 49
-18.0
 74
               0
  0
LTYPE
  5
26
100
AcDbSymbolTableRecord
100
AcDbLinetypeTableRecord
  2
ACAD_ISO04W100
 70
              64
  3
ISO long-dash dot ____ . ____ . ____ . ____ . _
 72
              65
 73
               4
 40
30.0
 49
24.0
 74
               0
 49
-3.0
 74
               0
 49
0.0
 74
               0
 49
-3.0
 74
               0
  0
LTYPE
  5
27
100
AcDbSymbolTableRecord
100
AcDbLinetypeTableRecord
  2
ACAD_ISO05W100
 70
              64
  3
ISO long-dash double-dot ____ .. ____ .. ____ .
 72
              65
 73
               6
 40
33.0
 49
24.0
 74
               0
 49
-3.0
 74
               0
 49
0.0
 74
               0
 49
-3.0
 74
               0
 49
0.0
 74
               0
 49
-3.0
 74
               0
  0
LTYPE
  5
28
100
AcDbSymbolTableRecord
100
AcDbLinetypeTableRecord
  2
ACAD_ISO06W100
 70
              64
  3
ISO long-dash triple-dot ____ ... ____ ... ____
 72
              65
 73
               8
 40
36.0
 49
24.0
 74
               0
 49
-3.0
 74
               0
 49
0.0
 74
               0
 49
-3.0
 74
               0
 49
0.0
 74
               0
 49
-3.0
 74
               0
 49
0.0
 74
               0
 49
-3.0
 74
               0
  0
LTYPE
  5
29
100
AcDbSymbolTableRecord
100
AcDbLinetypeTableRecord
  2
ACAD_ISO07W100
 70
              64
  3
ISO dot . . . . . . . . . . . . . . . . . . . .
 72
              65
 73
               2
 40
3.0
 49
0.0
 74
               0
 49
-3.0
 74
               0
  0
LTYPE
  5
2A
100
AcDbSymbolTableRecord
100
AcDbLinetypeTableRecord
  2
ACAD_ISO08W100
 70
              64
  3
ISO long-dash short-dash ____ __ ____ __ ____ _
 72
              65
 73
               4
 40
36.0
 49
24.0
 74
               0
 49
-3.0
 74
               0
 49
6.0
 74
               0
 49
-3.0
 74
               0
  0
LTYPE
  5
2B
100
AcDbSymbolTableRecord
100
AcDbLinetypeTableRecord
  2
ACAD_ISO09W100
 70
              64
  3
ISO long-dash double-short-dash ____ __ __ ____
 72
              65
 73
               6
 40
45.0
 49
24.0
 74
               0
 49
-3.0
 74
               0
 49
6.0
 74
               0
 49
-3.0
 74
               0
 49
6.0
 74
               0
 49
-3.0
 74
               0
  0
LTYPE
  5
2C
100
AcDbSymbolTableRecord
100
AcDbLinetypeTableRecord
  2
ACAD_ISO10W100
 70
              64
  3
ISO dash dot __ . __ . __ . __ . __ . __ . __ .
 72
              65
 73
               4
 40
18.0
 49
12.0
 74
               0
 49
-3.0
 74
               0
 49
0.0
 74
               0
 49
-3.0
 74
               0
  0
LTYPE
  5
2D
100
AcDbSymbolTableRecord
100
AcDbLinetypeTableRecord
  2
ACAD_ISO11W100
 70
              64
  3
ISO double-dash dot __ __ . __ __ . __ __ . __ 
 72
              65
 73
               6
 40
33.0
 49
12.0
 74
               0
 49
-3.0
 74
               0
 49
12.0
 74
               0
 49
-3.0
 74
               0
 49
0.0
 74
               0
 49
-3.0
 74
               0
  0
LTYPE
  5
2E
100
AcDbSymbolTableRecord
100
AcDbLinetypeTableRecord
  2
ACAD_ISO12W100
 70
              64
  3
ISO dash double-dot __ . . __ . . __ . . __ . .
 72
              65
 73
               6
 40
21.0
 49
12.0
 74
               0
 49
-3.0
 74
               0
 49
0.0
 74
               0
 49
-3.0
 74
               0
 49
0.0
 74
               0
 49
-3.0
 74
               0
  0
LTYPE
  5
2F
100
AcDbSymbolTableRecord
100
AcDbLinetypeTableRecord
  2
ACAD_ISO13W100
 70
              64
  3
ISO double-dash double-dot __ __ . . __ __ . . 
 72
              65
 73
               8
 40
36.0
 49
12.0
 74
               0
 49
-3.0
 74
               0
 49
12.0
 74
               0
 49
-3.0
 74
               0
 49
0.0
 74
               0
 49
-3.0
 74
               0
 49
0.0
 74
               0
 49
-3.0
 74
               0
  0
LTYPE
  5
30
100
AcDbSymbolTableRecord
100
AcDbLinetypeTableRecord
  2
ACAD_ISO14W100
 70
              64
  3
ISO dash triple-dot __ . . . __ . . . __ . . . 
 72
              65
 73
               8
 40
24.0
 49
12.0
 74
               0
 49
-3.0
 74
               0
 49
0.0
 74
               0
 49
-3.0
 74
               0
 49
0.0
 74
               0
 49
-3.0
 74
               0
 49
0.0
 74
               0
 49
-3.0
 74
               0
  0
LTYPE
  5
31
100
AcDbSymbolTableRecord
100
AcDbLinetypeTableRecord
  2
ACAD_ISO15W100
 70
              64
  3
ISO double-dash double-dot __ __ . . __ __ . . 
 72
              65
 73
              10
 40
39.0
 49
12.0
 74
               0
 49
-3.0
 74
               0
 49
12.0
 74
               0
 49
-3.0
 74
               0
 49
0.0
 74
               0
 49
-3.0
 74
               0
 49
0.0
 74
               0
 49
-3.0
 74
               0
 49
0.0
 74
               0
 49
-3.0
 74
               0
  0
ENDTAB
  0
TABLE
  2
LAYER
  5
2
100
AcDbSymbolTable
 70
              16
  0
LAYER
  5
14
100
AcDbSymbolTableRecord
100
AcDbLayerTableRecord
  2
0
 70
               0
 62
               7
  6
Continuous
  0
LAYER
  5
35
100
AcDbSymbolTableRecord
100
AcDbLayerTableRecord
  2
Layer00001
 70
               0
 62
               7
  6
Continuous
  0
LAYER
  5
36
100
AcDbSymbolTableRecord
100
AcDbLayerTableRecord
  2
Layer00002
 70
               0
 62
               7
  6
Continuous
  0
LAYER
  5
37
100
AcDbSymbolTableRecord
100
AcDbLayerTableRecord
  2
Layer00003
 70
               0
 62
               7
  6
Continuous
  0
LAYER
  5
38
100
AcDbSymbolTableRecord
100
AcDbLayerTableRecord
  2
Layer00004
 70
               0
 62
               7
  6
Continuous
  0
LAYER
  5
39
100
AcDbSymbolTableRecord
100
AcDbLayerTableRecord
  2
Layer00005
 70
               0
 62
               7
  6
Continuous
  0
LAYER
  5
3A
100
AcDbSymbolTableRecord
100
AcDbLayerTableRecord
  2
Layer00006
 70
               0
 62
               7
  6
Continuous
  0
LAYER
  5
3B
100
AcDbSymbolTableRecord
100
AcDbLayerTableRecord
  2
Layer00007
 70
               0
 62
               7
  6
Continuous
  0
LAYER
  5
3C
100
AcDbSymbolTableRecord
100
AcDbLayerTableRecord
  2
Layer00008
 70
               0
 62
               7
  6
Continuous
  0
LAYER
  5
3D
100
AcDbSymbolTableRecord
100
AcDbLayerTableRecord
  2
Layer00009
 70
               0
 62
               7
  6
Continuous
  0
LAYER
  5
3E
100
AcDbSymbolTableRecord
100
AcDbLayerTableRecord
  2
Layer00010
 70
               0
 62
               7
  6
Continuous
  0
LAYER
  5
3F
100
AcDbSymbolTableRecord
100
AcDbLayerTableRecord
  2
Layer00011
 70
               0
 62
               7
  6
Continuous
  0
LAYER
  5
40
100
AcDbSymbolTableRecord
100
AcDbLayerTableRecord
  2
Layer00012
 70
               0
 62
               7
  6
Continuous
  0
LAYER
  5
41
100
AcDbSymbolTableRecord
100
AcDbLayerTableRecord
  2
Layer00013
 70
               0
 62
               7
  6
Continuous
  0
LAYER
  5
42
100
AcDbSymbolTableRecord
100
AcDbLayerTableRecord
  2
Layer00014
 70
               0
 62
               7
  6
Continuous
  0
LAYER
  5
43
100
AcDbSymbolTableRecord
100
AcDbLayerTableRecord
  2
Layer00015
 70
               0
 62
               7
  6
Continuous
  0
ENDTAB
  0
TABLE
  2
STYLE
  5
3
100
AcDbSymbolTable
 70
               4
  0
STYLE
  5
17
100
AcDbSymbolTableRecord
100
AcDbTextStyleTableRecord
  2
Standard
 70
               0
 40
0.0
 41
1.0
 50
0.0
 71
               0
 42
0.0
  3
txt.shx
  4
bigfont.shx
  0
STYLE
  5
32
100
AcDbSymbolTableRecord
100
AcDbTextStyleTableRecord
  2
STANDARD_T
 70
               4
 40
0.0
 41
1.0
 50
0.0
 71
               0
 42
0.0
  3
txt.shx
  4
bigfont.shx
  0
STYLE
  5
33
100
AcDbSymbolTableRecord
100
AcDbTextStyleTableRecord
  2
FontTableH_0
 70
               0
 40
0.0
 41
1.0
 50
0.0
 71
               0
 42
0.0
  3
MS Gothic.ttf
  4

1001
ACAD
1000
MS Gothic
1071
    32817
  0
STYLE
  5
34
100
AcDbSymbolTableRecord
100
AcDbTextStyleTableRecord
  2
FontTableV_0
 70
               0
 40
0.0
 41
1.0
 50
0.0
 71
               0
 42
0.0
  3
@MS Gothic.ttf
  4

1001
ACAD
1000
@MS Gothic
1071
    32817
  0
ENDTAB
  0
TABLE
  2
VIEW
  5
5
100
AcDbSymbolTable
 70
               0
  0
ENDTAB
  0
TABLE
  2
UCS
  5
6
100
AcDbSymbolTable
 70
               0
  0
ENDTAB
  0
TABLE
  2
APPID
  5
8
100
AcDbSymbolTable
 70
               1
  0
APPID
  5
16
100
AcDbSymbolTableRecord
100
AcDbRegAppTableRecord
  2
ACAD
 70
               0
  0
ENDTAB
  0
TABLE
  2
DIMSTYLE
  5
9
100
AcDbSymbolTable
 70
               1
  0
DIMSTYLE
105
18
100
AcDbSymbolTableRecord
100
AcDbDimStyleTableRecord
  2
Standard
 70
               0
  3

  4

  5

  6

  7

 40
1.0
 41
0.18
 42
0.0625
 43
0.38
 44
0.18
 45
0.0
 46
0.0
 47
0.0
 48
0.0
 71
               0
 72
               0
 73
               1
 74
               1
 75
               0
 76
               0
 77
               0
 78
               0
140
0.18
141
0.09
142
0.0
143
25.399999999999999
144
1.0
145
0.0
146
1.0
147
0.09
170
               0
171
               2
172
               0
173
               0
174
               0
175
               0
176
               0
177
               0
178
               0
270
               2
271
               4
272
               4
273
               2
274
               2
275
               0
280
               0
281
               0
282
               0
283
               1
284
               0
285
               0
286
               0
287
               0
288
               0
340
17
  0
ENDTAB
  0
TABLE
  2
BLOCK_RECORD
  5
1
100
AcDbSymbolTable
 70
               0
  0
BLOCK_RECORD
  5
A
100
AcDbSymbolTableRecord
100
AcDbBlockTableRecord
  2
*MODEL_SPACE
  0
BLOCK_RECORD
  5
B
100
AcDbSymbolTableRecord
100
AcDbBlockTableRecord
  2
*PAPER_SPACE
  0
ENDTAB
  0
ENDSEC
  0
SECTION
  2
BLOCKS
  0
BLOCK
  5
D
100
AcDbEntity
  8
0
100
AcDbBlockBegin
  2
*MODEL_SPACE
 70
               0
 10
0.0
 20
0.0
 30
0.0
  3
*MODEL_SPACE
  1

  0
ENDBLK
  5
E
100
AcDbEntity
  8
0
100
AcDbBlockEnd
  0
BLOCK
  5
F
100
AcDbEntity
 67
               1
  8
0
100
AcDbBlockBegin
  2
*PAPER_SPACE
 70
               0
 10
0.0
 20
0.0
 30
0.0
  3
*PAPER_SPACE
  1

  0
ENDBLK
  5
10
100
AcDbEntity
 67
               1
  8
0
100
AcDbBlockEnd
  0
ENDSEC
  0
SECTION
  2
ENTITIES
  0
LINE
  5
44
100
AcDbEntity
  8
0
  6
Continuous
 62
               4
100
AcDbLine
 10
248.3735272825607
 20
337.22237953244871
 30
0.0
 11
251.28396239042308
 21
325.58064964907862
 31
0.0
  0
LINE
  5
45
100
AcDbEntity
  8
0
  6
Continuous
 62
               4
100
AcDbLine
 10
251.28396239042308
 20
325.58064964907862
 30
0.0
 11
254.19438460272971
 21
313.93897134788449
 31
0.0
  0
LINE
  5
46
100
AcDbEntity
  8
0
  6
Continuous
 62
               4
100
AcDbLine
 10
262.6831282898147
 20
345.95366111829242
 30
0.0
 11
269.7166637777558
 21
317.81954465766114
 31
0.0
  0
LINE
  5
47
100
AcDbEntity
  8
0
  6
Continuous
 62
               4
100
AcDbLine
 10
248.37352996415729
 20
337.22238020284851
 30
0.0
 11
247.16084853522619
 21
342.07310152353932
 31
0.0
  0
LINE
  5
48
100
AcDbEntity
  8
0
  6
Continuous
 62
               4
100
AcDbLine
 10
247.16084853522619
 20
342.07310152353932
 30
0.0
 11
245.72988432743949
 21
347.79695316854622
 31
0.0
  0
LINE
  5
49
100
AcDbEntity
  8
0
  6
Continuous
 62
               7
100
AcDbLine
 10
302.48548502620042
 20
350.75035299858052
 30
0.0
 11
293.73946485747439
 21
336.19453107954621
 31
0.0
  0
LINE
  5
4A
100
AcDbEntity
  8
0
  6
Continuous
 62
               7
100
AcDbLine
 10
295.62119812025082
 20
349.03428127209338
 30
0.0
 11
286.87516394650612
 21
334.47843604479351
 31
0.0
  0
LINE
  5
4B
100
AcDbEntity
  8
0
  6
Continuous
 62
               7
100
AcDbLine
 10
288.75691121430128
 20
347.3182095456059
 30
0.0
 11
280.0108764383873
 21
332.76236331612813
 31
0.0
  0
LINE
  5
4C
100
AcDbEntity
  8
0
  6
Continuous
 62
               7
100
AcDbLine
 10
292.62483884202231
 20
323.54655769883016
 30
0.0
 11
280.23720423461242
 21
330.98979949732575
 31
0.0
  0
LINE
  5
4D
100
AcDbEntity
  8
0
  6
Continuous
 62
               7
100
AcDbLine
 10
299.4804469823348
 20
325.26045973390831
 30
0.0
 11
284.9430520747332
 21
333.9954078371378
 31
0.0
  0
LINE
  5
4E
100
AcDbEntity
  8
0
  6
Continuous
 62
               7
100
AcDbLine
 10
306.33605718385809
 20
326.97433558140824
 30
0.0
 11
291.79863665452052
 21
335.70932402880771
 31
0.0
  0
LINE
  5
4F
100
AcDbEntity
  8
0
  6
Continuous
 62
               7
100
AcDbLine
 10
281.91868516543332
 20
345.60863213610719
 30
0.0
 11
278.150374651851
 21
339.33711026522633
 31
0.0
  0
LINE
  5
50
100
AcDbEntity
  8
0
  6
Continuous
 62
               7
100
AcDbLine
 10
285.7692573230911
 20
321.83261471893491
 30
0.0
 11
281.95328320398471
 21
324.12548983929753
 31
0.0
  0
LINE
  5
51
100
AcDbEntity
  8
0
  6
Continuous
 62
               7
100
AcDbLine
 10
247.1590185932198
 20
326.55403454208943
 30
0.0
 11
245.74156422497191
 21
324.19499431984661
 31
0.0
  0
LINE
  5
52
100
AcDbEntity
  8
0
  6
Continuous
 62
               7
100
AcDbLine
 10
245.44511546151944
 20
333.40964085731605
 30
0.0
 11
238.8772767168532
 21
322.47892159118123
 31
0.0
  0
LINE
  5
53
100
AcDbEntity
  8
0
  6
Continuous
 62
               7
100
AcDbLine
 10
250.30329633989101
 20
313.97689821399649
 30
0.0
 11
236.95384521253169
 21
321.99806347646552
 31
0.0
  0
LINE
  5
54
100
AcDbEntity
  8
0
  6
Continuous
 62
               7
100
AcDbLine
 10
248.58723188676601
 20
320.84118654407462
 30
0.0
 11
243.80945235319911
 21
323.71196611219091
 31
0.0
  0
LINE
  5
55
100
AcDbEntity
  8
0
  6
Continuous
 62
               7
100
AcDbLine
 10
240.78508544389922
 20
335.32519041116029
 30
0.0
 11
232.03906527517319
 21
320.76936849212586
 31
0.0
  0
LINE
  5
56
100
AcDbEntity
  8
0
  6
Continuous
 62
               7
100
AcDbLine
 10
233.92079853794962
 20
333.60911868467292
 30
0.0
 11
226.33039486269831
 21
320.97656558519429
 31
0.0
  0
LINE
  5
57
100
AcDbEntity
  8
0
  6
Continuous
 62
               7
100
AcDbLine
 10
227.05651163200014
 20
331.89304695818555
 30
0.0
 11
226.33039486269831
 21
330.68458571724602
 31
0.0
  0
LINE
  5
58
100
AcDbEntity
  8
0
  6
Continuous
 62
               7
100
AcDbLine
 10
230.924439259721
 20
308.12139511140981
 30
0.0
 11
226.33039486269831
 21
310.88177547164491
 31
0.0
  0
LINE
  5
59
100
AcDbEntity
  8
0
  6
Continuous
 62
               7
100
AcDbLine
 10
237.78004740003348
 20
309.83529714648796
 30
0.0
 11
226.33039486269831
 21
316.71494245772169
 31
0.0
  0
LINE
  5
5A
100
AcDbEntity
  8
0
  6
Continuous
 62
               7
100
AcDbLine
 10
244.63565760155683
 20
311.54917299398801
 30
0.0
 11
230.09823707221932
 21
320.28416144138748
 31
0.0
  0
LINE
  5
5B
100
AcDbEntity
  8
0
  6
Continuous
 62
               6
100
AcDbLine
 10
465.19098137313631
 20
260.93045493179761
 30
0.0
 11
226.33039486269831
 21
201.21530830418632
 31
0.0
  0
LINE
  5
5C
100
AcDbEntity
  8
0
  6
Continuous
 62
               6
100
AcDbLine
 10
440.93741886950295
 20
357.94470494633049
 30
0.0
 11
226.33039486269831
 21
304.29294894462998
 31
0.0
  0
LINE
  5
5D
100
AcDbEntity
  8
0
  6
Continuous
 62
               6
100
AcDbLine
 10
440.93741886950295
 20
357.94470494633049
 30
0.0
 11
465.19098137313631
 21
260.93045493179761
 31
0.0
  0
LINE
  5
5E
100
AcDbEntity
  8
0
  6
Continuous
 62
               3
100
AcDbLine
 10
226.33039486269831
 20
306.97296760128086
 30
0.0
 11
467.08891950554471
 21
367.16259876199251
 31
0.0
  0
LINE
  5
5F
100
AcDbEntity
  8
0
  6
DASHDOT
 62
               4
100
AcDbLine
 10
467.08891950554471
 20
441.17822017333856
 30
0.0
 11
467.08891950554471
 21
240.78941133681136
 31
0.0
  0
LINE
  5
60
100
AcDbEntity
  8
0
  6
Continuous
 62
               3
100
AcDbLine
 10
226.33039486269831
 20
319.34225460780749
 30
0.0
 11
467.08891950554471
 21
379.53191563884559
 31
0.0
  0
LINE
  5
61
100
AcDbEntity
  8
0
  6
Continuous
 62
               3
100
AcDbLine
 10
467.08894734667922
 20
367.1626511596744
 30
0.0
 11
464.17849200510875
 21
378.80430876373646
 31
0.0
  0
LINE
  5
62
100
AcDbEntity
  8
0
  6
Continuous
 62
               3
100
AcDbLine
 10
226.33039486269831
 20
331.7116013549869
 30
0.0
 11
464.17849200510864
 21
391.17362564058942
 31
0.0
  0
LINE
  5
63
100
AcDbEntity
  8
0
  6
Continuous
 62
               3
100
AcDbLine
 10
467.08891950554471
 20
379.53191563884559
 30
0.0
 11
464.17849200510864
 21
391.17362564058942
 31
0.0
  0
LINE
  5
64
100
AcDbEntity
  8
0
  6
DASHED
 62
               6
100
AcDbLine
 10
226.33039486269831
 20
333.77315416779572
 30
0.0
 11
463.69342075503596
 21
393.11391064088002
 31
0.0
  0
LINE
  5
65
100
AcDbEntity
  8
0
  6
Continuous
 62
               2
100
AcDbLine
 10
226.33039486269831
 20
336.86548338700902
 30
0.0
 11
462.96581387992694
 21
396.02433814131609
 31
0.0
  0
LINE
  5
66
100
AcDbEntity
  8
0
  6
Continuous
 62
               4
100
AcDbLine
 10
389.96259074399086
 20
379.83508517014081
 30
0.0
 11
462.48074262985438
 21
397.96462314160681
 31
0.0
  0
LINE
  5
67
100
AcDbEntity
  8
0
  6
Continuous
 62
               2
100
AcDbLine
 10
371.08658366391273
 20
377.17761446701581
 30
0.0
 11
467.08891950554471
 21
401.17822017333822
 31
0.0
  0
LINE
  5
68
100
AcDbEntity
  8
0
  6
Continuous
 62
               4
100
AcDbLine
 10
389.96259074399086
 20
379.83508517014081
 30
0.0
 11
371.44154498504861
 21
376.58514574109631
 31
0.0
  0
LINE
  5
69
100
AcDbEntity
  8
0
  6
Continuous
 62
               2
100
AcDbLine
 10
371.50168734845249
 20
375.13533747726751
 30
0.0
 11
387.27629183180204
 21
377.6173458324871
 31
0.0
  0
LINE
  5
6A
100
AcDbEntity
  8
0
  6
Continuous
 62
               6
100
AcDbLine
 10
390.9332256217649
 20
380.07774388958433
 30
0.0
 11
391.41829687183758
 21
378.13745888929373
 31
0.0
  0
LINE
  5
6B
100
AcDbEntity
  8
0
  6
Continuous
 62
               6
100
AcDbLine
 10
462.08756465518616
 20
397.86632864793978
 30
0.0
 11
460.63235090496823
 21
395.4409723975765
 31
0.0
  0
LINE
  5
6C
100
AcDbEntity
  8
0
  6
Continuous
 62
               6
100
AcDbLine
 10
459.34358729290602
 20
397.18033430736966
 30
0.0
 11
457.8883735426881
 21
394.7549780570065
 31
0.0
  0
LINE
  5
6D
100
AcDbEntity
  8
0
  6
Continuous
 62
               6
100
AcDbLine
 10
456.59960993062589
 20
396.49433996679966
 30
0.0
 11
455.14439618040785
 21
394.06898371643626
 31
0.0
  0
LINE
  5
6E
100
AcDbEntity
  8
0
  6
Continuous
 62
               6
100
AcDbLine
 10
453.85563256834575
 20
395.80834562622965
 30
0.0
 11
452.40041881812772
 21
393.38298937586626
 31
0.0
  0
LINE
  5
6F
100
AcDbEntity
  8
0
  6
Continuous
 62
               6
100
AcDbLine
 10
451.11165520606562
 20
395.12235128565953
 30
0.0
 11
449.65644145584758
 21
392.69699503529625
 31
0.0
  0
LINE
  5
70
100
AcDbEntity
  8
0
  6
Continuous
 62
               6
100
AcDbLine
 10
448.36767784378537
 20
394.43635694508941
 30
0.0
 11
446.91246409356745
 21
392.01100069472625
 31
0.0
  0
LINE
  5
71
100
AcDbEntity
  8
0
  6
Continuous
 62
               6
100
AcDbLine
 10
445.62370048150524
 20
393.75036260451952
 30
0.0
 11
444.16848673128732
 21
391.32500635415613
 31
0.0
  0
LINE
  5
72
100
AcDbEntity
  8
0
  6
Continuous
 62
               6
100
AcDbLine
 10
442.8797231192251
 20
393.06436826394952
 30
0.0
 11
441.42450936900718
 21
390.63901201358613
 31
0.0
  0
LINE
  5
73
100
AcDbEntity
  8
0
  6
Continuous
 62
               6
100
AcDbLine
 10
440.13574575694497
 20
392.3783739233794
 30
0.0
 11
438.68053200672705
 21
389.95301767301612
 31
0.0
  0
LINE
  5
74
100
AcDbEntity
  8
0
  6
Continuous
 62
               6
100
AcDbLine
 10
437.39176839466484
 20
391.69237958280939
 30
0.0
 11
435.93655464444691
 21
389.26702333244612
 31
0.0
  0
LINE
  5
75
100
AcDbEntity
  8
0
  6
Continuous
 62
               6
100
AcDbLine
 10
434.6477910323847
 20
391.00638524223939
 30
0.0
 11
433.19257728216667
 21
388.58102899187611
 31
0.0
  0
LINE
  5
76
100
AcDbEntity
  8
0
  6
Continuous
 62
               6
100
AcDbLine
 10
431.90381367010457
 20
390.32039090166938
 30
0.0
 11
430.44859991988665
 21
387.89503465130599
 31
0.0
  0
LINE
  5
77
100
AcDbEntity
  8
0
  6
Continuous
 62
               6
100
AcDbLine
 10
429.15983630782443
 20
389.63439656109927
 30
0.0
 11
427.7046225576064
 21
387.2090403107361
 31
0.0
  0
LINE
  5
78
100
AcDbEntity
  8
0
  6
Continuous
 62
               6
100
AcDbLine
 10
426.4158589455443
 20
388.94840222052926
 30
0.0
 11
424.96064519532626
 21
386.52304597016598
 31
0.0
  0
LINE
  5
79
100
AcDbEntity
  8
0
  6
Continuous
 62
               6
100
AcDbLine
 10
423.67188158326417
 20
388.26240787995926
 30
0.0
 11
422.21666783304613
 21
385.83705162959586
 31
0.0
  0
LINE
  5
7A
100
AcDbEntity
  8
0
  6
Continuous
 62
               6
100
AcDbLine
 10
420.92790422098403
 20
387.57641353938914
 30
0.0
 11
419.472690470766
 21
385.15105728902586
 31
0.0
  0
LINE
  5
7B
100
AcDbEntity
  8
0
  6
Continuous
 62
               6
100
AcDbLine
 10
418.1839268587039
 20
386.89041919881902
 30
0.0
 11
416.72871310848586
 21
384.46506294845585
 31
0.0
  0
LINE
  5
7C
100
AcDbEntity
  8
0
  6
Continuous
 62
               6
100
AcDbLine
 10
415.43994949642365
 20
386.20442485824901
 30
0.0
 11
413.98473574620573
 21
383.77906860788573
 31
0.0
  0
LINE
  5
7D
100
AcDbEntity
  8
0
  6
Continuous
 62
               6
100
AcDbLine
 10
412.69597213414352
 20
385.51843051767912
 30
0.0
 11
411.24075838392559
 21
383.09307426731573
 31
0.0
  0
LINE
  5
7E
100
AcDbEntity
  8
0
  6
Continuous
 62
               6
100
AcDbLine
 10
409.95199477186338
 20
384.832436177109
 30
0.0
 11
408.49678102164546
 21
382.40707992674572
 31
0.0
  0
LINE
  5
7F
100
AcDbEntity
  8
0
  6
Continuous
 62
               6
100
AcDbLine
 10
407.20801740958325
 20
384.146441836539
 30
0.0
 11
405.75280365936533
 21
381.72108558617572
 31
0.0
  0
LINE
  5
80
100
AcDbEntity
  8
0
  6
Continuous
 62
               6
100
AcDbLine
 10
404.46404004730311
 20
383.46044749596899
 30
0.0
 11
403.00882629708508
 21
381.03509124560571
 31
0.0
  0
LINE
  5
81
100
AcDbEntity
  8
0
  6
Continuous
 62
               6
100
AcDbLine
 10
401.72006268502298
 20
382.77445315539899
 30
0.0
 11
400.26484893480506
 21
380.34909690503559
 31
0.0
  0
LINE
  5
82
100
AcDbEntity
  8
0
  6
Continuous
 62
               6
100
AcDbLine
 10
398.97608532274285
 20
382.08845881482898
 30
0.0
 11
397.52087157252492
 21
379.66310256446559
 31
0.0
  0
LINE
  5
83
100
AcDbEntity
  8
0
  6
Continuous
 62
               6
100
AcDbLine
 10
396.23210796046271
 20
381.40246447425886
 30
0.0
 11
394.77689421024468
 21
378.9771082238957
 31
0.0
  0
LINE
  5
84
100
AcDbEntity
  8
0
  6
Continuous
 62
               6
100
AcDbLine
 10
393.48813059818258
 20
380.71647013368886
 30
0.0
 11
392.03291684796454
 21
378.29111388332547
 31
0.0
  0
LINE
  5
85
100
AcDbEntity
  8
0
  6
Continuous
 62
               6
100
AcDbLine
 10
468.98685763795322
 20
260.93045493179761
 30
0.0
 11
688.44459414548533
 21
206.06602080491334
 31
0.0
  0
LINE
  5
86
100
AcDbEntity
  8
0
  6
Continuous
 62
               6
100
AcDbLine
 10
688.44459414548533
 20
309.14366144535597
 30
0.0
 11
493.24042014158636
 21
357.9447049463306
 31
0.0
  0
LINE
  5
87
100
AcDbEntity
  8
0
  6
Continuous
 62
               6
100
AcDbLine
 10
493.24042014158636
 20
357.9447049463306
 30
0.0
 11
468.98685763795322
 21
260.93045493179761
 31
0.0
  0
LINE
  5
88
100
AcDbEntity
  8
0
  6
Continuous
 62
               3
100
AcDbLine
 10
688.44459414548533
 20
311.82368010200742
 30
0.0
 11
467.08891950554471
 21
367.16259876199251
 31
0.0
  0
LINE
  5
89
100
AcDbEntity
  8
0
  6
Continuous
 62
               3
100
AcDbLine
 10
688.44459414548533
 20
324.19299697886049
 30
0.0
 11
467.08891950554471
 21
379.53191563884559
 31
0.0
  0
LINE
  5
8A
100
AcDbEntity
  8
0
  6
Continuous
 62
               3
100
AcDbLine
 10
467.08891950554471
 20
367.16259876199251
 30
0.0
 11
469.99934700598067
 21
378.80430876373646
 31
0.0
  0
LINE
  5
8B
100
AcDbEntity
  8
0
  6
Continuous
 62
               3
100
AcDbLine
 10
688.44459414548533
 20
336.56231385571346
 30
0.0
 11
469.99934700598078
 21
391.17362564058942
 31
0.0
  0
LINE
  5
8C
100
AcDbEntity
  8
0
  6
Continuous
 62
               3
100
AcDbLine
 10
467.08891950554471
 20
379.53191563884559
 30
0.0
 11
469.99934700598078
 21
391.17362564058942
 31
0.0
  0
LINE
  5
8D
100
AcDbEntity
  8
0
  6
DASHED
 62
               6
100
AcDbLine
 10
688.44459414548533
 20
338.6238666685224
 30
0.0
 11
470.48441825605346
 21
393.11391064088002
 31
0.0
  0
LINE
  5
8E
100
AcDbEntity
  8
0
  6
Continuous
 62
               2
100
AcDbLine
 10
688.44459414548533
 20
341.71619588773569
 30
0.0
 11
471.21202513116248
 21
396.02433814131609
 31
0.0
  0
LINE
  5
8F
100
AcDbEntity
  8
0
  6
Continuous
 62
               4
100
AcDbLine
 10
544.21524826709856
 20
379.83508517014081
 30
0.0
 11
471.69709638123516
 21
397.96462314160681
 31
0.0
  0
LINE
  5
90
100
AcDbEntity
  8
0
  6
Continuous
 62
               2
100
AcDbLine
 10
563.0912532814491
 20
377.17763672936212
 30
0.0
 11
467.08891950554471
 21
401.17822017333822
 31
0.0
  0
LINE
  5
91
100
AcDbEntity
  8
0
  6
Continuous
 62
               4
100
AcDbLine
 10
544.21524826709856
 20
379.83508517014081
 30
0.0
 11
562.73629402604092
 21
376.58514574109631
 31
0.0
  0
LINE
  5
92
100
AcDbEntity
  8
0
  6
Continuous
 62
               2
100
AcDbLine
 10
562.67615166263704
 20
375.13533747726751
 30
0.0
 11
546.90154717928749
 21
377.6173458324871
 31
0.0
  0
LINE
  5
93
100
AcDbEntity
  8
0
  6
Continuous
 62
               6
100
AcDbLine
 10
543.24461338932451
 20
380.07774388958433
 30
0.0
 11
542.75954213925195
 21
378.13745888929373
 31
0.0
  0
LINE
  5
94
100
AcDbEntity
  8
0
  6
Continuous
 62
               6
100
AcDbLine
 10
472.09027435590326
 20
397.86632864793978
 30
0.0
 11
473.5454881061213
 21
395.4409723975765
 31
0.0
  0
LINE
  5
95
100
AcDbEntity
  8
0
  6
Continuous
 62
               6
100
AcDbLine
 10
474.8342517181834
 20
397.18033430736966
 30
0.0
 11
476.28946546840143
 21
394.7549780570065
 31
0.0
  0
LINE
  5
96
100
AcDbEntity
  8
0
  6
Continuous
 62
               6
100
AcDbLine
 10
477.57822908046364
 20
396.49433996679966
 30
0.0
 11
479.03344283068157
 21
394.06898371643626
 31
0.0
  0
LINE
  5
97
100
AcDbEntity
  8
0
  6
Continuous
 62
               6
100
AcDbLine
 10
480.32220644274378
 20
395.80834562622965
 30
0.0
 11
481.7774201929617
 21
393.38298937586626
 31
0.0
  0
LINE
  5
98
100
AcDbEntity
  8
0
  6
Continuous
 62
               6
100
AcDbLine
 10
483.06618380502391
 20
395.12235128565953
 30
0.0
 11
484.52139755524183
 21
392.69699503529625
 31
0.0
  0
LINE
  5
99
100
AcDbEntity
  8
0
  6
Continuous
 62
               6
100
AcDbLine
 10
485.81016116730405
 20
394.43635694508941
 30
0.0
 11
487.26537491752197
 21
392.01100069472625
 31
0.0
  0
LINE
  5
9A
100
AcDbEntity
  8
0
  6
Continuous
 62
               6
100
AcDbLine
 10
488.55413852958418
 20
393.75036260451952
 30
0.0
 11
490.00935227980221
 21
391.32500635415613
 31
0.0
  0
LINE
  5
9B
100
AcDbEntity
  8
0
  6
Continuous
 62
               6
100
AcDbLine
 10
491.29811589186431
 20
393.06436826394952
 30
0.0
 11
492.75332964208235
 21
390.63901201358613
 31
0.0
  0
LINE
  5
9C
100
AcDbEntity
  8
0
  6
Continuous
 62
               6
100
AcDbLine
 10
494.04209325414445
 20
392.3783739233794
 30
0.0
 11
495.49730700436248
 21
389.95301767301612
 31
0.0
  0
LINE
  5
9D
100
AcDbEntity
  8
0
  6
Continuous
 62
               6
100
AcDbLine
 10
496.78607061642458
 20
391.69237958280939
 30
0.0
 11
498.24128436664262
 21
389.26702333244612
 31
0.0
  0
LINE
  5
9E
100
AcDbEntity
  8
0
  6
Continuous
 62
               6
100
AcDbLine
 10
499.53004797870472
 20
391.00638524223939
 30
0.0
 11
500.98526172892275
 21
388.58102899187611
 31
0.0
  0
LINE
  5
9F
100
AcDbEntity
  8
0
  6
Continuous
 62
               6
100
AcDbLine
 10
502.27402534098485
 20
390.32039090166938
 30
0.0
 11
503.72923909120288
 21
387.89503465130599
 31
0.0
  0
LINE
  5
A0
100
AcDbEntity
  8
0
  6
Continuous
 62
               6
100
AcDbLine
 10
505.01800270326498
 20
389.63439656109927
 30
0.0
 11
506.47321645348302
 21
387.2090403107361
 31
0.0
  0
LINE
  5
A1
100
AcDbEntity
  8
0
  6
Continuous
 62
               6
100
AcDbLine
 10
507.76198006554523
 20
388.94840222052926
 30
0.0
 11
509.21719381576315
 21
386.52304597016598
 31
0.0
  0
LINE
  5
A2
100
AcDbEntity
  8
0
  6
Continuous
 62
               6
100
AcDbLine
 10
510.50595742782525
 20
388.26240787995926
 30
0.0
 11
511.96117117804329
 21
385.83705162959586
 31
0.0
  0
LINE
  5
A3
100
AcDbEntity
  8
0
  6
Continuous
 62
               6
100
AcDbLine
 10
513.2499347901055
 20
387.57641353938914
 30
0.0
 11
514.70514854032342
 21
385.15105728902586
 31
0.0
  0
LINE
  5
A4
100
AcDbEntity
  8
0
  6
Continuous
 62
               6
100
AcDbLine
 10
515.99391215238563
 20
386.89041919881902
 30
0.0
 11
517.44912590260356
 21
384.46506294845585
 31
0.0
  0
LINE
  5
A5
100
AcDbEntity
  8
0
  6
Continuous
 62
               6
100
AcDbLine
 10
518.73788951466577
 20
386.20442485824901
 30
0.0
 11
520.19310326488369
 21
383.77906860788573
 31
0.0
  0
LINE
  5
A6
100
AcDbEntity
  8
0
  6
Continuous
 62
               6
100
AcDbLine
 10
521.4818668769459
 20
385.51843051767912
 30
0.0
 11
522.93708062716394
 21
383.09307426731561
 31
0.0
  0
LINE
  5
A7
100
AcDbEntity
  8
0
  6
Continuous
 62
               6
100
AcDbLine
 10
524.22584423922603
 20
384.832436177109
 30
0.0
 11
525.68105798944407
 21
382.40707992674572
 31
0.0
  0
LINE
  5
A8
100
AcDbEntity
  8
0
  6
Continuous
 62
               6
100
AcDbLine
 10
526.96982160150628
 20
384.146441836539
 30
0.0
 11
528.4250353517242
 21
381.72108558617572
 31
0.0
  0
LINE
  5
A9
100
AcDbEntity
  8
0
  6
Continuous
 62
               6
100
AcDbLine
 10
529.7137989637863
 20
383.46044749596899
 30
0.0
 11
531.16901271400434
 21
381.03509124560571
 31
0.0
  0
LINE
  5
AA
100
AcDbEntity
  8
0
  6
Continuous
 62
               6
100
AcDbLine
 10
532.45777632606655
 20
382.77445315539899
 30
0.0
 11
533.91299007628447
 21
380.34909690503559
 31
0.0
  0
LINE
  5
AB
100
AcDbEntity
  8
0
  6
Continuous
 62
               6
100
AcDbLine
 10
535.20175368834657
 20
382.08845881482898
 30
0.0
 11
536.65696743856461
 21
379.66310256446559
 31
0.0
  0
LINE
  5
AC
100
AcDbEntity
  8
0
  6
Continuous
 62
               6
100
AcDbLine
 10
537.94573105062682
 20
381.40246447425886
 30
0.0
 11
539.40094480084485
 21
378.97710822389558
 31
0.0
  0
LINE
  5
AD
100
AcDbEntity
  8
0
  6
Continuous
 62
               6
100
AcDbLine
 10
540.68970841290684
 20
380.71647013368886
 30
0.0
 11
542.14492216312487
 21
378.29111388332547
 31
0.0
  0
LINE
  5
AE
100
AcDbEntity
  8
0
  6
Continuous
 62
               7
100
AcDbLine
 10
466.6473927363628
 20
381.29802271557332
 30
0.0
 11
465.32057664913179
 21
379.08982992474216
 31
0.0
  0
LINE
  5
AF
100
AcDbEntity
  8
0
  6
Continuous
 62
               7
100
AcDbLine
 10
464.93349070128465
 20
388.15363085588581
 30
0.0
 11
458.4562897431822
 21
377.3737581982549
 31
0.0
  0
LINE
  5
B0
100
AcDbEntity
  8
0
  6
Continuous
 62
               7
100
AcDbLine
 10
460.33802300595869
 20
390.21350839080196
 30
0.0
 11
451.59200283723271
 21
375.65768647176742
 31
0.0
  0
LINE
  5
B1
100
AcDbEntity
  8
0
  6
Continuous
 62
               7
100
AcDbLine
 10
453.47373610000909
 20
388.49743666431459
 30
0.0
 11
444.72771593128311
 21
373.94161474528005
 31
0.0
  0
LINE
  5
B2
100
AcDbEntity
  8
0
  6
Continuous
 62
               7
100
AcDbLine
 10
446.60944919405961
 20
386.78136493782722
 30
0.0
 11
437.86342902533352
 21
372.22554301879279
 31
0.0
  0
LINE
  5
B3
100
AcDbEntity
  8
0
  6
Continuous
 62
               7
100
AcDbLine
 10
439.74516228811001
 20
385.06529321133962
 30
0.0
 11
430.99914211938403
 21
370.50947129230531
 31
0.0
  0
LINE
  5
B4
100
AcDbEntity
  8
0
  6
Continuous
 62
               7
100
AcDbLine
 10
432.88087538216041
 20
383.34922148485236
 30
0.0
 11
424.13485521343443
 21
368.79339956581782
 31
0.0
  0
LINE
  5
B5
100
AcDbEntity
  8
0
  6
Continuous
 62
               7
100
AcDbLine
 10
426.01658847621127
 20
381.63314975836499
 30
0.0
 11
417.27056830748529
 21
367.07732783933045
 31
0.0
  0
LINE
  5
B6
100
AcDbEntity
  8
0
  6
Continuous
 62
               7
100
AcDbLine
 10
419.15230157026167
 20
379.91707803187762
 30
0.0
 11
410.40628140153569
 21
365.36125611284319
 31
0.0
  0
LINE
  5
B7
100
AcDbEntity
  8
0
  6
Continuous
 62
               7
100
AcDbLine
 10
412.28801466431219
 20
378.20100630539014
 30
0.0
 11
403.5419944955861
 21
363.64518438635571
 31
0.0
  0
LINE
  5
B8
100
AcDbEntity
  8
0
  6
Continuous
 62
               7
100
AcDbLine
 10
405.42372775836259
 20
376.48493457890277
 30
0.0
 11
396.6777075896365
 21
361.92911265986822
 31
0.0
  0
LINE
  5
B9
100
AcDbEntity
  8
0
  6
Continuous
 62
               7
100
AcDbLine
 10
398.55944085241299
 20
374.7688628524154
 30
0.0
 11
389.81342068368701
 21
360.21304093338097
 31
0.0
  0
LINE
  5
BA
100
AcDbEntity
  8
0
  6
Continuous
 62
               7
100
AcDbLine
 10
391.69515394646339
 20
373.05279112592802
 30
0.0
 11
382.94913377773742
 21
358.4969692068936
 31
0.0
  0
LINE
  5
BB
100
AcDbEntity
  8
0
  6
Continuous
 62
               7
100
AcDbLine
 10
384.83086846464244
 20
371.3367121260784
 30
0.0
 11
376.08484687178782
 21
356.78089748040611
 31
0.0
  0
LINE
  5
BC
100
AcDbEntity
  8
0
  6
Continuous
 62
               7
100
AcDbLine
 10
377.96658013456431
 20
369.6206476729534
 30
0.0
 11
369.22055996583833
 21
355.06482575391863
 31
0.0
  0
LINE
  5
BD
100
AcDbEntity
  8
0
  6
Continuous
 62
               7
100
AcDbLine
 10
371.10229322861471
 20
367.90457594646591
 30
0.0
 11
362.35627305988874
 21
353.34875402743148
 31
0.0
  0
LINE
  5
BE
100
AcDbEntity
  8
0
  6
Continuous
 62
               7
100
AcDbLine
 10
364.23800632266511
 20
366.18850421997843
 30
0.0
 11
355.49198615393914
 21
351.632682300944
 31
0.0
  0
LINE
  5
BF
100
AcDbEntity
  8
0
  6
Continuous
 62
               7
100
AcDbLine
 10
357.37371941671552
 20
364.47243249349106
 30
0.0
 11
348.62769924798954
 21
349.91661057445651
 31
0.0
  0
LINE
  5
C0
100
AcDbEntity
  8
0
  6
Continuous
 62
               7
100
AcDbLine
 10
350.50943251076603
 20
362.7563607670038
 30
0.0
 11
341.76341234204006
 21
348.20053884796914
 31
0.0
  0
LINE
  5
C1
100
AcDbEntity
  8
0
  6
Continuous
 62
               7
100
AcDbLine
 10
343.64514560481643
 20
361.04028904051631
 30
0.0
 11
334.89912543609034
 21
346.48446712148188
 31
0.0
  0
LINE
  5
C2
100
AcDbEntity
  8
0
  6
Continuous
 62
               7
100
AcDbLine
 10
336.78085869886684
 20
359.32421731402883
 30
0.0
 11
328.03483853014063
 21
344.7683953949944
 31
0.0
  0
LINE
  5
C3
100
AcDbEntity
  8
0
  6
Continuous
 62
               7
100
AcDbLine
 10
329.91657179291713
 20
357.60814558754146
 30
0.0
 11
321.17055162419103
 21
343.05232366850692
 31
0.0
  0
LINE
  5
C4
100
AcDbEntity
  8
0
  6
Continuous
 62
               7
100
AcDbLine
 10
323.05228488696753
 20
355.8920738610542
 30
0.0
 11
314.30626471824149
 21
341.33625194201966
 31
0.0
  0
LINE
  5
C5
100
AcDbEntity
  8
0
  6
Continuous
 62
               7
100
AcDbLine
 10
316.18799798101793
 20
354.17600213456672
 30
0.0
 11
307.44196380727323
 21
339.62015690726685
 31
0.0
  0
LINE
  5
C6
100
AcDbEntity
  8
0
  6
Continuous
 62
               7
100
AcDbLine
 10
309.32371107506833
 20
352.45993040807923
 30
0.0
 11
300.5776762991544
 21
337.90408417860169
 31
0.0
  0
LINE
  5
C7
100
AcDbEntity
  8
0
  6
Continuous
 62
               7
100
AcDbLine
 10
313.19163870278931
 20
328.6882785613036
 30
0.0
 11
298.65424479483301
 21
337.42322606388586
 31
0.0
  0
LINE
  5
C8
100
AcDbEntity
  8
0
  6
Continuous
 62
               7
100
AcDbLine
 10
320.04724684310179
 20
330.40218059638175
 30
0.0
 11
305.50985193550031
 21
339.13712869961125
 31
0.0
  0
LINE
  5
C9
100
AcDbEntity
  8
0
  6
Continuous
 62
               7
100
AcDbLine
 10
326.90285704462514
 20
332.11605644388169
 30
0.0
 11
312.36543651528751
 21
340.85104489128116
 31
0.0
  0
LINE
  5
CA
100
AcDbEntity
  8
0
  6
Continuous
 62
               7
100
AcDbLine
 10
333.7584631237267
 20
333.82998466653794
 30
0.0
 11
319.2210446556
 21
342.56494692635931
 31
0.0
  0
LINE
  5
CB
100
AcDbEntity
  8
0
  6
Continuous
 62
               7
100
AcDbLine
 10
340.61407126403924
 20
335.54388670161609
 30
0.0
 11
326.07665279591254
 21
344.27884896143735
 31
0.0
  0
LINE
  5
CC
100
AcDbEntity
  8
0
  6
Continuous
 62
               7
100
AcDbLine
 10
347.46967940435172
 20
337.25778873669412
 30
0.0
 11
332.93226093622502
 21
345.9927509965155
 31
0.0
  0
LINE
  5
CD
100
AcDbEntity
  8
0
  6
Continuous
 62
               7
100
AcDbLine
 10
354.32528754466409
 20
338.97169077177239
 30
0.0
 11
339.7878690765375
 21
347.70665303159353
 31
0.0
  0
LINE
  5
CE
100
AcDbEntity
  8
0
  6
Continuous
 62
               7
100
AcDbLine
 10
361.18089568497669
 20
340.68559280685042
 30
0.0
 11
346.64347721684987
 21
349.4205550666718
 31
0.0
  0
LINE
  5
CF
100
AcDbEntity
  8
0
  6
Continuous
 62
               7
100
AcDbLine
 10
368.03650382528906
 20
342.39949484192869
 30
0.0
 11
353.49908535716247
 21
351.13445710174972
 31
0.0
  0
LINE
  5
D0
100
AcDbEntity
  8
0
  6
Continuous
 62
               7
100
AcDbLine
 10
374.89211196560154
 20
344.11339687700672
 30
0.0
 11
360.35469349747484
 21
352.84835913682809
 31
0.0
  0
LINE
  5
D1
100
AcDbEntity
  8
0
  6
Continuous
 62
               7
100
AcDbLine
 10
381.74772010591403
 20
345.82729891208476
 30
0.0
 11
367.21030163778732
 21
354.56226117190602
 31
0.0
  0
LINE
  5
D2
100
AcDbEntity
  8
0
  6
Continuous
 62
               7
100
AcDbLine
 10
388.60332824622651
 20
347.54120094716291
 30
0.0
 11
374.06590977809981
 21
356.27616320698417
 31
0.0
  0
LINE
  5
D3
100
AcDbEntity
  8
0
  6
Continuous
 62
               7
100
AcDbLine
 10
395.45893638653899
 20
349.25510298224106
 30
0.0
 11
380.92151791841229
 21
357.99006524206231
 31
0.0
  0
LINE
  5
D4
100
AcDbEntity
  8
0
  6
Continuous
 62
               7
100
AcDbLine
 10
402.31454452685148
 20
350.9690050173192
 30
0.0
 11
387.77712605872478
 21
359.70396727714046
 31
0.0
  0
LINE
  5
D5
100
AcDbEntity
  8
0
  6
Continuous
 62
               7
100
AcDbLine
 10
409.17015266716396
 20
352.68290705239713
 30
0.0
 11
394.63273419903726
 21
361.41786931221861
 31
0.0
  0
LINE
  5
D6
100
AcDbEntity
  8
0
  6
Continuous
 62
               7
100
AcDbLine
 10
416.02576080747656
 20
354.39680908747539
 30
0.0
 11
401.48834233934974
 21
363.13177134729665
 31
0.0
  0
LINE
  5
D7
100
AcDbEntity
  8
0
  6
Continuous
 62
               7
100
AcDbLine
 10
422.88136894778893
 20
356.11071112255343
 30
0.0
 11
408.34395047966223
 21
364.8456733823748
 31
0.0
  0
LINE
  5
D8
100
AcDbEntity
  8
0
  6
Continuous
 62
               7
100
AcDbLine
 10
429.73697708810141
 20
357.82461315763169
 30
0.0
 11
415.19955861997471
 21
366.55957541745295
 31
0.0
  0
LINE
  5
D9
100
AcDbEntity
  8
0
  6
Continuous
 62
               7
100
AcDbLine
 10
436.5925852284139
 20
359.53851519270972
 30
0.0
 11
422.05516676028719
 21
368.2734774525311
 31
0.0
  0
LINE
  5
DA
100
AcDbEntity
  8
0
  6
Continuous
 62
               7
100
AcDbLine
 10
443.44819336872649
 20
361.25241722778799
 30
0.0
 11
428.91077490059968
 21
369.98737948760913
 31
0.0
  0
LINE
  5
DB
100
AcDbEntity
  8
0
  6
Continuous
 62
               7
100
AcDbLine
 10
450.30380150903898
 20
362.96631926286602
 30
0.0
 11
435.76638304091216
 21
371.7012815226874
 31
0.0
  0
LINE
  5
DC
100
AcDbEntity
  8
0
  6
Continuous
 62
               7
100
AcDbLine
 10
457.15940964935146
 20
364.68022129794406
 30
0.0
 11
442.62199118122476
 21
373.41518355776532
 31
0.0
  0
LINE
  5
DD
100
AcDbEntity
  8
0
  6
Continuous
 62
               7
100
AcDbLine
 10
464.01501778966394
 20
366.39412333302221
 30
0.0
 11
449.47759932153724
 21
375.12908559284358
 31
0.0
  0
LINE
  5
DE
100
AcDbEntity
  8
0
  6
Continuous
 62
               7
100
AcDbLine
 10
466.14229604924185
 20
370.94909258720509
 30
0.0
 11
456.33320746184972
 21
376.84298762792162
 31
0.0
  0
LINE
  5
DF
100
AcDbEntity
  8
0
  6
Continuous
 62
               7
100
AcDbLine
 10
464.42622432275448
 20
377.81337949315468
 30
0.0
 11
463.18881560216221
 21
378.55688966299977
 31
0.0
  0
LINE
  5
E0
100
AcDbEntity
  8
0
  6
Continuous
 62
               7
100
AcDbLine
 10
664.6006206653326
 20
342.52330722575152
 30
0.0
 11
650.06320219720578
 21
333.78834496593026
 31
0.0
  0
LINE
  5
E1
100
AcDbEntity
  8
0
  6
Continuous
 62
               7
100
AcDbLine
 10
657.74501252502023
 20
344.23720926082979
 30
0.0
 11
643.2075940568933
 21
335.50224700100841
 31
0.0
  0
LINE
  5
E2
100
AcDbEntity
  8
0
  6
Continuous
 62
               7
100
AcDbLine
 10
650.88940438470763
 20
345.95111129590782
 30
0.0
 11
636.35198591658082
 21
337.21614903608645
 31
0.0
  0
LINE
  5
E3
100
AcDbEntity
  8
0
  6
Continuous
 62
               7
100
AcDbLine
 10
644.03379624439492
 20
347.66501333098586
 30
0.0
 11
629.4963777762681
 21
338.9300510711646
 31
0.0
  0
LINE
  5
E4
100
AcDbEntity
  8
0
  6
Continuous
 62
               7
100
AcDbLine
 10
637.17818810408244
 20
349.37891536606401
 30
0.0
 11
622.64076963595562
 21
340.64395310624275
 31
0.0
  0
LINE
  5
E5
100
AcDbEntity
  8
0
  6
Continuous
 62
               7
100
AcDbLine
 10
630.32257996376995
 20
351.09281740114216
 30
0.0
 11
615.78516149564314
 21
342.3578551413209
 31
0.0
  0
LINE
  5
E6
100
AcDbEntity
  8
0
  6
Continuous
 62
               7
100
AcDbLine
 10
623.46697182345747
 20
352.80671943622031
 30
0.0
 11
608.92955335533065
 21
344.07175717639882
 31
0.0
  0
LINE
  5
E7
100
AcDbEntity
  8
0
  6
Continuous
 62
               7
100
AcDbLine
 10
616.61136368314499
 20
354.52062147129834
 30
0.0
 11
602.07394521501828
 21
345.7856592114772
 31
0.0
  0
LINE
  5
E8
100
AcDbEntity
  8
0
  6
Continuous
 62
               7
100
AcDbLine
 10
609.7557555428325
 20
356.23452350637649
 30
0.0
 11
595.21833707470569
 21
347.49956124655512
 31
0.0
  0
LINE
  5
E9
100
AcDbEntity
  8
0
  6
Continuous
 62
               7
100
AcDbLine
 10
602.90014740252002
 20
357.94842554145453
 30
0.0
 11
588.36272893439332
 21
349.21346328163338
 31
0.0
  0
LINE
  5
EA
100
AcDbEntity
  8
0
  6
Continuous
 62
               7
100
AcDbLine
 10
596.04453926220754
 20
359.66232757653279
 30
0.0
 11
581.50712079408083
 21
350.92736531671142
 31
0.0
  0
LINE
  5
EB
100
AcDbEntity
  8
0
  6
Continuous
 62
               7
100
AcDbLine
 10
589.18893112189505
 20
361.37622961161082
 30
0.0
 11
574.65151265376835
 21
352.64126735178957
 31
0.0
  0
LINE
  5
EC
100
AcDbEntity
  8
0
  6
Continuous
 62
               7
100
AcDbLine
 10
582.33332298158257
 20
363.09013164668909
 30
0.0
 11
567.79590451345587
 21
354.35516938686771
 31
0.0
  0
LINE
  5
ED
100
AcDbEntity
  8
0
  6
Continuous
 62
               7
100
AcDbLine
 10
575.47771484127009
 20
364.80403368176712
 30
0.0
 11
560.94029637314338
 21
356.06907142194575
 31
0.0
  0
LINE
  5
EE
100
AcDbEntity
  8
0
  6
Continuous
 62
               7
100
AcDbLine
 10
568.6221067009576
 20
366.51793571684516
 30
0.0
 11
554.0846882328309
 21
357.7829734570239
 31
0.0
  0
LINE
  5
EF
100
AcDbEntity
  8
0
  6
Continuous
 62
               7
100
AcDbLine
 10
561.76649856064512
 20
368.23183775192342
 30
0.0
 11
547.22908009251842
 21
359.49687549210205
 31
0.0
  0
LINE
  5
F0
100
AcDbEntity
  8
0
  6
Continuous
 62
               7
100
AcDbLine
 10
554.91089042033263
 20
369.94573978700146
 30
0.0
 11
540.37347195220593
 21
361.2107775271802
 31
0.0
  0
LINE
  5
F1
100
AcDbEntity
  8
0
  6
Continuous
 62
               7
100
AcDbLine
 10
548.05528228002015
 20
371.65964182207961
 30
0.0
 11
533.51786381189345
 21
362.92467956225823
 31
0.0
  0
LINE
  5
F2
100
AcDbEntity
  8
0
  6
Continuous
 62
               7
100
AcDbLine
 10
541.19967413970767
 20
373.37354385715764
 30
0.0
 11
526.66225567158097
 21
364.6385815973365
 31
0.0
  0
LINE
  5
F3
100
AcDbEntity
  8
0
  6
Continuous
 62
               7
100
AcDbLine
 10
534.34406599939518
 20
375.08744589223591
 30
0.0
 11
519.80664753126848
 21
366.35248363241442
 31
0.0
  0
LINE
  5
F4
100
AcDbEntity
  8
0
  6
Continuous
 62
               7
100
AcDbLine
 10
527.4884578590827
 20
376.80134792731383
 30
0.0
 11
512.951039390956
 21
368.0663856674928
 31
0.0
  0
LINE
  5
F5
100
AcDbEntity
  8
0
  6
Continuous
 62
               7
100
AcDbLine
 10
520.63284971877022
 20
378.51524996239209
 30
0.0
 11
506.09543125064351
 21
369.78028770257072
 31
0.0
  0
LINE
  5
F6
100
AcDbEntity
  8
0
  6
Continuous
 62
               7
100
AcDbLine
 10
513.77724157845773
 20
380.22915199747013
 30
0.0
 11
499.23982311033103
 21
371.49418973764898
 31
0.0
  0
LINE
  5
F7
100
AcDbEntity
  8
0
  6
Continuous
 62
               7
100
AcDbLine
 10
506.92163343814525
 20
381.94305403254839
 30
0.0
 11
492.38421497001855
 21
373.20809177272702
 31
0.0
  0
LINE
  5
F8
100
AcDbEntity
  8
0
  6
Continuous
 62
               7
100
AcDbLine
 10
500.06602529783277
 20
383.65695606762642
 30
0.0
 11
485.52860682970618
 21
374.92199380780517
 31
0.0
  0
LINE
  5
F9
100
AcDbEntity
  8
0
  6
Continuous
 62
               7
100
AcDbLine
 10
493.21041715752028
 20
385.37085810270446
 30
0.0
 11
478.67299868939369
 21
376.63589584288331
 31
0.0
  0
LINE
  5
FA
100
AcDbEntity
  8
0
  6
Continuous
 62
               7
100
AcDbLine
 10
486.3548090172078
 20
387.08476013778272
 30
0.0
 11
471.81739054908121
 21
378.34979787796135
 31
0.0
  0
LINE
  5
FB
100
AcDbEntity
  8
0
  6
Continuous
 62
               7
100
AcDbLine
 10
479.49920087689532
 20
388.79866217286076
 30
0.0
 11
467.62137698494405
 21
381.66174555644261
 31
0.0
  0
LINE
  5
FC
100
AcDbEntity
  8
0
  6
Continuous
 62
               7
100
AcDbLine
 10
472.64359273658283
 20
390.51256420793891
 30
0.0
 11
469.33744871143142
 21
388.5260324623921
 31
0.0
  0
LINE
  5
FD
100
AcDbEntity
  8
0
  6
Continuous
 62
               7
100
AcDbLine
 10
467.4612524629606
 20
367.06951552263843
 30
0.0
 11
467.18188505640023
 21
367.5344609654145
 31
0.0
  0
LINE
  5
FE
100
AcDbEntity
  8
0
  6
Continuous
 62
               7
100
AcDbLine
 10
474.3255393689102
 20
365.35344379615105
 30
0.0
 11
468.89578709147838
 21
374.39006910572709
 31
0.0
  0
LINE
  5
FF
100
AcDbEntity
  8
0
  6
Continuous
 62
               7
100
AcDbLine
 10
481.1898262748598
 20
363.6373720696638
 30
0.0
 11
472.44380610613382
 21
378.19319398869811
 31
0.0
  0
LINE
  5
100
100
AcDbEntity
  8
0
  6
Continuous
 62
               7
100
AcDbLine
 10
488.0541131808094
 20
361.92130034317631
 30
0.0
 11
479.30809301208342
 21
376.47712226221074
 31
0.0
  0
LINE
  5
101
100
AcDbEntity
  8
0
  6
Continuous
 62
               7
100
AcDbLine
 10
494.91840008675888
 20
360.20522861668883
 30
0.0
 11
486.1723799180329
 21
374.76105053572348
 31
0.0
  0
LINE
  5
102
100
AcDbEntity
  8
0
  6
Continuous
 62
               7
100
AcDbLine
 10
501.78268699270848
 20
358.48915689020168
 30
0.0
 11
493.0366668239825
 21
373.04497880923611
 31
0.0
  0
LINE
  5
103
100
AcDbEntity
  8
0
  6
Continuous
 62
               7
100
AcDbLine
 10
508.64697389865808
 20
356.7730851637142
 30
0.0
 11
499.9009537299321
 21
371.32890708274851
 31
0.0
  0
LINE
  5
104
100
AcDbEntity
  8
0
  6
Continuous
 62
               7
100
AcDbLine
 10
515.51126080460767
 20
355.05701343722671
 30
0.0
 11
506.76524063588158
 21
369.61283535626126
 31
0.0
  0
LINE
  5
105
100
AcDbEntity
  8
0
  6
Continuous
 62
               7
100
AcDbLine
 10
522.37554771055716
 20
353.34094171073923
 30
0.0
 11
513.62952754183118
 21
367.89676362977389
 31
0.0
  0
LINE
  5
106
100
AcDbEntity
  8
0
  6
Continuous
 62
               7
100
AcDbLine
 10
529.23983461650676
 20
351.62486998425209
 30
0.0
 11
520.49381444778078
 21
366.18069190328652
 31
0.0
  0
LINE
  5
107
100
AcDbEntity
  8
0
  6
Continuous
 62
               7
100
AcDbLine
 10
536.10412152245635
 20
349.9087982577646
 30
0.0
 11
527.35810135373038
 21
364.46462017679892
 31
0.0
  0
LINE
  5
108
100
AcDbEntity
  8
0
  6
Continuous
 62
               7
100
AcDbLine
 10
542.96840842840584
 20
348.19272653127712
 30
0.0
 11
534.22238825967986
 21
362.74854845031166
 31
0.0
  0
LINE
  5
109
100
AcDbEntity
  8
0
  6
Continuous
 62
               7
100
AcDbLine
 10
549.83269533435544
 20
346.47665480478975
 30
0.0
 11
541.08667516562946
 21
361.03247672382429
 31
0.0
  0
LINE
  5
10A
100
AcDbEntity
  8
0
  6
Continuous
 62
               7
100
AcDbLine
 10
556.69698224030503
 20
344.76058307830249
 30
0.0
 11
547.95096207157906
 21
359.31640499733692
 31
0.0
  0
LINE
  5
10B
100
AcDbEntity
  8
0
  6
Continuous
 62
               7
100
AcDbLine
 10
563.56126914625463
 20
343.044511351815
 30
0.0
 11
554.81524897752865
 21
357.60033327084943
 31
0.0
  0
LINE
  5
10C
100
AcDbEntity
  8
0
  6
Continuous
 62
               7
100
AcDbLine
 10
570.42555605220412
 20
341.32843962532752
 30
0.0
 11
561.67953588347814
 21
355.88426154436206
 31
0.0
  0
LINE
  5
10D
100
AcDbEntity
  8
0
  6
Continuous
 62
               7
100
AcDbLine
 10
577.28984295815371
 20
339.61236789884026
 30
0.0
 11
568.54382278942774
 21
354.16818981787469
 31
0.0
  0
LINE
  5
10E
100
AcDbEntity
  8
0
  6
Continuous
 62
               7
100
AcDbLine
 10
584.15412986410331
 20
337.89629617235289
 30
0.0
 11
575.40810969537733
 21
352.45211809138732
 31
0.0
  0
LINE
  5
10F
100
AcDbEntity
  8
0
  6
Continuous
 62
               7
100
AcDbLine
 10
591.0184167700528
 20
336.18022444586552
 30
0.0
 11
582.27239660132682
 21
350.73604636489995
 31
0.0
  0
LINE
  5
110
100
AcDbEntity
  8
0
  6
Continuous
 62
               7
100
AcDbLine
 10
597.88270367600239
 20
334.46415271937792
 30
0.0
 11
589.13668350727642
 21
349.01997463841246
 31
0.0
  0
LINE
  5
111
100
AcDbEntity
  8
0
  6
Continuous
 62
               7
100
AcDbLine
 10
604.74699058195199
 20
332.74808099289066
 30
0.0
 11
596.00097041322601
 21
347.30390291192521
 31
0.0
  0
LINE
  5
112
100
AcDbEntity
  8
0
  6
Continuous
 62
               7
100
AcDbLine
 10
611.61127748790159
 20
331.03200926640329
 30
0.0
 11
602.86525731917561
 21
345.58783118543772
 31
0.0
  0
LINE
  5
113
100
AcDbEntity
  8
0
  6
Continuous
 62
               7
100
AcDbLine
 10
618.47556439385107
 20
329.31593753991592
 30
0.0
 11
609.7295442251251
 21
343.87175945895035
 31
0.0
  0
LINE
  5
114
100
AcDbEntity
  8
0
  6
Continuous
 62
               7
100
AcDbLine
 10
625.33985129980067
 20
327.59986581342844
 30
0.0
 11
616.59383113107469
 21
342.15568773246309
 31
0.0
  0
LINE
  5
115
100
AcDbEntity
  8
0
  6
Continuous
 62
               7
100
AcDbLine
 10
632.20413820575027
 20
325.88379408694107
 30
0.0
 11
623.45811803702429
 21
340.43961600597561
 31
0.0
  0
LINE
  5
116
100
AcDbEntity
  8
0
  6
Continuous
 62
               7
100
AcDbLine
 10
639.06842511169987
 20
324.16772236045369
 30
0.0
 11
630.32240494297389
 21
338.72354427948812
 31
0.0
  0
LINE
  5
117
100
AcDbEntity
  8
0
  6
Continuous
 62
               7
100
AcDbLine
 10
645.93271201764958
 20
322.45165063396632
 30
0.0
 11
637.1866918489236
 21
337.00747255300075
 31
0.0
  0
LINE
  5
118
100
AcDbEntity
  8
0
  6
Continuous
 62
               7
100
AcDbLine
 10
652.79699892359918
 20
320.73557890747895
 30
0.0
 11
644.0509787548732
 21
335.2914008265135
 31
0.0
  0
LINE
  5
119
100
AcDbEntity
  8
0
  6
Continuous
 62
               7
100
AcDbLine
 10
659.66128582954877
 20
319.0195071809917
 30
0.0
 11
650.9152656608228
 21
333.57532910002601
 31
0.0
  0
LINE
  5
11A
100
AcDbEntity
  8
0
  6
Continuous
 62
               4
100
AcDbLine
 10
461.2680548801618
 20
424.46165757873234
 30
0.0
 11
465.63370451437845
 21
406.99907486397319
 31
0.0
  0
LINE
  5
11B
100
AcDbEntity
  8
0
  6
Continuous
 62
               4
100
AcDbLine
 10
364.25380982052036
 20
400.2080743386955
 30
0.0
 11
368.87243361343508
 21
381.73359590598034
 31
0.0
  0
LINE
  5
11C
100
AcDbEntity
  8
0
  6
Continuous
 62
               4
100
AcDbLine
 10
461.99566237574481
 20
421.55123023341491
 30
0.0
 11
364.98141731610349
 21
397.29764699337807
 31
0.0
  0
LINE
  5
11D
100
AcDbEntity
  8
0
  6
Continuous
 62
               4
100
AcDbLine
 10
468.54414322431057
 20
406.99903832647942
 30
0.0
 11
472.90978431605924
 21
424.46167941539636
 31
0.0
  0
LINE
  5
11E
100
AcDbEntity
  8
0
  6
Continuous
 62
               4
100
AcDbLine
 10
565.3054042106387
 20
381.73359643194806
 30
0.0
 11
569.92403433059246
 21
400.208116911763
 31
0.0
  0
LINE
  5
11F
100
AcDbEntity
  8
0
  6
Continuous
 62
               4
100
AcDbLine
 10
472.18217744095023
 20
421.5512519149604
 30
0.0
 11
569.19642745548344
 21
397.29768941132681
 31
0.0
  0
LINE
  5
120
100
AcDbEntity
  8
0
  6
Continuous
 62
               4
100
AcDbLine
 10
531.11127518753278
 20
385.17263125284114
 30
0.0
 11
561.86188095814259
 21
438.43424281105831
 31
0.0
  0
LINE
  5
121
100
AcDbEntity
  8
0
  6
Continuous
 62
               4
100
AcDbLine
 10
540.16172289487179
 20
380.84846651319754
 30
0.0
 11
561.86188095814259
 21
418.43424281105831
 31
0.0
  0
LINE
  5
122
100
AcDbEntity
  8
0
  6
Continuous
 62
               4
100
AcDbLine
 10
531.11127518753278
 20
385.17263125284114
 30
0.0
 11
534.18945647746386
 21
393.62986483991449
 31
0.0
  0
LINE
  5
123
100
AcDbEntity
  8
0
  6
Continuous
 62
               4
100
AcDbLine
 10
531.11127518753278
 20
385.17263125284114
 30
0.0
 11
536.89636367471167
 21
392.067031240912
 31
0.0
  0
LINE
  5
124
100
AcDbEntity
  8
0
  6
Continuous
 62
               4
100
AcDbLine
 10
540.16172289487179
 20
380.84846651319754
 30
0.0
 11
543.23990418480287
 21
389.30570010027088
 31
0.0
  0
LINE
  5
125
100
AcDbEntity
  8
0
  6
Continuous
 62
               4
100
AcDbLine
 10
540.16172289487179
 20
380.84846651319754
 30
0.0
 11
545.94681138205067
 21
387.7428665012684
 31
0.0
  0
LINE
  5
126
100
AcDbEntity
  8
0
  6
Continuous
 62
               4
100
AcDbLine
 10
181.8234705383162
 20
441.12059459791681
 30
0.0
 11
321.8234705383162
 21
441.12059459791681
 31
0.0
  0
LINE
  5
127
100
AcDbEntity
  8
0
  6
Continuous
 62
               4
100
AcDbLine
 10
181.8234705383162
 20
425.12059459791669
 30
0.0
 11
331.06107484535022
 21
425.12059459791669
 31
0.0
  0
LINE
  5
128
100
AcDbEntity
  8
0
  6
Continuous
 62
               4
100
AcDbLine
 10
181.8234705383162
 20
409.12059459791669
 30
0.0
 11
340.29867915238424
 21
409.12059459791669
 31
0.0
  0
LINE
  5
129
100
AcDbEntity
  8
0
  6
Continuous
 62
               4
100
AcDbLine
 10
321.8234705383162
 20
441.12059459791681
 30
0.0
 11
374.33963169917854
 21
350.15993524882742
 31
0.0
  0
LINE
  5
12A
100
AcDbEntity
  8
0
  6
Continuous
 62
               6
100
AcDbLine
 10
389.08946249386008
 20
347.14734630586906
 30
0.0
 11
467.08891950554471
 21
366.64721055879022
 31
0.0
  0
LINE
  5
12B
100
AcDbEntity
  8
0
  6
Continuous
 62
               6
100
AcDbLine
 10
389.47751949391818
 20
345.59511830563656
 30
0.0
 11
467.08891950554471
 21
364.99796830854325
 31
0.0
  0
LINE
  5
12C
100
AcDbEntity
  8
0
  6
Continuous
 62
               6
100
AcDbLine
 10
545.08837651722945
 20
347.14734630586906
 30
0.0
 11
467.08891950554471
 21
366.64721055879022
 31
0.0
  0
LINE
  5
12D
100
AcDbEntity
  8
0
  6
Continuous
 62
               6
100
AcDbLine
 10
544.70031951717135
 20
345.59511830563656
 30
0.0
 11
467.08891950554471
 21
364.99796830854325
 31
0.0
  0
LINE
  5
12E
100
AcDbEntity
  8
0
  6
Continuous
 62
               6
100
AcDbLine
 10
544.70031951717135
 20
345.59511830563656
 30
0.0
 11
545.08837651722945
 21
347.14734630586906
 31
0.0
  0
LINE
  5
12F
100
AcDbEntity
  8
0
  6
Continuous
 62
               6
100
AcDbLine
 10
389.47751949391818
 20
345.59511830563656
 30
0.0
 11
389.08946249386008
 21
347.14734630586906
 31
0.0
  0
LINE
  5
130
100
AcDbEntity
  8
0
  6
Continuous
 62
               7
100
AcDbLine
 10
685.19348138318219
 20
337.37509204628941
 30
0.0
 11
670.6560629150548
 21
328.64012978646792
 31
0.0
  0
LINE
  5
131
100
AcDbEntity
  8
0
  6
Continuous
 62
               7
100
AcDbLine
 10
678.33787324286925
 20
339.08899408136733
 30
0.0
 11
663.80045477474232
 21
330.3540318215463
 31
0.0
  0
LINE
  5
132
100
AcDbEntity
  8
0
  6
Continuous
 62
               7
100
AcDbLine
 10
671.48226510255665
 20
340.80289611644559
 30
0.0
 11
656.94484663442972
 21
332.06793385662422
 31
0.0
  0
LINE
  5
133
100
AcDbEntity
  8
0
  6
Continuous
 62
               7
100
AcDbLine
 10
666.5255727354986
 20
317.3034354545041
 30
0.0
 11
657.77955256677262
 21
331.85925737353853
 31
0.0
  0
LINE
  5
134
100
AcDbEntity
  8
0
  6
Continuous
 62
               7
100
AcDbLine
 10
673.3898596414482
 20
315.58736372801661
 30
0.0
 11
664.64383947272222
 21
330.14318564705115
 31
0.0
  0
LINE
  5
135
100
AcDbEntity
  8
0
  6
Continuous
 62
               7
100
AcDbLine
 10
680.2541465473978
 20
313.87129200152935
 30
0.0
 11
671.50812637867182
 21
328.4271139205639
 31
0.0
  0
LINE
  5
136
100
AcDbEntity
  8
0
  6
Continuous
 62
               7
100
AcDbLine
 10
688.44459414548533
 20
327.64007044131472
 30
0.0
 11
684.91989734655999
 21
325.522218940828
 31
0.0
  0
LINE
  5
137
100
AcDbEntity
  8
0
  6
Continuous
 62
               7
100
AcDbLine
 10
688.44459414548533
 20
333.47323742739138
 30
0.0
 11
677.53770735227886
 21
326.91971867716211
 31
0.0
  0
LINE
  5
138
100
AcDbEntity
  8
0
  6
Continuous
 62
               7
100
AcDbLine
 10
687.11843345334819
 20
312.15522027504198
 30
0.0
 11
678.37241328462164
 21
326.71104219407641
 31
0.0
  0
LINE
  5
139
100
AcDbEntity
  8
0
  6
Continuous
 62
               7
100
AcDbLine
 10
688.44459414548533
 20
319.6561383768701
 30
0.0
 11
685.2367001905717
 21
324.99497046758893
 31
0.0
  0
LINE
  5
13A
100
AcDbEntity
  8
0
  6
Continuous
 62
               4
100
AcDbLine
 10
478.40141281949377
 20
362.10384827405176
 30
0.0
 11
520.0967161730922
 21
289.8854644286223
 31
0.0
  0
LINE
  5
13B
100
AcDbEntity
  8
0
  6
Continuous
 62
               4
100
AcDbLine
 10
478.40141281949377
 20
362.10384827405176
 30
0.0
 11
484.18650130667265
 21
355.20944828598101
 31
0.0
  0
LINE
  5
13C
100
AcDbEntity
  8
0
  6
Continuous
 62
               4
100
AcDbLine
 10
478.40141281949377
 20
362.10384827405176
 30
0.0
 11
481.47959410942474
 21
353.64661468697852
 31
0.0
  0
LINE
  5
13D
100
AcDbEntity
  8
0
  6
Continuous
 62
               7
100
AcDbLine
 10
405.60380081419032
 20
381.8254480871625
 30
0.0
 11
416.27539628715476
 21
339.13918507362882
 31
0.0
  0
LINE
  5
13E
100
AcDbEntity
  8
0
  6
Continuous
 62
               7
100
AcDbLine
 10
402.57210550123625
 20
383.6444652749351
 30
0.0
 11
402.69337331375436
 21
383.15939402486219
 31
0.0
  0
LINE
  5
13F
100
AcDbEntity
  8
0
  6
Continuous
 62
               7
100
AcDbLine
 10
410.45451331491699
 20
383.03812621234408
 30
0.0
 11
421.12608081651524
 21
340.35185620594939
 31
0.0
  0
LINE
  5
140
100
AcDbEntity
  8
0
  6
Continuous
 62
               7
100
AcDbLine
 10
412.2735305026896
 20
386.06982152529804
 30
0.0
 11
412.39479831520771
 21
385.58475027522536
 31
0.0
  0
LINE
  5
141
100
AcDbEntity
  8
0
  6
Continuous
 62
               7
100
AcDbLine
 10
402.57210550123625
 20
383.6444652749351
 30
0.0
 11
412.2735305026896
 21
386.06982152529804
 31
0.0
  0
LINE
  5
142
100
AcDbEntity
  8
0
  6
Continuous
 62
               7
100
AcDbLine
 10
405.60380081419032
 20
381.8254480871625
 30
0.0
 11
410.45451331491699
 21
383.03812621234408
 31
0.0
  0
LINE
  5
143
100
AcDbEntity
  8
0
  6
Continuous
 62
               7
100
AcDbLine
 10
402.69337331375436
 20
383.15939402486219
 30
0.0
 11
405.60380081419032
 21
381.8254480871625
 31
0.0
  0
LINE
  5
144
100
AcDbEntity
  8
0
  6
Continuous
 62
               7
100
AcDbLine
 10
410.45451331491699
 20
383.03812621234408
 30
0.0
 11
412.39479831520771
 21
385.58475027522559
 31
0.0
  0
LINE
  5
145
100
AcDbEntity
  8
0
  6
Continuous
 62
               7
100
AcDbLine
 10
402.69337331375436
 20
383.15939402486219
 30
0.0
 11
412.39479831520771
 21
385.58475027522536
 31
0.0
  0
LINE
  5
146
100
AcDbEntity
  8
0
  6
Continuous
 62
               7
100
AcDbLine
 10
416.27536831578846
 20
339.13917808076781
 30
0.0
 11
419.06452800370619
 21
338.29030339314056
 31
0.0
  0
LINE
  5
147
100
AcDbEntity
  8
0
  6
Continuous
 62
               7
100
AcDbLine
 10
421.12608081651513
 20
340.35185620594939
 30
0.0
 11
419.06452800370619
 21
338.29030339314056
 31
0.0
  0
LINE
  5
148
100
AcDbEntity
  8
0
  6
Continuous
 62
               7
100
AcDbLine
 10
407.30155018944458
 20
375.034450586145
 30
0.0
 11
411.66719144009858
 21
378.1874137116173
 31
0.0
  0
LINE
  5
149
100
AcDbEntity
  8
0
  6
Continuous
 62
               7
100
AcDbLine
 10
407.78662143951726
 20
373.0941655858544
 30
0.0
 11
412.15226269017126
 21
376.2471287113267
 31
0.0
  0
LINE
  5
14A
100
AcDbEntity
  8
0
  6
Continuous
 62
               7
100
AcDbLine
 10
408.27169268958994
 20
371.1538805855638
 30
0.0
 11
412.63733394024393
 21
374.30684371103609
 31
0.0
  0
LINE
  5
14B
100
AcDbEntity
  8
0
  6
Continuous
 62
               7
100
AcDbLine
 10
408.75676393966251
 20
369.21359558527308
 30
0.0
 11
413.1224051903165
 21
372.36655871074549
 31
0.0
  0
LINE
  5
14C
100
AcDbEntity
  8
0
  6
Continuous
 62
               7
100
AcDbLine
 10
409.24183518973518
 20
367.27331058498248
 30
0.0
 11
413.60747644038918
 21
370.42627371045467
 31
0.0
  0
LINE
  5
14D
100
AcDbEntity
  8
0
  6
Continuous
 62
               7
100
AcDbLine
 10
409.72690643980775
 20
365.33302558469165
 30
0.0
 11
414.09254769046174
 21
368.48598871016395
 31
0.0
  0
LINE
  5
14E
100
AcDbEntity
  8
0
  6
Continuous
 62
               7
100
AcDbLine
 10
410.21197768988043
 20
363.39274058440105
 30
0.0
 11
414.57761894053442
 21
366.54570370987324
 31
0.0
  0
LINE
  5
14F
100
AcDbEntity
  8
0
  6
Continuous
 62
               7
100
AcDbLine
 10
410.69704893995299
 20
361.45245558411034
 30
0.0
 11
415.0626901906071
 21
364.60541870958252
 31
0.0
  0
LINE
  5
150
100
AcDbEntity
  8
0
  6
Continuous
 62
               7
100
AcDbLine
 10
411.18212019002567
 20
359.51217058381962
 30
0.0
 11
415.54776144067966
 21
362.66513370929192
 31
0.0
  0
LINE
  5
151
100
AcDbEntity
  8
0
  6
Continuous
 62
               7
100
AcDbLine
 10
411.66719144009835
 20
357.57188558352902
 30
0.0
 11
416.03283269075234
 21
360.72484870900132
 31
0.0
  0
LINE
  5
152
100
AcDbEntity
  8
0
  6
Continuous
 62
               7
100
AcDbLine
 10
412.15226269017103
 20
355.63160058323842
 30
0.0
 11
416.51790394082491
 21
358.78456370871072
 31
0.0
  0
LINE
  5
153
100
AcDbEntity
  8
0
  6
Continuous
 62
               7
100
AcDbLine
 10
414.57761894053408
 20
345.93017558178519
 30
0.0
 11
417.19700369092652
 21
347.82195345706862
 31
0.0
  0
LINE
  5
154
100
AcDbEntity
  8
0
  6
Continuous
 62
               7
100
AcDbLine
 10
420.51974175392434
 20
340.71565964350384
 30
0.0
 11
418.5066960661228
 21
348.76784239471021
 31
0.0
  0
LINE
  5
155
100
AcDbEntity
  8
0
  6
Continuous
 62
               7
100
AcDbLine
 10
417.19700369092652
 20
347.82195345706862
 30
0.0
 11
417.96099090979112
 21
349.09526548850931
 31
0.0
  0
LINE
  5
156
100
AcDbEntity
  8
0
  6
Continuous
 62
               7
100
AcDbLine
 10
418.5066960661228
 20
348.76784239471021
 30
0.0
 11
417.96099090979112
 21
349.09526548850931
 31
0.0
  0
LINE
  5
157
100
AcDbEntity
  8
0
  6
Continuous
 62
               7
100
AcDbLine
 10
418.5066960661228
 20
348.76784239471021
 30
0.0
 11
418.94326019118807
 21
349.08313870725749
 31
0.0
  0
LINE
  5
158
100
AcDbEntity
  8
0
  6
Continuous
 62
               7
100
AcDbLine
 10
421.12608081651513
 20
340.35185620594939
 30
0.0
 11
420.51974175392434
 21
340.71565964350384
 31
0.0
  0
LINE
  5
159
100
AcDbEntity
  8
0
  6
Continuous
 62
               7
100
AcDbLine
 10
519.69111170671272
 20
384.15110328439698
 30
0.0
 11
509.01958972907232
 21
341.46482189706421
 31
0.0
  0
LINE
  5
15A
100
AcDbEntity
  8
0
  6
Continuous
 62
               7
100
AcDbLine
 10
517.87209451894034
 20
387.18279859735105
 30
0.0
 11
517.75082670642212
 21
386.69772734727849
 31
0.0
  0
LINE
  5
15B
100
AcDbEntity
  8
0
  6
Continuous
 62
               7
100
AcDbLine
 10
524.54182420743939
 20
382.93842515921506
 30
0.0
 11
513.87025670584001
 21
340.25215515282071
 31
0.0
  0
LINE
  5
15C
100
AcDbEntity
  8
0
  6
Continuous
 62
               7
100
AcDbLine
 10
527.57351952039357
 20
384.75744234698743
 30
0.0
 11
527.45225170787535
 21
384.27237109691475
 31
0.0
  0
LINE
  5
15D
100
AcDbEntity
  8
0
  6
Continuous
 62
               7
100
AcDbLine
 10
517.87209451894034
 20
387.18279859735105
 30
0.0
 11
527.57351952039357
 21
384.75744234698743
 31
0.0
  0
LINE
  5
15E
100
AcDbEntity
  8
0
  6
Continuous
 62
               7
100
AcDbLine
 10
519.69111170671272
 20
384.15110328439698
 30
0.0
 11
524.54182420743939
 21
382.93842515921506
 31
0.0
  0
LINE
  5
15F
100
AcDbEntity
  8
0
  6
Continuous
 62
               7
100
AcDbLine
 10
517.75082670642212
 20
386.69772734727849
 30
0.0
 11
519.69111170671272
 21
384.15110328439698
 31
0.0
  0
LINE
  5
160
100
AcDbEntity
  8
0
  6
Continuous
 62
               7
100
AcDbLine
 10
524.54182420743939
 20
382.93842515921506
 30
0.0
 11
527.45225170787546
 21
384.27237109691498
 31
0.0
  0
LINE
  5
161
100
AcDbEntity
  8
0
  6
Continuous
 62
               7
100
AcDbLine
 10
517.75082670642212
 20
386.69772734727849
 30
0.0
 11
527.45225170787535
 21
384.27237109691475
 31
0.0
  0
LINE
  5
162
100
AcDbEntity
  8
0
  6
Continuous
 62
               7
100
AcDbLine
 10
509.01954420511322
 20
341.4648332780024
 30
0.0
 11
511.08109701792205
 21
339.40328046519369
 31
0.0
  0
LINE
  5
163
100
AcDbEntity
  8
0
  6
Continuous
 62
               7
100
AcDbLine
 10
513.87025670583989
 20
340.25215515282071
 30
0.0
 11
511.08109701792205
 21
339.40328046519369
 31
0.0
  0
LINE
  5
164
100
AcDbEntity
  8
0
  6
Continuous
 62
               7
100
AcDbLine
 10
517.99336233145823
 20
377.36010578337959
 30
0.0
 11
523.32914608225769
 21
378.0877126584885
 31
0.0
  0
LINE
  5
165
100
AcDbEntity
  8
0
  6
Continuous
 62
               7
100
AcDbLine
 10
517.50829108138555
 20
375.41982078308899
 30
0.0
 11
522.8440748321849
 21
376.1474276581979
 31
0.0
  0
LINE
  5
166
100
AcDbEntity
  8
0
  6
Continuous
 62
               7
100
AcDbLine
 10
517.02321983131287
 20
373.47953578279817
 30
0.0
 11
522.35900358211222
 21
374.2071426579073
 31
0.0
  0
LINE
  5
167
100
AcDbEntity
  8
0
  6
Continuous
 62
               7
100
AcDbLine
 10
516.53814858124019
 20
371.53925078250757
 30
0.0
 11
521.87393233203954
 21
372.2668576576167
 31
0.0
  0
LINE
  5
168
100
AcDbEntity
  8
0
  6
Continuous
 62
               7
100
AcDbLine
 10
516.05307733116751
 20
369.59896578221696
 30
0.0
 11
521.38886108196687
 21
370.32657265732598
 31
0.0
  0
LINE
  5
169
100
AcDbEntity
  8
0
  6
Continuous
 62
               7
100
AcDbLine
 10
515.56800608109484
 20
367.65868078192636
 30
0.0
 11
520.90378983189407
 21
368.38628765703538
 31
0.0
  0
LINE
  5
16A
100
AcDbEntity
  8
0
  6
Continuous
 62
               7
100
AcDbLine
 10
515.08293483102204
 20
365.71839578163565
 30
0.0
 11
520.41871858182139
 21
366.44600265674455
 31
0.0
  0
LINE
  5
16B
100
AcDbEntity
  8
0
  6
Continuous
 62
               7
100
AcDbLine
 10
514.59786358094937
 20
363.77811078134505
 30
0.0
 11
519.93364733174872
 21
364.50571765645395
 31
0.0
  0
LINE
  5
16C
100
AcDbEntity
  8
0
  6
Continuous
 62
               7
100
AcDbLine
 10
514.11279233087669
 20
361.83782578105422
 30
0.0
 11
519.44857608167604
 21
362.56543265616335
 31
0.0
  0
LINE
  5
16D
100
AcDbEntity
  8
0
  6
Continuous
 62
               7
100
AcDbLine
 10
513.62772108080389
 20
359.89754078076362
 30
0.0
 11
518.96350483160325
 21
360.62514765587252
 31
0.0
  0
LINE
  5
16E
100
AcDbEntity
  8
0
  6
Continuous
 62
               7
100
AcDbLine
 10
513.14264983073122
 20
357.95725578047302
 30
0.0
 11
518.47843358153057
 21
358.68486265558192
 31
0.0
  0
LINE
  5
16F
100
AcDbEntity
  8
0
  6
Continuous
 62
               7
100
AcDbLine
 10
510.7172935803676
 20
348.25583077901979
 30
0.0
 11
513.9187638308473
 21
348.69239490408529
 31
0.0
  0
LINE
  5
170
100
AcDbEntity
  8
0
  6
Continuous
 62
               7
100
AcDbLine
 10
513.50645326828544
 20
340.85849421541161
 30
0.0
 11
515.51949895608709
 21
348.91067696661798
 31
0.0
  0
LINE
  5
171
100
AcDbEntity
  8
0
  6
Continuous
 62
               7
100
AcDbLine
 10
513.9187638308473
 20
348.69239490408529
 30
0.0
 11
515.19207586228811
 21
349.45638212294955
 31
0.0
  0
LINE
  5
172
100
AcDbEntity
  8
0
  6
Continuous
 62
               7
100
AcDbLine
 10
515.51949895608709
 20
348.91067696661776
 30
0.0
 11
515.19207586228811
 21
349.45638212294955
 31
0.0
  0
LINE
  5
173
100
AcDbEntity
  8
0
  6
Continuous
 62
               7
100
AcDbLine
 10
515.51949895608709
 20
348.91067696661798
 30
0.0
 11
516.05307733116695
 21
348.98343765412881
 31
0.0
  0
LINE
  5
174
100
AcDbEntity
  8
0
  6
Continuous
 62
               7
100
AcDbLine
 10
513.87025670583989
 20
340.25215515282082
 30
0.0
 11
513.50645326828544
 21
340.85849421541161
 31
0.0
  0
LINE
  5
175
100
AcDbEntity
  8
0
  6
Continuous
 62
               7
100
AcDbLine
 10
412.63733394024359
 20
353.69131558294771
 30
0.0
 11
417.00297519089759
 21
356.84427870842012
 31
0.0
  0
LINE
  5
176
100
AcDbEntity
  8
0
  6
Continuous
 62
               7
100
AcDbLine
 10
413.12240519031627
 20
351.75103058265711
 30
0.0
 11
417.48804644097015
 21
354.90399370812941
 31
0.0
  0
LINE
  5
177
100
AcDbEntity
  8
0
  6
Continuous
 62
               7
100
AcDbLine
 10
413.60747644038884
 20
349.81074558236651
 30
0.0
 11
417.97311769104283
 21
352.9637087078388
 31
0.0
  0
LINE
  5
178
100
AcDbEntity
  8
0
  6
Continuous
 62
               7
100
AcDbLine
 10
414.09254769046152
 20
347.87046058207579
 30
0.0
 11
418.4581889411154
 21
351.02342370754809
 31
0.0
  0
LINE
  5
179
100
AcDbEntity
  8
0
  6
Continuous
 62
               7
100
AcDbLine
 10
512.65757858065854
 20
356.01697078018242
 30
0.0
 11
517.99336233145789
 21
356.74457765529132
 31
0.0
  0
LINE
  5
17A
100
AcDbEntity
  8
0
  6
Continuous
 62
               7
100
AcDbLine
 10
512.17250733058586
 20
354.07668577989182
 30
0.0
 11
517.50829108138521
 21
354.80429265500072
 31
0.0
  0
LINE
  5
17B
100
AcDbEntity
  8
0
  6
Continuous
 62
               7
100
AcDbLine
 10
511.68743608051318
 20
352.1364007796011
 30
0.0
 11
517.02321983131253
 21
352.86400765471012
 31
0.0
  0
LINE
  5
17C
100
AcDbEntity
  8
0
  6
Continuous
 62
               7
100
AcDbLine
 10
511.2023648304405
 20
350.19611577931039
 30
0.0
 11
516.53814858123985
 21
350.92372265441941
 31
0.0
  0
LINE
  5
17D
100
AcDbEntity
  8
0
  6
DASHED
 62
               6
100
AcDbLine
 10
683.59388164475865
 20
289.7408114424494
 30
0.0
 11
488.38970764085968
 21
338.54185494342391
 31
0.0
  0
LINE
  5
17E
100
AcDbEntity
  8
0
  6
DASHED
 62
               6
100
AcDbLine
 10
473.83757013867989
 20
280.3333049347043
 30
0.0
 11
688.44459414548533
 21
226.68154893300172
 31
0.0
  0
LINE
  5
17F
100
AcDbEntity
  8
0
  6
DASHED
 62
               6
100
AcDbLine
 10
460.34026887240941
 20
280.3333049347043
 30
0.0
 11
226.33039486269831
 21
221.83083643227465
 31
0.0
  0
LINE
  5
180
100
AcDbEntity
  8
0
  6
DASHED
 62
               6
100
AcDbLine
 10
445.78813137022951
 20
338.5418549434238
 30
0.0
 11
231.18110736342493
 21
284.89009894172329
 31
0.0
  0
LINE
  5
181
100
AcDbEntity
  8
0
  6
Continuous
 62
               4
100
AcDbLine
 10
714.78679656440374
 20
21.213203435596487
 30
0.0
 11
714.78679656440374
 21
41.213203435596498
 31
0.0
  0
LINE
  5
182
100
AcDbEntity
  8
0
  6
Continuous
 62
               4
100
AcDbLine
 10
864.78679656440374
 20
21.213203435596487
 30
0.0
 11
714.78679656440374
 21
21.213203435596487
 31
0.0
  0
LINE
  5
183
100
AcDbEntity
  8
0
  6
Continuous
 62
               4
100
AcDbLine
 10
864.78679656440374
 20
41.213203435596498
 30
0.0
 11
864.78679656440374
 21
21.213203435596487
 31
0.0
  0
LINE
  5
184
100
AcDbEntity
  8
0
  6
Continuous
 62
               4
100
AcDbLine
 10
864.78679656440374
 20
41.213203435596498
 30
0.0
 11
714.78679656440374
 21
41.213203435596498
 31
0.0
  0
LINE
  5
185
100
AcDbEntity
  8
0
  6
Continuous
 62
               4
100
AcDbLine
 10
14.142135623730949
 20
595.85786437626905
 30
0.0
 11
14.142135623730949
 21
615.85786437626905
 31
0.0
  0
LINE
  5
186
100
AcDbEntity
  8
0
  6
Continuous
 62
               4
100
AcDbLine
 10
164.14213562373095
 20
595.85786437626905
 30
0.0
 11
14.142135623730949
 21
595.85786437626905
 31
0.0
  0
LINE
  5
187
100
AcDbEntity
  8
0
  6
Continuous
 62
               4
100
AcDbLine
 10
164.14213562373095
 20
615.85786437626905
 30
0.0
 11
164.14213562373095
 21
595.85786437626905
 31
0.0
  0
LINE
  5
188
100
AcDbEntity
  8
0
  6
Continuous
 62
               4
100
AcDbLine
 10
164.14213562373095
 20
615.85786437626905
 30
0.0
 11
14.142135623730949
 21
615.85786437626905
 31
0.0
  0
LINE
  5
189
100
AcDbEntity
  8
0
  6
Continuous
 62
               4
100
AcDbLine
 10
520.0967161730922
 20
289.8854644286223
 30
0.0
 11
625.63910355486928
 21
289.8854644286223
 31
0.0
  0
LINE
  5
18A
100
AcDbEntity
  8
0
  6
Continuous
 62
               4
100
AcDbLine
 10
561.86188095814259
 20
418.43424281105831
 30
0.0
 11
703.53709428129912
 21
418.43424281105831
 31
0.0
  0
LINE
  5
18B
100
AcDbEntity
  8
0
  6
Continuous
 62
               4
100
AcDbLine
 10
561.86188095814259
 20
438.43424281105831
 30
0.0
 11
639.27125193199447
 21
438.43424281105831
 31
0.0
  0
CIRCLE
  5
18C
100
AcDbEntity
  8
0
  6
Continuous
 62
               4
100
AcDbCircle
 10
248.3735272825607
 20
337.22237953244871
 30
0.0
 40
1.5
  0
CIRCLE
  5
18D
100
AcDbEntity
  8
0
  6
Continuous
 62
               4
100
AcDbCircle
 10
251.28396239042308
 20
325.58064964907862
 30
0.0
 40
1.5
  0
CIRCLE
  5
18E
100
AcDbEntity
  8
0
  6
Continuous
 62
               4
100
AcDbCircle
 10
251.28396239042308
 20
325.58064964907862
 30
0.0
 40
1.5
  0
CIRCLE
  5
18F
100
AcDbEntity
  8
0
  6
Continuous
 62
               4
100
AcDbCircle
 10
254.19438460272971
 20
313.93897134788449
 30
0.0
 40
1.5
  0
CIRCLE
  5
190
100
AcDbEntity
  8
0
  6
Continuous
 62
               4
100
AcDbCircle
 10
262.6831282898147
 20
345.95366111829242
 30
0.0
 40
1.5
  0
CIRCLE
  5
191
100
AcDbEntity
  8
0
  6
Continuous
 62
               4
100
AcDbCircle
 10
269.7166637777558
 20
317.81954465766114
 30
0.0
 40
1.5
  0
CIRCLE
  5
192
100
AcDbEntity
  8
0
  6
Continuous
 62
               4
100
AcDbCircle
 10
248.37352996415729
 20
337.22238020284851
 30
0.0
 40
1.5
  0
CIRCLE
  5
193
100
AcDbEntity
  8
0
  6
Continuous
 62
               4
100
AcDbCircle
 10
247.16084853522619
 20
342.07310152353932
 30
0.0
 40
1.5
  0
CIRCLE
  5
194
100
AcDbEntity
  8
0
  6
Continuous
 62
               4
100
AcDbCircle
 10
461.99566237574481
 20
421.55123023341491
 30
0.0
 40
1.5
  0
CIRCLE
  5
195
100
AcDbEntity
  8
0
  6
Continuous
 62
               4
100
AcDbCircle
 10
364.98141066676044
 20
397.29762915919594
 30
0.0
 40
1.5
  0
CIRCLE
  5
196
100
AcDbEntity
  8
0
  6
Continuous
 62
               4
100
AcDbCircle
 10
472.18217574649907
 20
421.55122945038966
 30
0.0
 40
1.5
  0
CIRCLE
  5
197
100
AcDbEntity
  8
0
  6
Continuous
 62
               4
100
AcDbCircle
 10
569.19642745548344
 20
397.29768941132681
 30
0.0
 40
1.5
  0
CIRCLE
  5
198
100
AcDbEntity
  8
0
  6
Continuous
 62
               4
100
AcDbCircle
 10
374.33963169917854
 20
350.15993524882742
 30
0.0
 40
1.5
  0
CIRCLE
  5
199
100
AcDbEntity
  8
0
  6
Continuous
 62
               4
100
AcDbCircle
 10
368.0989719094697
 20
360.96907507735523
 30
0.0
 40
1.5
  0
CIRCLE
  5
19A
100
AcDbEntity
  8
0
  6
Continuous
 62
               4
100
AcDbCircle
 10
363.93852187426205
 20
368.17518592068654
 30
0.0
 40
1.5
  0
CIRCLE
  5
19B
100
AcDbEntity
  8
0
  6
Continuous
 62
               4
100
AcDbCircle
 10
362.37835540052458
 20
370.8774735214655
 30
0.0
 40
1.5
  0
ARC
  5
19C
100
AcDbEntity
  8
0
  6
Continuous
 62
               2
100
AcDbCircle
 10
371.33956478929758
 20
376.16572049073329
 30
0.0
 40
1.0430593840360769
100
AcDbArc
 50
104.0362434679265
 51
278.94172673916279
  0
ARC
  5
19D
100
AcDbEntity
  8
0
  6
Continuous
 62
               2
100
AcDbCircle
 10
562.83827422179195
 20
376.16572049073329
 30
0.0
 40
1.0430593840360769
100
AcDbArc
 50
261.05827326083698
 51
75.963756532073518
  0
ARC
  5
19E
100
AcDbEntity
  8
0
  6
Continuous
 62
               7
100
AcDbCircle
 10
388.51223447065252
 20
339.03651011142006
 30
0.0
 40
30.0
100
AcDbArc
 50
358.89902864063322
 51
17.028545480801075
  0
ARC
  5
19F
100
AcDbEntity
  8
0
  6
Continuous
 62
               7
100
AcDbCircle
 10
484.47434706206514
 20
354.439248055701
 30
0.0
 40
30.0
100
AcDbArc
 50
330.82654170478088
 51
348.9560585449488
  0
TEXT
  5
1A0
100
AcDbEntity
  8
0
 62
               7
100
AcDbText
 10
50.892136637009862
 20
601.35786449547834
 30
0.0
 40
8.9999997615814333
  1
プロムナールーフF
 41
0.7695
  7
FontTableH_0
 72
               5
 11
127.39213461045205
 21
601.35786449547834
 31
0.0
100
AcDbText
  0
TEXT
  5
1A1
100
AcDbEntity
  8
0
 62
               7
100
AcDbText
 10
740.2867978757057
 20
26.713203554805769
 30
0.0
 40
8.9999997615814333
  1
下り棟詳細図 【S=1/3】
 41
0.7695
  7
FontTableH_0
 72
               5
 11
839.28679525310145
 21
26.713203554805769
 31
0.0
100
AcDbText
  0
TEXT
  5
1A2
100
AcDbEntity
  8
0
 62
               7
100
AcDbText
 10
250.11991068679353
 20
336.42244865500027
 30
0.0
 40
9.6000000000000103
  1
12
 50
284.03625799367495
 41
0.7695
  7
FontTableH_0
 72
               5
 11
252.44825504828722
 21
327.10908124389164
 31
0.0
100
AcDbText
  0
TEXT
  5
1A3
100
AcDbEntity
  8
0
 62
               7
100
AcDbText
 10
253.03031107741856
 20
324.78084709250027
 30
0.0
 40
9.6000000000000103
  1
12
 50
284.03625799367495
 41
0.7695
  7
FontTableH_0
 72
               5
 11
255.35865543891225
 21
315.46747968139164
 31
0.0
100
AcDbText
  0
TEXT
  5
1A4
100
AcDbEntity
  8
0
 62
               7
100
AcDbText
 10
266.49082133132481
 20
336.90780021750027
 30
0.0
 40
9.6000000000000103
  1
29
 50
284.03625799367495
 41
0.7695
  7
FontTableH_0
 72
               5
 11
268.8191656928185
 21
327.59443280639164
 31
0.0
100
AcDbText
  0
TEXT
  5
1A5
100
AcDbEntity
  8
0
 62
               7
100
AcDbText
 10
247.18509623366859
 20
348.16146232687527
 30
0.0
 40
9.6000000000000103
  1
5
 50
284.03625799367495
 41
0.7695
  7
FontTableH_0
 72
               5
 11
248.34926841441543
 21
343.50477862132095
 31
0.0
100
AcDbText
  0
TEXT
  5
1A6
100
AcDbEntity
  8
0
 62
               7
100
AcDbText
 10
406.13993021804356
 20
409.13411857687532
 30
0.0
 40
9.6000000000000103
  1
100
 50
14.036262433071506
 41
0.7695
  7
FontTableH_0
 72
               5
 11
420.10998106409903
 21
412.62663620154456
 31
0.0
100
AcDbText
  0
TEXT
  5
1A7
100
AcDbEntity
  8
0
 62
               7
100
AcDbText
 10
514.06839701491856
 20
412.62661125265652
 30
0.0
 40
9.6000000000000103
  1
100
 50
345.96378002823968
 41
0.7695
  7
FontTableH_0
 72
               5
 11
528.03845044923901
 21
409.13410398104884
 31
0.0
100
AcDbText
  0
TEXT
  5
1A8
100
AcDbEntity
  8
0
 62
               7
100
AcDbText
 10
567.86234232741856
 20
439.93551017843782
 30
0.0
 40
9.6000000000000103
  1
棟板：屋根同材
 41
0.7695
  7
FontTableH_0
 72
               5
 11
635.06234232741861
 21
439.93551017843782
 31
0.0
100
AcDbText
  0
TEXT
  5
1A9
100
AcDbEntity
  8
0
 62
               7
100
AcDbText
 10
567.86228129226231
 20
419.93609001242214
 30
0.0
 40
9.6000000000000103
  1
力板（ブチルテープをはさむ）
 41
0.7695
  7
FontTableH_0
 72
               5
 11
702.2622812922624
 21
419.93609001242214
 31
0.0
100
AcDbText
  0
TEXT
  5
1AA
100
AcDbEntity
  8
0
 62
               7
100
AcDbText
 10
184.82309672194981
 20
426.62215568625021
 30
0.0
 40
9.6000000000000103
  1
アスファルトルーフィング 22kg
 41
0.7695
  7
FontTableH_0
 72
               5
 11
324.02309672194997
 21
426.62215568625021
 31
0.0
100
AcDbText
  0
TEXT
  5
1AB
100
AcDbEntity
  8
0
 62
               7
100
AcDbText
 10
184.82309672194981
 20
410.62221672140657
 30
0.0
 40
9.6000000000000103
  1
硬質木片セメント板 12mm＋12mm
 41
0.7695
  7
FontTableH_0
 72
               5
 11
324.02309672194997
 21
410.62221672140657
 31
0.0
100
AcDbText
  0
TEXT
  5
1AC
100
AcDbEntity
  8
0
 62
               7
100
AcDbText
 10
528.17606303054356
 20
291.38668205343777
 30
0.0
 40
9.6000000000000103
  1
補強プレート（別途）
 41
0.7695
  7
FontTableH_0
 72
               5
 11
624.17606303054367
 21
291.38668205343777
 31
0.0
100
AcDbText
  0
TEXT
  5
1AD
100
AcDbEntity
  8
0
 62
               7
100
AcDbText
 10
184.82309672194981
 20
442.62215568625027
 30
0.0
 40
9.6000000000000103
  1
プロムナ－ル－フF：各種金属板
 41
0.7695
  7
FontTableH_0
 72
               5
 11
324.02309672194997
 21
442.62215568625027
 31
0.0
100
AcDbText
  0
ENDSEC
  0
SECTION
  2
OBJECTS
  0
DICTIONARY
  5
19
100
AcDbDictionary
  3
ACAD_GROUP
350
1A
  3
ACAD_MLINESTYLE
350
1B
  3
DWGPROPS
350
1AE
  0
DICTIONARY
  5
1A
102
{ACAD_REACTORS
330
19
102
}
100
AcDbDictionary
  0
DICTIONARY
  5
1B
102
{ACAD_REACTORS
330
19
102
}
100
AcDbDictionary
  3
STANDARD
350
1C
  0
MLINESTYLE
  5
1C
102
{ACAD_REACTORS
330
1B
102
}
100
AcDbMlineStyle
  2
Standard
 70
               0
  3

 62
               0
 51
90.0
 52
90.0
 71
               2
 49
0.5
 62
             256
  6
ByLayer
 49
-0.5
 62
             256
  6
ByLayer
  0
XRECORD
  5
1AE
100
AcDbXrecord
  1
DWGPROPS COOKIE
  2

  3

  4

  6

  7

  0
ENDSEC
  0
EOF
