  0
SECTION
  2
HEADER
  9
$ACADVER
  1
AC1014
  9
$ACADMAINTVER
 70
               0
  9
$DWGCODEPAGE
  3
ANSI_932
  9
$INSBASE
 10
0.0
 20
0.0
 30
0.0
  9
$EXTMIN
 10
0.0
 20
0.0
 30
0.0
  9
$EXTMAX
 10
891.00000000000091
 20
630.00000000000068
 30
0.0
  9
$LIMMIN
 10
0.0
 20
0.0
  9
$LIMMAX
 10
891.00000000000091
 20
630.00000000000068
  9
$ORTHOMODE
 70
               0
  9
$REGENMODE
 70
               1
  9
$FILLMODE
 70
               1
  9
$QTEXTMODE
 70
               0
  9
$MIRRTEXT
 70
               1
  9
$DRAGMODE
 70
               2
  9
$LTSCALE
 40
3.0000000000000031
  9
$OSMODE
 70
               0
  9
$ATTMODE
 70
               1
  9
$TEXTSIZE
 40
0.2
  9
$TRACEWID
 40
0.05
  9
$TEXTSTYLE
  7
Standard
  9
$CLAYER
  8
0
  9
$CELTYPE
  6
Continuous
  9
$CECOLOR
 62
             256
  9
$CELTSCALE
 40
1.0
  9
$DELOBJ
 70
               1
  9
$DISPSILH
 70
               0
  9
$DIMSCALE
 40
1.0
  9
$DIMASZ
 40
0.18
  9
$DIMEXO
 40
0.0625
  9
$DIMDLI
 40
0.38
  9
$DIMRND
 40
0.0
  9
$DIMDLE
 40
0.0
  9
$DIMEXE
 40
0.18
  9
$DIMTP
 40
0.0
  9
$DIMTM
 40
0.0
  9
$DIMTXT
 40
0.18
  9
$DIMCEN
 40
0.09
  9
$DIMTSZ
 40
0.0
  9
$DIMTOL
 70
               0
  9
$DIMLIM
 70
               0
  9
$DIMTIH
 70
               1
  9
$DIMTOH
 70
               1
  9
$DIMSE1
 70
               0
  9
$DIMSE2
 70
               0
  9
$DIMTAD
 70
               0
  9
$DIMZIN
 70
               0
  9
$DIMBLK
  1

  9
$DIMASO
 70
               1
  9
$DIMSHO
 70
               1
  9
$DIMPOST
  1

  9
$DIMAPOST
  1

  9
$DIMALT
 70
               0
  9
$DIMALTD
 70
               2
  9
$DIMALTF
 40
25.399999999999999
  9
$DIMLFAC
 40
1.0
  9
$DIMTOFL
 70
               0
  9
$DIMTVP
 40
0.0
  9
$DIMTIX
 70
               0
  9
$DIMSOXD
 70
               0
  9
$DIMSAH
 70
               0
  9
$DIMBLK1
  1

  9
$DIMBLK2
  1

  9
$DIMSTYLE
  2
Standard
  9
$DIMCLRD
 70
               0
  9
$DIMCLRE
 70
               0
  9
$DIMCLRT
 70
               0
  9
$DIMTFAC
 40
1.0
  9
$DIMGAP
 40
0.09
  9
$DIMJUST
 70
               0
  9
$DIMSD1
 70
               0
  9
$DIMSD2
 70
               0
  9
$DIMTOLJ
 70
               1
  9
$DIMTZIN
 70
               0
  9
$DIMALTZ
 70
               0
  9
$DIMALTTZ
 70
               0
  9
$DIMFIT
 70
               3
  9
$DIMUPT
 70
               0
  9
$DIMUNIT
 70
               2
  9
$DIMDEC
 70
               4
  9
$DIMTDEC
 70
               4
  9
$DIMALTU
 70
               2
  9
$DIMALTTD
 70
               2
  9
$DIMTXSTY
  7
Standard
  9
$DIMAUNIT
 70
               0
  9
$LUNITS
 70
               2
  9
$LUPREC
 70
               4
  9
$SKETCHINC
 40
0.1
  9
$FILLETRAD
 40
0.0
  9
$AUNITS
 70
               0
  9
$AUPREC
 70
               0
  9
$MENU
  1
acad
  9
$ELEVATION
 40
0.0
  9
$PELEVATION
 40
0.0
  9
$THICKNESS
 40
0.0
  9
$LIMCHECK
 70
               0
  9
$BLIPMODE
 70
               1
  9
$CHAMFERA
 40
0.0
  9
$CHAMFERB
 40
0.0
  9
$CHAMFERC
 40
0.0
  9
$CHAMFERD
 40
0.0
  9
$SKPOLY
 70
               0
  9
$TDCREATE
 40
0.000000000
  9
$TDUPDATE
 40
0.000000000
  9
$TDINDWG
 40
0.0000000000
  9
$TDUSRTIMER
 40
0.0000000000
  9
$USRTIMER
 70
               1
  9
$ANGBASE
 50
0.0
  9
$ANGDIR
 70
               0
  9
$PDMODE
 70
               0
  9
$PDSIZE
 40
0.0
  9
$PLINEWID
 40
0.0
  9
$COORDS
 70
               0
  9
$SPLFRAME
 70
               0
  9
$SPLINETYPE
 70
               6
  9
$SPLINESEGS
 70
               8
  9
$ATTDIA
 70
               0
  9
$ATTREQ
 70
               1
  9
$HANDLING
 70
               1
  9
$HANDSEED
  5
259
  9
$SURFTAB1
 70
               6
  9
$SURFTAB2
 70
               6
  9
$SURFTYPE
 70
               6
  9
$SURFU
 70
               6
  9
$SURFV
 70
               6
  9
$UCSNAME
  2

  9
$UCSORG
 10
0.0
 20
0.0
 30
0.0
  9
$UCSXDIR
 10
1.0
 20
0.0
 30
0.0
  9
$UCSYDIR
 10
0.0
 20
1.0
 30
0.0
  9
$PUCSNAME
  2

  9
$PUCSORG
 10
0.0
 20
0.0
 30
0.0
  9
$PUCSXDIR
 10
1.0
 20
0.0
 30
0.0
  9
$PUCSYDIR
 10
0.0
 20
1.0
 30
0.0
  9
$USERI1
 70
               0
  9
$USERI2
 70
               0
  9
$USERI3
 70
               0
  9
$USERI4
 70
               0
  9
$USERI5
 70
               0
  9
$USERR1
 40
0.0
  9
$USERR2
 40
0.0
  9
$USERR3
 40
0.0
  9
$USERR4
 40
0.0
  9
$USERR5
 40
0.0
  9
$WORLDVIEW
 70
               1
  9
$SHADEDGE
 70
               3
  9
$SHADEDIF
 70
              70
  9
$TILEMODE
 70
               1
  9
$MAXACTVP
 70
              16
  9
$PINSBASE
 10
0.0
 20
0.0
 30
0.0
  9
$PLIMCHECK
 70
               0
  9
$PEXTMIN
 10
1.0000000000000000E+20
 20
1.0000000000000000E+20
 30
1.0000000000000000E+20
  9
$PEXTMAX
 10
-1.0000000000000000E+20
 20
-1.0000000000000000E+20
 30
-1.0000000000000000E+20
  9
$PLIMMIN
 10
0.0
 20
0.0
  9
$PLIMMAX
 10
12.0
 20
9.0
  9
$UNITMODE
 70
               0
  9
$VISRETAIN
 70
               0
  9
$PLINEGEN
 70
               1
  9
$PSLTSCALE
 70
               0
  9
$TREEDEPTH
 70
            3020
  9
$PICKSTYLE
 70
               1
  9
$CMLSTYLE
  2
Standard
  9
$CMLJUST
 70
               0
  9
$CMLSCALE
 40
1.0
  9
$PROXYGRAPHICS
 70
               0
  9
$MEASUREMENT
 70
               0
  0
ENDSEC
  0
SECTION
  2
CLASSES
  0
CLASS
  1
LWPOLYLINE
  2
AcDbPolyline
  3
"AutoCAD"
 90
        0
280
               0
281
               1
  0
CLASS
  1
IMAGE
  2
AcDbRasterImage
  3
ISM
 90
      127
280
               0
281
               1
  0
CLASS
  1
OLE2FRAME
  2
AcDbOle2Frame
  3
""
 90
        0
280
               0
281
               1
  0
CLASS
  1
HATCH
  2
AcDbHatch
  3
"ACAD_SEDONA"
 90
        0
280
               0
281
               1
  0
CLASS
  1
DICTIONARYVAR
  2
AcDbDictionaryVar
  3
"AutoCAD"
 90
        0
280
               0
281
               0
  0
CLASS
  1
RASTERVARIABLES
  2
AcDbRasterVariables
  3
ISM
 90
        0
280
               0
281
               0
  0
CLASS
  1
IMAGEDEF
  2
AcDbRasterImageDef
  3
ISM
 90
        0
280
               0
281
               0
  0
CLASS
  1
IMAGEDEF_REACTOR
  2
AcDbRasterImageDefReactor
  3
ISM
 90
        1
280
               0
281
               0
  0
CLASS
  1
IDBUFFER
  2
AcDbIdBuffer
  3
"Acad"
 90
        0
280
               0
281
               0
  0
CLASS
  1
SPATIAL_FILTER
  2
AcDbSpatialFilter
  3
"Acad"
 90
        0
280
               0
281
               0
  0
CLASS
  1
XRECORD
  2
AcDbXrecord
  3
"<Built In>"
 90
        0
280
               0
281
               0
  0
CLASS
  1
SORTENTSTABLE
  2
AcDbSortentsTable
  3
"AutoCAD"
 90
        0
280
               0
281
               0
  0
CLASS
  1
LAYER_INDEX
  2
AcDbLayerIndex
  3
"Acad"
 90
        0
280
               0
281
               0
  0
CLASS
  1
SPATIAL_INDEX
  2
AcDbSpatialIndex
  3
"Acad"
 90
        0
280
               0
281
               0
  0
CLASS
  1
OBJECT_PTR
  2
CAseDLPNTableRecord
  3
"ASE-LPNTableRecord"
 90
        1
280
               0
281
               0
  0
CLASS
  1
LAYOUT
  2
AcDbLayout
  3
"AutoCAD 2000"
 90
        0
280
               0
281
               0
  0
CLASS
  1
PLOTSETTINGS
  2
AcDbPlotSettings
  3
"AutoCAD 2000"
 90
        0
280
               0
281
               0
  0
CLASS
  1
ACDBDICTIONARYWDFLT
  2
AcDbDictionaryWithDefault
  3
"AutoCAD 2000"
 90
        0
280
               0
281
               0
  0
CLASS
  1
ACDBPLACEHOLDER
  2
AcDbPlaceHolder
  3
"AutoCAD 2000"
 90
        0
280
               0
281
               0
  0
CLASS
  1
VBA_PROJECT
  2
AcDbVbaProject
  3
"acadvba"
 90
        0
280
               0
281
               0
  0
CLASS
  1
WIPEOUT
  2
AcDbWipeout
  3
WipeOut|AutoCAD Express Tool|expresstools@autodesk.com
 90
      127
280
               0
281
               1
  0
CLASS
  1
WIPEOUTVARIABLES
  2
AcDbWipeoutVariables
  3
WipeOut|AutoCAD Express Tool|expresstools@autodesk.com
 90
        0
280
               0
281
               0
  0
CLASS
  1
RTEXT
  2
RText
  3
RText|AutoCAD Express Tool|expresstools@autodesk.com
 90
        0
280
               0
281
               1
  0
CLASS
  1
ARCALIGNEDTEXT
  2
AcDbArcAlignedText
  3
ATEXT|AutoCAD Express Tool|expresstools@autodesk.com
 90
        0
280
               0
281
               1
  0
ENDSEC
  0
SECTION
  2
TABLES
  0
TABLE
  2
VPORT
  5
7
100
AcDbSymbolTable
 70
               1
  0
VPORT
  5
15
100
AcDbSymbolTableRecord
100
AcDbViewportTableRecord
  2
*ACTIVE
 70
               0
 10
0.0
 20
0.0
 11
1.0
 21
1.0
 12
445.50000000000045
 22
315.00000000000034
 13
0.0
 23
0.0
 14
10.0
 24
10.0
 15
10.0
 25
10.0
 16
0.0
 26
0.0
 36
1.0
 17
0.0
 27
0.0
 37
0.0
 40
630.00000000000068
 41
1.4142857142857141
 42
50.0
 43
0.0
 44
0.0
 50
0.0
 51
0.0
 71
               0
 72
             100
 73
               1
 74
               1
 75
               0
 76
               0
 77
               0
 78
               0
  0
ENDTAB
  0
TABLE
  2
LTYPE
  5
4
100
AcDbSymbolTable
 70
              24
  0
LTYPE
  5
11
100
AcDbSymbolTableRecord
100
AcDbLinetypeTableRecord
  2
ByBlock
 70
              64
  3

 72
              65
 73
               0
 40
0.0
  0
LTYPE
  5
12
100
AcDbSymbolTableRecord
100
AcDbLinetypeTableRecord
  2
ByLayer
 70
              64
  3

 72
              65
 73
               0
 40
0.0
  0
LTYPE
  5
13
100
AcDbSymbolTableRecord
100
AcDbLinetypeTableRecord
  2
Continuous
 70
              64
  3
Solid line
 72
              65
 73
               0
 40
0.0
  0
LTYPE
  5
1D
100
AcDbSymbolTableRecord
100
AcDbLinetypeTableRecord
  2
DOT
 70
              64
  3
Dot . . . . . . . . . . . . . . . . . . . . . .
 72
              65
 73
               2
 40
6.3499999999999996
 49
0.35
 74
               0
 49
-6.0
 74
               0
  0
LTYPE
  5
1E
100
AcDbSymbolTableRecord
100
AcDbLinetypeTableRecord
  2
DASHED
 70
              64
  3
Dashed __ __ __ __ __ __ __ __ __ __ __ __ __ _
 72
              65
 73
               2
 40
12.699999999999999
 49
6.3499999999999996
 74
               0
 49
-6.3499999999999996
 74
               0
  0
LTYPE
  5
1F
100
AcDbSymbolTableRecord
100
AcDbLinetypeTableRecord
  2
DASHDOT
 70
              64
  3
Dash dot __ . __ . __ . __ . __ . __ . __ . __
 72
              65
 73
               4
 40
25.399999999999999
 49
12.699999999999999
 74
               0
 49
-6.0
 74
               0
 49
0.7
 74
               0
 49
-6.0
 74
               0
  0
LTYPE
  5
20
100
AcDbSymbolTableRecord
100
AcDbLinetypeTableRecord
  2
DIVIDE
 70
              64
  3
Divide ____ . . ____ . . ____ . . ____ . . ____
 72
              65
 73
               6
 40
31.75
 49
12.699999999999999
 74
               0
 49
-6.0
 74
               0
 49
0.875
 74
               0
 49
-6.0
 74
               0
 49
0.875
 74
               0
 49
-6.0
 74
               0
  0
LTYPE
  5
21
100
AcDbSymbolTableRecord
100
AcDbLinetypeTableRecord
  2
HIDDEN
 70
              64
  3
Hidden __ __ __ __ __ __ __ __ __ __ __ __ __ _
 72
              65
 73
               2
 40
9.5250000000000004
 49
6.3499999999999996
 74
               0
 49
-3.1749999999999998
 74
               0
  0
LTYPE
  5
22
100
AcDbSymbolTableRecord
100
AcDbLinetypeTableRecord
  2
CENTER
 70
              64
  3
Center ____ _ ____ _ ____ _ ____ _ ____ _ ____
 72
              65
 73
               4
 40
50.799999999999997
 49
31.75
 74
               0
 49
-6.3499999999999996
 74
               0
 49
6.3499999999999996
 74
               0
 49
-6.3499999999999996
 74
               0
  0
LTYPE
  5
23
100
AcDbSymbolTableRecord
100
AcDbLinetypeTableRecord
  2
PHANTOM
 70
              64
  3
Phantom ______  __  __  ______  __  __  ______
 72
              65
 73
               6
 40
63.5
 49
31.75
 74
               0
 49
-6.3499999999999996
 74
               0
 49
6.3499999999999996
 74
               0
 49
-6.3499999999999996
 74
               0
 49
6.3499999999999996
 74
               0
 49
-6.3499999999999996
 74
               0
  0
LTYPE
  5
24
100
AcDbSymbolTableRecord
100
AcDbLinetypeTableRecord
  2
ACAD_ISO02W100
 70
              64
  3
ISO dash __ __ __ __ __ __ __ __ __ __ __ __ __
 72
              65
 73
               2
 40
15.0
 49
12.0
 74
               0
 49
-3.0
 74
               0
  0
LTYPE
  5
25
100
AcDbSymbolTableRecord
100
AcDbLinetypeTableRecord
  2
ACAD_ISO03W100
 70
              64
  3
ISO dash space __ __ __ __ __ __ __ __ __ __ __ __ __ __
 72
              65
 73
               2
 40
30.0
 49
12.0
 74
               0
 49
-18.0
 74
               0
  0
LTYPE
  5
26
100
AcDbSymbolTableRecord
100
AcDbLinetypeTableRecord
  2
ACAD_ISO04W100
 70
              64
  3
ISO long-dash dot ____ . ____ . ____ . ____ . _
 72
              65
 73
               4
 40
30.0
 49
24.0
 74
               0
 49
-3.0
 74
               0
 49
0.0
 74
               0
 49
-3.0
 74
               0
  0
LTYPE
  5
27
100
AcDbSymbolTableRecord
100
AcDbLinetypeTableRecord
  2
ACAD_ISO05W100
 70
              64
  3
ISO long-dash double-dot ____ .. ____ .. ____ .
 72
              65
 73
               6
 40
33.0
 49
24.0
 74
               0
 49
-3.0
 74
               0
 49
0.0
 74
               0
 49
-3.0
 74
               0
 49
0.0
 74
               0
 49
-3.0
 74
               0
  0
LTYPE
  5
28
100
AcDbSymbolTableRecord
100
AcDbLinetypeTableRecord
  2
ACAD_ISO06W100
 70
              64
  3
ISO long-dash triple-dot ____ ... ____ ... ____
 72
              65
 73
               8
 40
36.0
 49
24.0
 74
               0
 49
-3.0
 74
               0
 49
0.0
 74
               0
 49
-3.0
 74
               0
 49
0.0
 74
               0
 49
-3.0
 74
               0
 49
0.0
 74
               0
 49
-3.0
 74
               0
  0
LTYPE
  5
29
100
AcDbSymbolTableRecord
100
AcDbLinetypeTableRecord
  2
ACAD_ISO07W100
 70
              64
  3
ISO dot . . . . . . . . . . . . . . . . . . . .
 72
              65
 73
               2
 40
3.0
 49
0.0
 74
               0
 49
-3.0
 74
               0
  0
LTYPE
  5
2A
100
AcDbSymbolTableRecord
100
AcDbLinetypeTableRecord
  2
ACAD_ISO08W100
 70
              64
  3
ISO long-dash short-dash ____ __ ____ __ ____ _
 72
              65
 73
               4
 40
36.0
 49
24.0
 74
               0
 49
-3.0
 74
               0
 49
6.0
 74
               0
 49
-3.0
 74
               0
  0
LTYPE
  5
2B
100
AcDbSymbolTableRecord
100
AcDbLinetypeTableRecord
  2
ACAD_ISO09W100
 70
              64
  3
ISO long-dash double-short-dash ____ __ __ ____
 72
              65
 73
               6
 40
45.0
 49
24.0
 74
               0
 49
-3.0
 74
               0
 49
6.0
 74
               0
 49
-3.0
 74
               0
 49
6.0
 74
               0
 49
-3.0
 74
               0
  0
LTYPE
  5
2C
100
AcDbSymbolTableRecord
100
AcDbLinetypeTableRecord
  2
ACAD_ISO10W100
 70
              64
  3
ISO dash dot __ . __ . __ . __ . __ . __ . __ .
 72
              65
 73
               4
 40
18.0
 49
12.0
 74
               0
 49
-3.0
 74
               0
 49
0.0
 74
               0
 49
-3.0
 74
               0
  0
LTYPE
  5
2D
100
AcDbSymbolTableRecord
100
AcDbLinetypeTableRecord
  2
ACAD_ISO11W100
 70
              64
  3
ISO double-dash dot __ __ . __ __ . __ __ . __ 
 72
              65
 73
               6
 40
33.0
 49
12.0
 74
               0
 49
-3.0
 74
               0
 49
12.0
 74
               0
 49
-3.0
 74
               0
 49
0.0
 74
               0
 49
-3.0
 74
               0
  0
LTYPE
  5
2E
100
AcDbSymbolTableRecord
100
AcDbLinetypeTableRecord
  2
ACAD_ISO12W100
 70
              64
  3
ISO dash double-dot __ . . __ . . __ . . __ . .
 72
              65
 73
               6
 40
21.0
 49
12.0
 74
               0
 49
-3.0
 74
               0
 49
0.0
 74
               0
 49
-3.0
 74
               0
 49
0.0
 74
               0
 49
-3.0
 74
               0
  0
LTYPE
  5
2F
100
AcDbSymbolTableRecord
100
AcDbLinetypeTableRecord
  2
ACAD_ISO13W100
 70
              64
  3
ISO double-dash double-dot __ __ . . __ __ . . 
 72
              65
 73
               8
 40
36.0
 49
12.0
 74
               0
 49
-3.0
 74
               0
 49
12.0
 74
               0
 49
-3.0
 74
               0
 49
0.0
 74
               0
 49
-3.0
 74
               0
 49
0.0
 74
               0
 49
-3.0
 74
               0
  0
LTYPE
  5
30
100
AcDbSymbolTableRecord
100
AcDbLinetypeTableRecord
  2
ACAD_ISO14W100
 70
              64
  3
ISO dash triple-dot __ . . . __ . . . __ . . . 
 72
              65
 73
               8
 40
24.0
 49
12.0
 74
               0
 49
-3.0
 74
               0
 49
0.0
 74
               0
 49
-3.0
 74
               0
 49
0.0
 74
               0
 49
-3.0
 74
               0
 49
0.0
 74
               0
 49
-3.0
 74
               0
  0
LTYPE
  5
31
100
AcDbSymbolTableRecord
100
AcDbLinetypeTableRecord
  2
ACAD_ISO15W100
 70
              64
  3
ISO double-dash double-dot __ __ . . __ __ . . 
 72
              65
 73
              10
 40
39.0
 49
12.0
 74
               0
 49
-3.0
 74
               0
 49
12.0
 74
               0
 49
-3.0
 74
               0
 49
0.0
 74
               0
 49
-3.0
 74
               0
 49
0.0
 74
               0
 49
-3.0
 74
               0
 49
0.0
 74
               0
 49
-3.0
 74
               0
  0
ENDTAB
  0
TABLE
  2
LAYER
  5
2
100
AcDbSymbolTable
 70
              16
  0
LAYER
  5
14
100
AcDbSymbolTableRecord
100
AcDbLayerTableRecord
  2
0
 70
               0
 62
               7
  6
Continuous
  0
LAYER
  5
35
100
AcDbSymbolTableRecord
100
AcDbLayerTableRecord
  2
Layer00001
 70
               0
 62
               7
  6
Continuous
  0
LAYER
  5
36
100
AcDbSymbolTableRecord
100
AcDbLayerTableRecord
  2
Layer00002
 70
               0
 62
               7
  6
Continuous
  0
LAYER
  5
37
100
AcDbSymbolTableRecord
100
AcDbLayerTableRecord
  2
Layer00003
 70
               0
 62
               7
  6
Continuous
  0
LAYER
  5
38
100
AcDbSymbolTableRecord
100
AcDbLayerTableRecord
  2
Layer00004
 70
               0
 62
               7
  6
Continuous
  0
LAYER
  5
39
100
AcDbSymbolTableRecord
100
AcDbLayerTableRecord
  2
Layer00005
 70
               0
 62
               7
  6
Continuous
  0
LAYER
  5
3A
100
AcDbSymbolTableRecord
100
AcDbLayerTableRecord
  2
Layer00006
 70
               0
 62
               7
  6
Continuous
  0
LAYER
  5
3B
100
AcDbSymbolTableRecord
100
AcDbLayerTableRecord
  2
Layer00007
 70
               0
 62
               7
  6
Continuous
  0
LAYER
  5
3C
100
AcDbSymbolTableRecord
100
AcDbLayerTableRecord
  2
Layer00008
 70
               0
 62
               7
  6
Continuous
  0
LAYER
  5
3D
100
AcDbSymbolTableRecord
100
AcDbLayerTableRecord
  2
Layer00009
 70
               0
 62
               7
  6
Continuous
  0
LAYER
  5
3E
100
AcDbSymbolTableRecord
100
AcDbLayerTableRecord
  2
Layer00010
 70
               0
 62
               7
  6
Continuous
  0
LAYER
  5
3F
100
AcDbSymbolTableRecord
100
AcDbLayerTableRecord
  2
Layer00011
 70
               0
 62
               7
  6
Continuous
  0
LAYER
  5
40
100
AcDbSymbolTableRecord
100
AcDbLayerTableRecord
  2
Layer00012
 70
               0
 62
               7
  6
Continuous
  0
LAYER
  5
41
100
AcDbSymbolTableRecord
100
AcDbLayerTableRecord
  2
Layer00013
 70
               0
 62
               7
  6
Continuous
  0
LAYER
  5
42
100
AcDbSymbolTableRecord
100
AcDbLayerTableRecord
  2
Layer00014
 70
               0
 62
               7
  6
Continuous
  0
LAYER
  5
43
100
AcDbSymbolTableRecord
100
AcDbLayerTableRecord
  2
Layer00015
 70
               0
 62
               7
  6
Continuous
  0
ENDTAB
  0
TABLE
  2
STYLE
  5
3
100
AcDbSymbolTable
 70
               4
  0
STYLE
  5
17
100
AcDbSymbolTableRecord
100
AcDbTextStyleTableRecord
  2
Standard
 70
               0
 40
0.0
 41
1.0
 50
0.0
 71
               0
 42
0.0
  3
txt.shx
  4
bigfont.shx
  0
STYLE
  5
32
100
AcDbSymbolTableRecord
100
AcDbTextStyleTableRecord
  2
STANDARD_T
 70
               4
 40
0.0
 41
1.0
 50
0.0
 71
               0
 42
0.0
  3
txt.shx
  4
bigfont.shx
  0
STYLE
  5
33
100
AcDbSymbolTableRecord
100
AcDbTextStyleTableRecord
  2
FontTableH_0
 70
               0
 40
0.0
 41
1.0
 50
0.0
 71
               0
 42
0.0
  3
MS Gothic.ttf
  4

1001
ACAD
1000
MS Gothic
1071
    32817
  0
STYLE
  5
34
100
AcDbSymbolTableRecord
100
AcDbTextStyleTableRecord
  2
FontTableV_0
 70
               0
 40
0.0
 41
1.0
 50
0.0
 71
               0
 42
0.0
  3
@MS Gothic.ttf
  4

1001
ACAD
1000
@MS Gothic
1071
    32817
  0
ENDTAB
  0
TABLE
  2
VIEW
  5
5
100
AcDbSymbolTable
 70
               0
  0
ENDTAB
  0
TABLE
  2
UCS
  5
6
100
AcDbSymbolTable
 70
               0
  0
ENDTAB
  0
TABLE
  2
APPID
  5
8
100
AcDbSymbolTable
 70
               1
  0
APPID
  5
16
100
AcDbSymbolTableRecord
100
AcDbRegAppTableRecord
  2
ACAD
 70
               0
  0
ENDTAB
  0
TABLE
  2
DIMSTYLE
  5
9
100
AcDbSymbolTable
 70
               1
  0
DIMSTYLE
105
18
100
AcDbSymbolTableRecord
100
AcDbDimStyleTableRecord
  2
Standard
 70
               0
  3

  4

  5

  6

  7

 40
1.0
 41
0.18
 42
0.0625
 43
0.38
 44
0.18
 45
0.0
 46
0.0
 47
0.0
 48
0.0
 71
               0
 72
               0
 73
               1
 74
               1
 75
               0
 76
               0
 77
               0
 78
               0
140
0.18
141
0.09
142
0.0
143
25.399999999999999
144
1.0
145
0.0
146
1.0
147
0.09
170
               0
171
               2
172
               0
173
               0
174
               0
175
               0
176
               0
177
               0
178
               0
270
               2
271
               4
272
               4
273
               2
274
               2
275
               0
280
               0
281
               0
282
               0
283
               1
284
               0
285
               0
286
               0
287
               0
288
               0
340
17
  0
ENDTAB
  0
TABLE
  2
BLOCK_RECORD
  5
1
100
AcDbSymbolTable
 70
               0
  0
BLOCK_RECORD
  5
A
100
AcDbSymbolTableRecord
100
AcDbBlockTableRecord
  2
*MODEL_SPACE
  0
BLOCK_RECORD
  5
B
100
AcDbSymbolTableRecord
100
AcDbBlockTableRecord
  2
*PAPER_SPACE
  0
ENDTAB
  0
ENDSEC
  0
SECTION
  2
BLOCKS
  0
BLOCK
  5
D
100
AcDbEntity
  8
0
100
AcDbBlockBegin
  2
*MODEL_SPACE
 70
               0
 10
0.0
 20
0.0
 30
0.0
  3
*MODEL_SPACE
  1

  0
ENDBLK
  5
E
100
AcDbEntity
  8
0
100
AcDbBlockEnd
  0
BLOCK
  5
F
100
AcDbEntity
 67
               1
  8
0
100
AcDbBlockBegin
  2
*PAPER_SPACE
 70
               0
 10
0.0
 20
0.0
 30
0.0
  3
*PAPER_SPACE
  1

  0
ENDBLK
  5
10
100
AcDbEntity
 67
               1
  8
0
100
AcDbBlockEnd
  0
ENDSEC
  0
SECTION
  2
ENTITIES
  0
LINE
  5
44
100
AcDbEntity
  8
0
  6
Continuous
 62
               4
100
AcDbLine
 10
261.47843405284715
 20
456.00988333933321
 30
0.0
 11
237.47843405284704
 21
456.00988333933321
 31
0.0
  0
LINE
  5
45
100
AcDbEntity
  8
0
  6
Continuous
 62
               4
100
AcDbLine
 10
281.47843405284704
 20
406.00988333933299
 30
0.0
 11
237.47843405284704
 21
406.00988333933299
 31
0.0
  0
LINE
  5
46
100
AcDbEntity
  8
0
  6
Continuous
 62
               4
100
AcDbLine
 10
240.47843405284715
 20
456.00988333933321
 30
0.0
 11
240.47843405284715
 21
406.00988333933299
 31
0.0
  0
LINE
  5
47
100
AcDbEntity
  8
0
  6
Continuous
 62
               4
100
AcDbLine
 10
648.47843405284743
 20
417.50988333933299
 30
0.0
 11
672.47843405284743
 21
417.50988333933299
 31
0.0
  0
LINE
  5
48
100
AcDbEntity
  8
0
  6
Continuous
 62
               4
100
AcDbLine
 10
648.47843405284743
 20
429.50988333933299
 30
0.0
 11
672.47843405284743
 21
429.50988333933299
 31
0.0
  0
LINE
  5
49
100
AcDbEntity
  8
0
  6
Continuous
 62
               4
100
AcDbLine
 10
669.47843405284743
 20
417.50988333933299
 30
0.0
 11
669.47843405284743
 21
429.50988333933299
 31
0.0
  0
LINE
  5
4A
100
AcDbEntity
  8
0
  6
Continuous
 62
               4
100
AcDbLine
 10
648.47843405284743
 20
430.00988333933299
 30
0.0
 11
672.47843405284743
 21
430.00988333933299
 31
0.0
  0
LINE
  5
4B
100
AcDbEntity
  8
0
  6
Continuous
 62
               4
100
AcDbLine
 10
648.47843405284743
 20
455.00988333933321
 30
0.0
 11
672.47843405284743
 21
455.00988333933321
 31
0.0
  0
LINE
  5
4C
100
AcDbEntity
  8
0
  6
Continuous
 62
               4
100
AcDbLine
 10
669.47843405284743
 20
430.00988333933299
 30
0.0
 11
669.47843405284743
 21
455.00988333933321
 31
0.0
  0
LINE
  5
4D
100
AcDbEntity
  8
0
  6
Continuous
 62
               4
100
AcDbLine
 10
648.47843405284743
 20
489.00988333933299
 30
0.0
 11
672.47843405284743
 21
489.00988333933299
 31
0.0
  0
LINE
  5
4E
100
AcDbEntity
  8
0
  6
Continuous
 62
               4
100
AcDbLine
 10
648.47843405284743
 20
459.00988333933321
 30
0.0
 11
672.47843405284743
 21
459.00988333933321
 31
0.0
  0
LINE
  5
4F
100
AcDbEntity
  8
0
  6
Continuous
 62
               4
100
AcDbLine
 10
669.47843405284743
 20
489.00988333933299
 30
0.0
 11
669.47843405284743
 21
459.00988333933321
 31
0.0
  0
LINE
  5
50
100
AcDbEntity
  8
0
  6
Continuous
 62
               4
100
AcDbLine
 10
332.11770135668968
 20
95.978050403572269
 30
0.0
 11
300.29514693886364
 21
127.80060482139822
 31
0.0
  0
LINE
  5
51
100
AcDbEntity
  8
0
  6
Continuous
 62
               4
100
AcDbLine
 10
300.29514693886364
 20
127.80060482139822
 30
0.0
 11
247.68318253048318
 21
127.80060482139822
 31
0.0
  0
LINE
  5
52
100
AcDbEntity
  8
0
  6
Continuous
 62
               4
100
AcDbLine
 10
332.11770135668968
 20
95.978050403572269
 30
0.0
 11
324.74533295808868
 21
101.14023833073171
 31
0.0
  0
LINE
  5
53
100
AcDbEntity
  8
0
  6
Continuous
 62
               4
100
AcDbLine
 10
332.11770135668968
 20
95.978050403572269
 30
0.0
 11
326.9555134295303
 21
103.35041880217318
 31
0.0
  0
LINE
  5
54
100
AcDbEntity
  8
0
  6
Continuous
 62
               4
100
AcDbLine
 10
292.47843405284704
 20
274.57913929675465
 30
0.0
 11
266.17916821049772
 21
300.87840513910402
 31
0.0
  0
LINE
  5
55
100
AcDbEntity
  8
0
  6
Continuous
 62
               4
100
AcDbLine
 10
266.17916821049772
 20
300.87840513910402
 30
0.0
 11
226.5250032199902
 21
300.87840513910402
 31
0.0
  0
LINE
  5
56
100
AcDbEntity
  8
0
  6
Continuous
 62
               4
100
AcDbLine
 10
292.47843405284704
 20
274.57913929675465
 30
0.0
 11
285.10606565424604
 21
279.74132722391408
 31
0.0
  0
LINE
  5
57
100
AcDbEntity
  8
0
  6
Continuous
 62
               4
100
AcDbLine
 10
292.47843405284704
 20
274.57913929675465
 30
0.0
 11
287.31624612568766
 21
281.95150769535564
 31
0.0
  0
LINE
  5
58
100
AcDbEntity
  8
0
  6
Continuous
 62
               4
100
AcDbLine
 10
287.47843405284704
 20
431.0098833393331
 30
0.0
 11
258.53625873977393
 21
380.88056521552517
 31
0.0
  0
LINE
  5
59
100
AcDbEntity
  8
0
  6
Continuous
 62
               4
100
AcDbLine
 10
258.53625873977393
 20
380.88056521552517
 30
0.0
 11
233.18884971234826
 21
380.88056521552517
 31
0.0
  0
LINE
  5
5A
100
AcDbEntity
  8
0
  6
Continuous
 62
               4
100
AcDbLine
 10
287.47843405284704
 20
431.0098833393331
 30
0.0
 11
284.40025276291595
 21
422.55264975225998
 31
0.0
  0
LINE
  5
5B
100
AcDbEntity
  8
0
  6
Continuous
 62
               4
100
AcDbLine
 10
287.47843405284704
 20
431.0098833393331
 30
0.0
 11
281.69334556566815
 21
424.11548335126236
 31
0.0
  0
LINE
  5
5C
100
AcDbEntity
  8
0
  6
Continuous
 62
               4
100
AcDbLine
 10
414.84897637814089
 20
415.09284315425282
 30
0.0
 11
402.9710106387451
 21
435.66608330544886
 31
0.0
  0
LINE
  5
5D
100
AcDbEntity
  8
0
  6
Continuous
 62
               4
100
AcDbLine
 10
402.9710106387451
 20
435.66608330544886
 30
0.0
 11
306.43089448507652
 21
435.66608330544886
 31
0.0
  0
LINE
  5
5E
100
AcDbEntity
  8
0
  6
Continuous
 62
               4
100
AcDbLine
 10
414.84897637814089
 20
415.09284315425282
 30
0.0
 11
409.06388789096212
 21
421.98724314232368
 31
0.0
  0
LINE
  5
5F
100
AcDbEntity
  8
0
  6
Continuous
 62
               4
100
AcDbLine
 10
414.84897637814089
 20
415.09284315425282
 30
0.0
 11
411.77079508820992
 21
423.55007674132594
 31
0.0
  0
LINE
  5
60
100
AcDbEntity
  8
0
  6
Continuous
 62
               4
100
AcDbLine
 10
267.47843405284715
 20
465.0098833393331
 30
0.0
 11
267.47843405284715
 21
498.00988333933344
 31
0.0
  0
LINE
  5
61
100
AcDbEntity
  8
0
  6
Continuous
 62
               4
100
AcDbLine
 10
287.47843405284704
 20
462.00988333933321
 30
0.0
 11
287.47843405284704
 21
498.00988333933344
 31
0.0
  0
LINE
  5
62
100
AcDbEntity
  8
0
  6
Continuous
 62
               4
100
AcDbLine
 10
267.47843405284715
 20
495.00988333933344
 30
0.0
 11
287.47843405284704
 21
495.00988333933344
 31
0.0
  0
LINE
  5
63
100
AcDbEntity
  8
0
  6
Continuous
 62
               4
100
AcDbLine
 10
267.47843405284715
 20
465.0098833393331
 30
0.0
 11
267.47843405284715
 21
516.00988333933344
 31
0.0
  0
LINE
  5
64
100
AcDbEntity
  8
0
  6
Continuous
 62
               4
100
AcDbLine
 10
267.47843405284715
 20
513.00988333933344
 30
0.0
 11
512.47843405284766
 21
513.00988333933344
 31
0.0
  0
LINE
  5
65
100
AcDbEntity
  8
0
  6
Continuous
 62
               4
100
AcDbLine
 10
512.47843405284766
 20
513.00988333933344
 30
0.0
 11
642.47843405284743
 21
513.00988333933356
 31
0.0
  0
LINE
  5
66
100
AcDbEntity
  8
0
  6
Continuous
 62
               4
100
AcDbLine
 10
470.09634094915344
 20
459.00988333933321
 30
0.0
 11
448.54196276968759
 21
539.45191783065286
 31
0.0
  0
LINE
  5
67
100
AcDbEntity
  8
0
  6
Continuous
 62
               4
100
AcDbLine
 10
448.54196276968759
 20
539.45191783065286
 30
0.0
 11
271.52379458130162
 21
539.45191783065775
 31
0.0
  0
LINE
  5
68
100
AcDbEntity
  8
0
  6
Continuous
 62
               4
100
AcDbLine
 10
470.09634094915344
 20
459.00988333933321
 30
0.0
 11
466.29277659348719
 21
467.16665342266299
 31
0.0
  0
LINE
  5
69
100
AcDbEntity
  8
0
  6
Continuous
 62
               4
100
AcDbLine
 10
470.09634094915344
 20
459.00988333933321
 30
0.0
 11
469.31193926442455
 21
467.97563562215896
 31
0.0
  0
LINE
  5
6A
100
AcDbEntity
  8
0
  6
Continuous
 62
               4
100
AcDbLine
 10
512.47843405284766
 20
462.37266911387837
 30
0.0
 11
530.78462643996431
 21
494.07992442149475
 31
0.0
  0
LINE
  5
6B
100
AcDbEntity
  8
0
  6
Continuous
 62
               4
100
AcDbLine
 10
530.78462643996431
 20
494.07992442149475
 30
0.0
 11
556.311740818207
 21
494.07992442149475
 31
0.0
  0
LINE
  5
6C
100
AcDbEntity
  8
0
  6
Continuous
 62
               4
100
AcDbLine
 10
512.47843405284766
 20
462.37266911387837
 30
0.0
 11
515.55661534277874
 21
470.82990270095161
 31
0.0
  0
LINE
  5
6D
100
AcDbEntity
  8
0
  6
Continuous
 62
               4
100
AcDbLine
 10
512.47843405284766
 20
462.37266911387837
 30
0.0
 11
518.26352254002654
 21
469.26706910194923
 31
0.0
  0
LINE
  5
6E
100
AcDbEntity
  8
0
  6
Continuous
 62
               4
100
AcDbLine
 10
548.96605673735894
 20
442.83587543948852
 30
0.0
 11
567.27224912447559
 21
474.5431307471049
 31
0.0
  0
LINE
  5
6F
100
AcDbEntity
  8
0
  6
Continuous
 62
               4
100
AcDbLine
 10
567.27224912447559
 20
474.5431307471049
 30
0.0
 11
605.46367633016166
 21
474.5431307471049
 31
0.0
  0
LINE
  5
70
100
AcDbEntity
  8
0
  6
Continuous
 62
               4
100
AcDbLine
 10
548.96605673735894
 20
442.83587543948852
 30
0.0
 11
552.04423802729002
 21
451.29310902656164
 31
0.0
  0
LINE
  5
71
100
AcDbEntity
  8
0
  6
Continuous
 62
               4
100
AcDbLine
 10
548.96605673735894
 20
442.83587543948852
 30
0.0
 11
554.75114522453782
 21
449.73027542755938
 31
0.0
  0
LINE
  5
72
100
AcDbEntity
  8
0
  6
Continuous
 62
               4
100
AcDbLine
 10
474.93275429207534
 20
423.16174771382668
 30
0.0
 11
482.386931832995
 21
395.34237840247533
 31
0.0
  0
LINE
  5
73
100
AcDbEntity
  8
0
  6
Continuous
 62
               4
100
AcDbLine
 10
482.386931832995
 20
395.34237840247533
 30
0.0
 11
531.42799273231253
 21
395.34237840247533
 31
0.0
  0
LINE
  5
74
100
AcDbEntity
  8
0
  6
Continuous
 62
               4
100
AcDbLine
 10
474.93275429207534
 20
423.16174771382668
 30
0.0
 11
478.7363186477416
 21
415.00497763049691
 31
0.0
  0
LINE
  5
75
100
AcDbEntity
  8
0
  6
Continuous
 62
               4
100
AcDbLine
 10
474.93275429207534
 20
423.16174771382668
 30
0.0
 11
475.71715597680424
 21
414.19599543100105
 31
0.0
  0
LINE
  5
76
100
AcDbEntity
  8
0
  6
Continuous
 62
               4
100
AcDbLine
 10
373.58329909644334
 20
284.43385830973972
 30
0.0
 11
384.08241918723485
 21
245.25060869613856
 31
0.0
  0
LINE
  5
77
100
AcDbEntity
  8
0
  6
Continuous
 62
               4
100
AcDbLine
 10
384.08241918723485
 20
245.25060869613856
 30
0.0
 11
434.86575659257932
 21
245.25060869613856
 31
0.0
  0
LINE
  5
78
100
AcDbEntity
  8
0
  6
Continuous
 62
               4
100
AcDbLine
 10
373.58329909644334
 20
284.43385830973972
 30
0.0
 11
377.38686345210959
 21
276.27708822640989
 31
0.0
  0
LINE
  5
79
100
AcDbEntity
  8
0
  6
Continuous
 62
               4
100
AcDbLine
 10
373.58329909644334
 20
284.43385830973972
 30
0.0
 11
374.36770078117223
 21
275.46810602691403
 31
0.0
  0
LINE
  5
7A
100
AcDbEntity
  8
0
  6
Continuous
 62
               4
100
AcDbLine
 10
552.0821155596966
 20
267.20988333933281
 30
0.0
 11
535.731979485588
 21
206.19034480009418
 31
0.0
  0
LINE
  5
7B
100
AcDbEntity
  8
0
  6
Continuous
 62
               4
100
AcDbLine
 10
535.731979485588
 20
206.19034480009418
 30
0.0
 11
413.68303156896565
 21
206.19034480009418
 31
0.0
  0
LINE
  5
7C
100
AcDbEntity
  8
0
  6
Continuous
 62
               4
100
AcDbLine
 10
552.0821155596966
 20
267.20988333933281
 30
0.0
 11
551.29771387496771
 21
258.24413105650706
 31
0.0
  0
LINE
  5
7D
100
AcDbEntity
  8
0
  6
Continuous
 62
               4
100
AcDbLine
 10
552.0821155596966
 20
267.20988333933281
 30
0.0
 11
548.27855120403046
 21
259.05311325600297
 31
0.0
  0
LINE
  5
7E
100
AcDbEntity
  8
0
  6
Continuous
 62
               6
100
AcDbLine
 10
327.29786898435401
 20
373.20988333933303
 30
0.0
 11
642.47843405284743
 21
373.20988333933303
 31
0.0
  0
LINE
  5
7F
100
AcDbEntity
  8
0
  6
Continuous
 62
               6
100
AcDbLine
 10
327.29786898435401
 20
293.20988333933281
 30
0.0
 11
642.47843405284743
 21
293.20988333933281
 31
0.0
  0
LINE
  5
80
100
AcDbEntity
  8
0
  6
Continuous
 62
               6
100
AcDbLine
 10
327.29786898435401
 20
353.20988333933303
 30
0.0
 11
642.47843405284743
 21
353.20988333933303
 31
0.0
  0
LINE
  5
81
100
AcDbEntity
  8
0
  6
DOT
 62
               6
100
AcDbLine
 10
327.29786898435401
 20
370.90988333933308
 30
0.0
 11
642.47843405284743
 21
370.90988333933308
 31
0.0
  0
LINE
  5
82
100
AcDbEntity
  8
0
  6
Continuous
 62
               4
100
AcDbLine
 10
453.92971829942297
 20
429.50988333933299
 30
0.0
 11
642.47843405284743
 21
429.50988333933299
 31
0.0
  0
LINE
  5
83
100
AcDbEntity
  8
0
  6
Continuous
 62
               4
100
AcDbLine
 10
514.47843405284766
 20
455.00988333933321
 30
0.0
 11
642.47843405284743
 21
455.00988333933321
 31
0.0
  0
LINE
  5
84
100
AcDbEntity
  8
0
  6
Continuous
 62
               6
100
AcDbLine
 10
513.2953189952932
 20
381.99667990373666
 30
0.0
 11
534.40444603003311
 21
405.1875528689967
 31
0.0
  0
LINE
  5
85
100
AcDbEntity
  8
0
  6
Continuous
 62
               6
100
AcDbLine
 10
509.75978508936038
 20
385.53221380966932
 30
0.0
 11
530.86891212410023
 21
408.72308677492936
 31
0.0
  0
LINE
  5
86
100
AcDbEntity
  8
0
  6
Continuous
 62
               6
100
AcDbLine
 10
590.86891212410023
 20
381.99667990373666
 30
0.0
 11
569.75978508936055
 21
405.1875528689967
 31
0.0
  0
LINE
  5
87
100
AcDbEntity
  8
0
  6
Continuous
 62
               6
100
AcDbLine
 10
594.40444603003311
 20
385.53221380966932
 30
0.0
 11
573.29531899529297
 21
408.72308677492936
 31
0.0
  0
LINE
  5
88
100
AcDbEntity
  8
0
  6
Continuous
 62
               6
100
AcDbLine
 10
633.29531899529297
 20
381.99667990373666
 30
0.0
 11
642.47843405284743
 21
392.085418029886
 31
0.0
  0
LINE
  5
89
100
AcDbEntity
  8
0
  6
Continuous
 62
               6
100
AcDbLine
 10
629.75978508936009
 20
385.53221380966932
 30
0.0
 11
642.47843405284743
 21
399.50515413621849
 31
0.0
  0
LINE
  5
8A
100
AcDbEntity
  8
0
  6
Continuous
 62
               6
100
AcDbLine
 10
470.86891212410029
 20
381.99667990373666
 30
0.0
 11
449.75978508936038
 21
405.1875528689967
 31
0.0
  0
LINE
  5
8B
100
AcDbEntity
  8
0
  6
Continuous
 62
               6
100
AcDbLine
 10
474.40444603003306
 20
385.53221380966932
 30
0.0
 11
453.29531899529314
 21
408.72308677492936
 31
0.0
  0
LINE
  5
8C
100
AcDbEntity
  8
0
  6
Continuous
 62
               6
100
AcDbLine
 10
393.2953189952928
 20
381.99667990373666
 30
0.0
 11
414.40444603003294
 21
405.1875528689967
 31
0.0
  0
LINE
  5
8D
100
AcDbEntity
  8
0
  6
Continuous
 62
               6
100
AcDbLine
 10
389.75978508936004
 20
385.53221380966932
 30
0.0
 11
410.86891212410018
 21
408.72308677492936
 31
0.0
  0
LINE
  5
8E
100
AcDbEntity
  8
0
  6
Continuous
 62
               6
100
AcDbLine
 10
350.86891212409984
 20
381.99667990373666
 30
0.0
 11
344.24767049849271
 21
389.27089703071863
 31
0.0
  0
LINE
  5
8F
100
AcDbEntity
  8
0
  6
Continuous
 62
               6
100
AcDbLine
 10
354.40444603003249
 20
385.53221380966932
 30
0.0
 11
347.94119003016641
 21
392.63286503926167
 31
0.0
  0
LINE
  5
90
100
AcDbEntity
  8
0
  6
Continuous
 62
               4
100
AcDbLine
 10
453.92971829942297
 20
417.50988333933299
 30
0.0
 11
642.47843405284743
 21
417.50988333933299
 31
0.0
  0
LINE
  5
91
100
AcDbEntity
  8
0
  6
Continuous
 62
               7
100
AcDbLine
 10
555.0821155596966
 20
427.70988333933303
 30
0.0
 11
555.0821155596966
 21
424.70988333933303
 31
0.0
  0
LINE
  5
92
100
AcDbEntity
  8
0
  6
Continuous
 62
               7
100
AcDbLine
 10
549.08211555969683
 20
427.70988333933303
 30
0.0
 11
549.08211555969683
 21
424.70988333933303
 31
0.0
  0
LINE
  5
93
100
AcDbEntity
  8
0
  6
Continuous
 62
               7
100
AcDbLine
 10
549.08211555969683
 20
286.20988333933281
 30
0.0
 11
555.0821155596966
 21
286.20988333933281
 31
0.0
  0
LINE
  5
94
100
AcDbEntity
  8
0
  6
Continuous
 62
               7
100
AcDbLine
 10
555.0821155596966
 20
286.20988333933281
 30
0.0
 11
555.0821155596966
 21
270.20988333933281
 31
0.0
  0
LINE
  5
95
100
AcDbEntity
  8
0
  6
Continuous
 62
               7
100
AcDbLine
 10
549.08211555969683
 20
286.20988333933281
 30
0.0
 11
549.08211555969683
 21
270.20988333933281
 31
0.0
  0
LINE
  5
96
100
AcDbEntity
  8
0
  6
Continuous
 62
               7
100
AcDbLine
 10
537.08211555969683
 20
414.86751481576027
 30
0.0
 11
537.65903863661993
 21
413.815298220513
 31
0.0
  0
LINE
  5
97
100
AcDbEntity
  8
0
  6
Continuous
 62
               7
100
AcDbLine
 10
567.0821155596966
 20
414.86751481576027
 30
0.0
 11
566.50519248277374
 21
413.815298220513
 31
0.0
  0
LINE
  5
98
100
AcDbEntity
  8
0
  6
Continuous
 62
               7
100
AcDbLine
 10
546.08211555969683
 20
418.70988333933303
 30
0.0
 11
558.0821155596966
 21
418.70988333933303
 31
0.0
  0
LINE
  5
99
100
AcDbEntity
  8
0
  6
Continuous
 62
               7
100
AcDbLine
 10
547.58211555969683
 20
424.70988333933303
 30
0.0
 11
556.5821155596966
 21
424.70988333933303
 31
0.0
  0
LINE
  5
9A
100
AcDbEntity
  8
0
  6
Continuous
 62
               7
100
AcDbLine
 10
549.08211555969683
 20
427.70988333933303
 30
0.0
 11
555.0821155596966
 21
427.70988333933303
 31
0.0
  0
LINE
  5
9B
100
AcDbEntity
  8
0
  6
Continuous
 62
               7
100
AcDbLine
 10
546.08211555969683
 20
424.18338273885263
 30
0.0
 11
546.08211555969683
 21
418.70988333933303
 31
0.0
  0
LINE
  5
9C
100
AcDbEntity
  8
0
  6
Continuous
 62
               7
100
AcDbLine
 10
558.0821155596966
 20
424.18338273885263
 30
0.0
 11
558.0821155596966
 21
418.70988333933303
 31
0.0
  0
LINE
  5
9D
100
AcDbEntity
  8
0
  6
Continuous
 62
               7
100
AcDbLine
 10
546.08211555969683
 20
424.18338273885263
 30
0.0
 11
547.58211555969683
 21
424.70988333933303
 31
0.0
  0
LINE
  5
9E
100
AcDbEntity
  8
0
  6
Continuous
 62
               7
100
AcDbLine
 10
556.5821155596966
 20
424.70988333933303
 30
0.0
 11
558.0821155596966
 21
424.18338273885263
 31
0.0
  0
LINE
  5
9F
100
AcDbEntity
  8
0
  6
Continuous
 62
               7
100
AcDbLine
 10
555.0821155596966
 20
424.19385317777108
 30
0.0
 11
555.0821155596966
 21
418.56531764639101
 31
0.0
  0
LINE
  5
A0
100
AcDbEntity
  8
0
  6
Continuous
 62
               7
100
AcDbLine
 10
549.08211555969683
 20
424.19516471357167
 30
0.0
 11
549.08211555969683
 21
418.56531764639101
 31
0.0
  0
LINE
  5
A1
100
AcDbEntity
  8
0
  6
Continuous
 62
               7
100
AcDbLine
 10
549.08211555969683
 20
412.32923063131477
 30
0.0
 11
549.08211555969683
 21
373.20988333933303
 31
0.0
  0
LINE
  5
A2
100
AcDbEntity
  8
0
  6
Continuous
 62
               7
100
AcDbLine
 10
555.0821155596966
 20
412.32923063131477
 30
0.0
 11
555.0821155596966
 21
373.20988333933303
 31
0.0
  0
LINE
  5
A3
100
AcDbEntity
  8
0
  6
Continuous
 62
               6
100
AcDbLine
 10
344.24767049849271
 20
389.27089703071863
 30
0.0
 11
347.94119003016641
 21
392.63286503926167
 31
0.0
  0
LINE
  5
A4
100
AcDbEntity
  8
0
  6
Continuous
 62
               6
100
AcDbLine
 10
393.39163748844368
 20
389.24368332839401
 30
0.0
 11
414.50076452318382
 21
412.43455629365428
 31
0.0
  0
LINE
  5
A5
100
AcDbEntity
  8
0
  6
Continuous
 62
               6
100
AcDbLine
 10
389.85610358251091
 20
392.77921723432667
 30
0.0
 11
410.96523061725105
 21
415.97009019958693
 31
0.0
  0
LINE
  5
A6
100
AcDbEntity
  8
0
  6
Continuous
 62
               6
100
AcDbLine
 10
460.91551400244379
 20
400.28448577215715
 30
0.0
 11
449.85610358251125
 21
412.43455629365428
 31
0.0
  0
LINE
  5
A7
100
AcDbEntity
  8
0
  6
Continuous
 62
               6
100
AcDbLine
 10
464.60903353411749
 20
403.6464537807002
 30
0.0
 11
453.39163748844402
 21
415.97009019958693
 31
0.0
  0
LINE
  5
A8
100
AcDbEntity
  8
0
  6
Continuous
 62
               6
100
AcDbLine
 10
350.96523061725071
 20
389.24368332839401
 30
0.0
 11
329.8561035825108
 21
412.43455629365428
 31
0.0
  0
LINE
  5
A9
100
AcDbEntity
  8
0
  6
Continuous
 62
               6
100
AcDbLine
 10
354.50076452318336
 20
392.77921723432667
 30
0.0
 11
333.39163748844345
 21
415.97009019958693
 31
0.0
  0
LINE
  5
AA
100
AcDbEntity
  8
0
  6
Continuous
 62
               4
100
AcDbLine
 10
453.92971829942297
 20
417.50988333933299
 30
0.0
 11
453.92971829942297
 21
429.50988333933299
 31
0.0
  0
LINE
  5
AB
100
AcDbEntity
  8
0
  6
Continuous
 62
               6
100
AcDbLine
 10
327.29786898435401
 20
373.20988333933303
 30
0.0
 11
327.29786898435401
 21
273.20988333933281
 31
0.0
  0
LINE
  5
AC
100
AcDbEntity
  8
0
  6
Continuous
 62
               6
100
AcDbLine
 10
302.17843405284708
 20
414.75688676399056
 30
0.0
 11
302.17843405284708
 21
243.20988333933281
 31
0.0
  0
LINE
  5
AD
100
AcDbEntity
  8
0
  6
Continuous
 62
               6
100
AcDbLine
 10
307.17843405284708
 20
414.75688676399056
 30
0.0
 11
307.17843405284708
 21
243.20988333933281
 31
0.0
  0
LINE
  5
AE
100
AcDbEntity
  8
0
  6
Continuous
 62
               6
100
AcDbLine
 10
297.17843405284708
 20
243.20988333933281
 30
0.0
 11
307.17843405284708
 21
243.20988333933281
 31
0.0
  0
LINE
  5
AF
100
AcDbEntity
  8
0
  6
Continuous
 62
               6
100
AcDbLine
 10
297.17843405284708
 20
414.75688676399056
 30
0.0
 11
297.17843405284708
 21
243.20988333933281
 31
0.0
  0
LINE
  5
B0
100
AcDbEntity
  8
0
  6
Continuous
 62
               6
100
AcDbLine
 10
335.28746499733478
 20
413.88729943091209
 30
0.0
 11
339.13897015474976
 21
417.07570154206508
 31
0.0
  0
LINE
  5
B1
100
AcDbEntity
  8
0
  6
Continuous
 62
               4
100
AcDbLine
 10
295.67843405284708
 20
453.30988333933317
 30
0.0
 11
295.67843405284708
 21
357.50988333933299
 31
0.0
  0
LINE
  5
B2
100
AcDbEntity
  8
0
  6
Continuous
 62
               4
100
AcDbLine
 10
294.47843405284704
 20
454.50988333933321
 30
0.0
 11
294.47843405284704
 21
357.50988333933299
 31
0.0
  0
LINE
  5
B3
100
AcDbEntity
  8
0
  6
Continuous
 62
               4
100
AcDbLine
 10
295.67843405284708
 20
357.50988333933299
 30
0.0
 11
294.47843405284704
 21
357.50988333933299
 31
0.0
  0
LINE
  5
B4
100
AcDbEntity
  8
0
  6
Continuous
 62
               4
100
AcDbLine
 10
292.47843405284704
 20
456.00988333933321
 30
0.0
 11
292.47843405284704
 21
161.07610765440143
 31
0.0
  0
LINE
  5
B5
100
AcDbEntity
  8
0
  6
Continuous
 62
               4
100
AcDbLine
 10
392.47843405284726
 20
456.00988333933321
 30
0.0
 11
292.47843405284704
 21
456.00988333933321
 31
0.0
  0
LINE
  5
B6
100
AcDbEntity
  8
0
  6
Continuous
 62
               4
100
AcDbLine
 10
417.17843405284754
 20
454.50988333933321
 30
0.0
 11
294.47843405284704
 21
454.50988333933321
 31
0.0
  0
LINE
  5
B7
100
AcDbEntity
  8
0
  6
Continuous
 62
               4
100
AcDbLine
 10
415.97843405284749
 20
453.30988333933317
 30
0.0
 11
295.67843405284708
 21
453.30988333933317
 31
0.0
  0
LINE
  5
B8
100
AcDbEntity
  8
0
  6
Continuous
 62
               4
100
AcDbLine
 10
287.47843405284704
 20
456.00988333933321
 30
0.0
 11
287.47843405284704
 21
406.00988333933299
 31
0.0
  0
LINE
  5
B9
100
AcDbEntity
  8
0
  6
Continuous
 62
               4
100
AcDbLine
 10
292.15687939225035
 20
415.49131177730726
 30
0.0
 11
288.97843405284704
 21
406.00988333933299
 31
0.0
  0
LINE
  5
BA
100
AcDbEntity
  8
0
  6
Continuous
 62
               7
100
AcDbLine
 10
327.29786898435401
 20
270.20988333933281
 30
0.0
 11
327.29786898435401
 21
76.209883339332777
 31
0.0
  0
LINE
  5
BB
100
AcDbEntity
  8
0
  6
Continuous
 62
               7
100
AcDbLine
 10
357.29786898435401
 20
270.20988333933281
 30
0.0
 11
357.29786898435401
 21
76.209883339332777
 31
0.0
  0
LINE
  5
BC
100
AcDbEntity
  8
0
  6
Continuous
 62
               7
100
AcDbLine
 10
327.29786898435401
 20
270.20988333933281
 30
0.0
 11
357.29786898435401
 21
270.20988333933281
 31
0.0
  0
LINE
  5
BD
100
AcDbEntity
  8
0
  6
Continuous
 62
               6
100
AcDbLine
 10
460.92244090216258
 20
400.29079087357957
 30
0.0
 11
464.61596043383628
 21
403.65275888212261
 31
0.0
  0
LINE
  5
BE
100
AcDbEntity
  8
0
  6
Continuous
 62
               4
100
AcDbLine
 10
447.17843405284765
 20
424.75688676399056
 30
0.0
 11
415.97843405284749
 21
424.75688676399056
 31
0.0
  0
LINE
  5
BF
100
AcDbEntity
  8
0
  6
Continuous
 62
               4
100
AcDbLine
 10
447.17843405284765
 20
425.95688676399061
 30
0.0
 11
417.17843405284754
 21
425.95688676399061
 31
0.0
  0
LINE
  5
C0
100
AcDbEntity
  8
0
  6
Continuous
 62
               4
100
AcDbLine
 10
417.17843405284754
 20
425.95688676399061
 30
0.0
 11
417.17843405284754
 21
454.50988333933321
 31
0.0
  0
LINE
  5
C1
100
AcDbEntity
  8
0
  6
Continuous
 62
               4
100
AcDbLine
 10
447.1783852247226
 20
424.75688676399056
 30
0.0
 11
447.17843405284765
 21
425.95688676399061
 31
0.0
  0
LINE
  5
C2
100
AcDbEntity
  8
0
  6
Continuous
 62
               4
100
AcDbLine
 10
415.97843405284749
 20
424.75688676399056
 30
0.0
 11
415.97843405284749
 21
453.30988333933317
 31
0.0
  0
LINE
  5
C3
100
AcDbEntity
  8
0
  6
Continuous
 62
               4
100
AcDbLine
 10
427.09335271723108
 20
426.38636022289472
 30
0.0
 11
437.09335271723108
 21
426.38636022289472
 31
0.0
  0
LINE
  5
C4
100
AcDbEntity
  8
0
  6
Continuous
 62
               4
100
AcDbLine
 10
429.59335271723108
 20
353.38636022289472
 30
0.0
 11
434.59335271723108
 21
353.38636022289472
 31
0.0
  0
LINE
  5
C5
100
AcDbEntity
  8
0
  6
Continuous
 62
               4
100
AcDbLine
 10
429.59335271723108
 20
423.58636022289477
 30
0.0
 11
434.59335271723108
 21
423.58636022289477
 31
0.0
  0
LINE
  5
C6
100
AcDbEntity
  8
0
  6
Continuous
 62
               4
100
AcDbLine
 10
429.59335271723108
 20
353.38636022289472
 30
0.0
 11
429.59335271723108
 21
423.58636022289477
 31
0.0
  0
LINE
  5
C7
100
AcDbEntity
  8
0
  6
Continuous
 62
               4
100
AcDbLine
 10
434.59335271723108
 20
353.38636022289472
 30
0.0
 11
434.59335271723108
 21
423.58636022289477
 31
0.0
  0
LINE
  5
C8
100
AcDbEntity
  8
0
  6
Continuous
 62
               4
100
AcDbLine
 10
429.59335271723108
 20
423.58636022289477
 30
0.0
 11
427.09335271723108
 21
426.38636022289472
 31
0.0
  0
LINE
  5
C9
100
AcDbEntity
  8
0
  6
Continuous
 62
               4
100
AcDbLine
 10
434.59335271723108
 20
423.58636022289477
 30
0.0
 11
437.09335271723108
 21
426.38636022289472
 31
0.0
  0
LINE
  5
CA
100
AcDbEntity
  8
0
  6
Continuous
 62
               4
100
AcDbLine
 10
429.59335271723108
 20
353.38636022289472
 30
0.0
 11
432.09335271723108
 21
351.38636022289472
 31
0.0
  0
LINE
  5
CB
100
AcDbEntity
  8
0
  6
Continuous
 62
               4
100
AcDbLine
 10
432.09335271723108
 20
351.38636022289472
 30
0.0
 11
434.59335271723108
 21
353.38636022289472
 31
0.0
  0
LINE
  5
CC
100
AcDbEntity
  8
0
  6
Continuous
 62
               4
100
AcDbLine
 10
429.59335271723108
 20
368.71692086331029
 30
0.0
 11
434.59335271723108
 21
369.59855576685266
 31
0.0
  0
LINE
  5
CD
100
AcDbEntity
  8
0
  6
Continuous
 62
               4
100
AcDbLine
 10
429.59335271723108
 20
369.73234747519598
 30
0.0
 11
434.59335271723108
 21
370.61398237873834
 31
0.0
  0
LINE
  5
CE
100
AcDbEntity
  8
0
  6
Continuous
 62
               4
100
AcDbLine
 10
429.59335271723108
 20
370.74777408708189
 30
0.0
 11
434.59335271723108
 21
371.62940899062426
 31
0.0
  0
LINE
  5
CF
100
AcDbEntity
  8
0
  6
Continuous
 62
               4
100
AcDbLine
 10
429.59335271723108
 20
371.76320069896758
 30
0.0
 11
434.59335271723108
 21
372.64483560250994
 31
0.0
  0
LINE
  5
D0
100
AcDbEntity
  8
0
  6
Continuous
 62
               4
100
AcDbLine
 10
429.59335271723108
 20
372.77862731085327
 30
0.0
 11
434.59335271723108
 21
373.66026221439563
 31
0.0
  0
LINE
  5
D1
100
AcDbEntity
  8
0
  6
Continuous
 62
               4
100
AcDbLine
 10
429.59335271723108
 20
373.79405392273895
 30
0.0
 11
434.59335271723108
 21
374.67568882628132
 31
0.0
  0
LINE
  5
D2
100
AcDbEntity
  8
0
  6
Continuous
 62
               4
100
AcDbLine
 10
429.59335271723108
 20
374.80948053462487
 30
0.0
 11
434.59335271723108
 21
375.69111543816723
 31
0.0
  0
LINE
  5
D3
100
AcDbEntity
  8
0
  6
Continuous
 62
               4
100
AcDbLine
 10
429.59335271723108
 20
375.82490714651055
 30
0.0
 11
434.59335271723108
 21
376.70654205005292
 31
0.0
  0
LINE
  5
D4
100
AcDbEntity
  8
0
  6
Continuous
 62
               4
100
AcDbLine
 10
429.59335271723108
 20
376.84033375839624
 30
0.0
 11
434.59335271723108
 21
377.7219686619386
 31
0.0
  0
LINE
  5
D5
100
AcDbEntity
  8
0
  6
Continuous
 62
               4
100
AcDbLine
 10
429.59335271723108
 20
377.85576037028193
 30
0.0
 11
434.59335271723108
 21
378.73739527382429
 31
0.0
  0
LINE
  5
D6
100
AcDbEntity
  8
0
  6
Continuous
 62
               4
100
AcDbLine
 10
429.59335271723108
 20
378.87118698216784
 30
0.0
 11
434.59335271723108
 21
379.7528218857102
 31
0.0
  0
LINE
  5
D7
100
AcDbEntity
  8
0
  6
Continuous
 62
               4
100
AcDbLine
 10
429.59335271723108
 20
379.88661359405353
 30
0.0
 11
434.59335271723108
 21
380.76824849759589
 31
0.0
  0
LINE
  5
D8
100
AcDbEntity
  8
0
  6
Continuous
 62
               4
100
AcDbLine
 10
429.59335271723108
 20
380.90204020593922
 30
0.0
 11
434.59335271723108
 21
381.78367510948158
 31
0.0
  0
LINE
  5
D9
100
AcDbEntity
  8
0
  6
Continuous
 62
               4
100
AcDbLine
 10
429.59335271723108
 20
381.9174668178249
 30
0.0
 11
434.59335271723108
 21
382.79910172136726
 31
0.0
  0
LINE
  5
DA
100
AcDbEntity
  8
0
  6
Continuous
 62
               4
100
AcDbLine
 10
429.59335271723108
 20
382.93289342971082
 30
0.0
 11
434.59335271723108
 21
383.81452833325318
 31
0.0
  0
LINE
  5
DB
100
AcDbEntity
  8
0
  6
Continuous
 62
               4
100
AcDbLine
 10
429.59335271723108
 20
383.9483200415965
 30
0.0
 11
434.59335271723108
 21
384.82995494513887
 31
0.0
  0
LINE
  5
DC
100
AcDbEntity
  8
0
  6
Continuous
 62
               4
100
AcDbLine
 10
429.59335271723108
 20
384.96374665348219
 30
0.0
 11
434.59335271723108
 21
385.84538155702455
 31
0.0
  0
LINE
  5
DD
100
AcDbEntity
  8
0
  6
Continuous
 62
               4
100
AcDbLine
 10
429.59335271723108
 20
385.97917326536788
 30
0.0
 11
434.59335271723108
 21
386.86080816891024
 31
0.0
  0
LINE
  5
DE
100
AcDbEntity
  8
0
  6
Continuous
 62
               4
100
AcDbLine
 10
429.59335271723108
 20
386.99459987725379
 30
0.0
 11
434.59335271723108
 21
387.87623478079615
 31
0.0
  0
LINE
  5
DF
100
AcDbEntity
  8
0
  6
Continuous
 62
               4
100
AcDbLine
 10
429.59335271723108
 20
388.01002648913948
 30
0.0
 11
434.59335271723108
 21
388.89166139268184
 31
0.0
  0
LINE
  5
E0
100
AcDbEntity
  8
0
  6
Continuous
 62
               4
100
AcDbLine
 10
429.59335271723108
 20
389.02545310102516
 30
0.0
 11
434.59335271723108
 21
389.90708800456753
 31
0.0
  0
LINE
  5
E1
100
AcDbEntity
  8
0
  6
Continuous
 62
               4
100
AcDbLine
 10
429.59335271723108
 20
390.04087971291085
 30
0.0
 11
434.59335271723108
 21
390.92251461645321
 31
0.0
  0
LINE
  5
E2
100
AcDbEntity
  8
0
  6
Continuous
 62
               4
100
AcDbLine
 10
429.59335271723108
 20
391.05630632479676
 30
0.0
 11
434.59335271723108
 21
391.93794122833913
 31
0.0
  0
LINE
  5
E3
100
AcDbEntity
  8
0
  6
Continuous
 62
               4
100
AcDbLine
 10
429.59335271723108
 20
392.07173293668245
 30
0.0
 11
434.59335271723108
 21
392.95336784022481
 31
0.0
  0
LINE
  5
E4
100
AcDbEntity
  8
0
  6
Continuous
 62
               4
100
AcDbLine
 10
429.59335271723108
 20
393.08715954856814
 30
0.0
 11
434.59335271723108
 21
393.9687944521105
 31
0.0
  0
LINE
  5
E5
100
AcDbEntity
  8
0
  6
Continuous
 62
               4
100
AcDbLine
 10
429.59335271723108
 20
394.10258616045382
 30
0.0
 11
434.59335271723108
 21
394.98422106399619
 31
0.0
  0
LINE
  5
E6
100
AcDbEntity
  8
0
  6
Continuous
 62
               4
100
AcDbLine
 10
429.59335271723108
 20
395.11801277233974
 30
0.0
 11
434.59335271723108
 21
395.9996476758821
 31
0.0
  0
LINE
  5
E7
100
AcDbEntity
  8
0
  6
Continuous
 62
               4
100
AcDbLine
 10
429.59335271723108
 20
396.13343938422543
 30
0.0
 11
434.59335271723108
 21
397.01507428776779
 31
0.0
  0
LINE
  5
E8
100
AcDbEntity
  8
0
  6
Continuous
 62
               4
100
AcDbLine
 10
429.59335271723108
 20
397.14886599611111
 30
0.0
 11
434.59335271723108
 21
398.03050089965348
 31
0.0
  0
LINE
  5
E9
100
AcDbEntity
  8
0
  6
Continuous
 62
               4
100
AcDbLine
 10
429.59335271723108
 20
398.16429260799703
 30
0.0
 11
434.59335271723108
 21
399.04592751153916
 31
0.0
  0
LINE
  5
EA
100
AcDbEntity
  8
0
  6
Continuous
 62
               4
100
AcDbLine
 10
429.59335271723108
 20
399.17971921988271
 30
0.0
 11
434.59335271723108
 21
400.06135412342508
 31
0.0
  0
LINE
  5
EB
100
AcDbEntity
  8
0
  6
Continuous
 62
               4
100
AcDbLine
 10
429.59335271723108
 20
400.1951458317684
 30
0.0
 11
434.59335271723108
 21
401.07678073531076
 31
0.0
  0
LINE
  5
EC
100
AcDbEntity
  8
0
  6
Continuous
 62
               4
100
AcDbLine
 10
429.59335271723108
 20
401.21057244365409
 30
0.0
 11
434.59335271723108
 21
402.09220734719645
 31
0.0
  0
LINE
  5
ED
100
AcDbEntity
  8
0
  6
Continuous
 62
               4
100
AcDbLine
 10
429.59335271723108
 20
402.22599905554
 30
0.0
 11
434.59335271723108
 21
403.10763395908214
 31
0.0
  0
LINE
  5
EE
100
AcDbEntity
  8
0
  6
Continuous
 62
               4
100
AcDbLine
 10
429.59335271723108
 20
403.24142566742569
 30
0.0
 11
434.59335271723108
 21
404.12306057096805
 31
0.0
  0
LINE
  5
EF
100
AcDbEntity
  8
0
  6
Continuous
 62
               4
100
AcDbLine
 10
429.59335271723108
 20
404.25685227931137
 30
0.0
 11
434.59335271723108
 21
405.13848718285374
 31
0.0
  0
LINE
  5
F0
100
AcDbEntity
  8
0
  6
Continuous
 62
               4
100
AcDbLine
 10
429.59335271723108
 20
405.27227889119706
 30
0.0
 11
434.59335271723108
 21
406.15391379473942
 31
0.0
  0
LINE
  5
F1
100
AcDbEntity
  8
0
  6
Continuous
 62
               4
100
AcDbLine
 10
429.59335271723108
 20
406.28770550308298
 30
0.0
 11
434.59335271723108
 21
407.16934040662511
 31
0.0
  0
LINE
  5
F2
100
AcDbEntity
  8
0
  6
Continuous
 62
               4
100
AcDbLine
 10
429.59335271723108
 20
407.30313211496866
 30
0.0
 11
434.59335271723108
 21
408.18476701851102
 31
0.0
  0
LINE
  5
F3
100
AcDbEntity
  8
0
  6
Continuous
 62
               4
100
AcDbLine
 10
429.59335271723108
 20
408.31855872685435
 30
0.0
 11
434.59335271723108
 21
409.20019363039671
 31
0.0
  0
LINE
  5
F4
100
AcDbEntity
  8
0
  6
Continuous
 62
               4
100
AcDbLine
 10
429.59335271723108
 20
409.33398533874004
 30
0.0
 11
434.59335271723108
 21
410.2156202422824
 31
0.0
  0
LINE
  5
F5
100
AcDbEntity
  8
0
  6
Continuous
 62
               4
100
AcDbLine
 10
429.59335271723108
 20
410.34941195062595
 30
0.0
 11
434.59335271723108
 21
411.23104685416808
 31
0.0
  0
LINE
  5
F6
100
AcDbEntity
  8
0
  6
Continuous
 62
               4
100
AcDbLine
 10
429.59335271723108
 20
411.36483856251164
 30
0.0
 11
434.59335271723108
 21
412.246473466054
 31
0.0
  0
LINE
  5
F7
100
AcDbEntity
  8
0
  6
Continuous
 62
               4
100
AcDbLine
 10
429.59335271723108
 20
412.38026517439732
 30
0.0
 11
434.59335271723108
 21
413.26190007793969
 31
0.0
  0
LINE
  5
F8
100
AcDbEntity
  8
0
  6
Continuous
 62
               4
100
AcDbLine
 10
429.59335271723108
 20
413.39569178628301
 30
0.0
 11
434.59335271723108
 21
414.27732668982537
 31
0.0
  0
LINE
  5
F9
100
AcDbEntity
  8
0
  6
Continuous
 62
               4
100
AcDbLine
 10
429.59335271723108
 20
414.41111839816892
 30
0.0
 11
434.59335271723108
 21
415.29275330171106
 31
0.0
  0
LINE
  5
FA
100
AcDbEntity
  8
0
  6
Continuous
 62
               4
100
AcDbLine
 10
429.59335271723108
 20
415.42654501005461
 30
0.0
 11
434.59335271723108
 21
416.30817991359697
 31
0.0
  0
LINE
  5
FB
100
AcDbEntity
  8
0
  6
Continuous
 62
               4
100
AcDbLine
 10
429.59335271723108
 20
416.4419716219403
 30
0.0
 11
434.59335271723108
 21
417.32360652548266
 31
0.0
  0
LINE
  5
FC
100
AcDbEntity
  8
0
  6
Continuous
 62
               4
100
AcDbLine
 10
429.59335271723108
 20
417.45739823382598
 30
0.0
 11
434.59335271723108
 21
418.33903313736835
 31
0.0
  0
LINE
  5
FD
100
AcDbEntity
  8
0
  6
Continuous
 62
               4
100
AcDbLine
 10
432.09335271723108
 20
418.91364229748308
 30
0.0
 11
434.59335271723108
 21
419.35445974925403
 31
0.0
  0
LINE
  5
FE
100
AcDbEntity
  8
0
  6
Continuous
 62
               4
100
AcDbLine
 10
429.59335271723108
 20
367.70149425142461
 30
0.0
 11
434.59335271723108
 21
368.58312915496697
 31
0.0
  0
LINE
  5
FF
100
AcDbEntity
  8
0
  6
Continuous
 62
               4
100
AcDbLine
 10
429.59335271723108
 20
366.68606763953892
 30
0.0
 11
434.59335271723108
 21
367.56770254308128
 31
0.0
  0
LINE
  5
100
100
AcDbEntity
  8
0
  6
Continuous
 62
               4
100
AcDbLine
 10
429.59335271723108
 20
365.67064102765301
 30
0.0
 11
434.59335271723108
 21
366.55227593119537
 31
0.0
  0
LINE
  5
101
100
AcDbEntity
  8
0
  6
Continuous
 62
               4
100
AcDbLine
 10
429.59335271723108
 20
364.65521441576732
 30
0.0
 11
434.59335271723108
 21
365.53684931930968
 31
0.0
  0
LINE
  5
102
100
AcDbEntity
  8
0
  6
Continuous
 62
               4
100
AcDbLine
 10
429.59335271723108
 20
363.63978780388163
 30
0.0
 11
434.59335271723108
 21
364.52142270742399
 31
0.0
  0
LINE
  5
103
100
AcDbEntity
  8
0
  6
Continuous
 62
               4
100
AcDbLine
 10
429.59335271723108
 20
362.62436119199594
 30
0.0
 11
434.59335271723108
 21
363.50599609553831
 31
0.0
  0
LINE
  5
104
100
AcDbEntity
  8
0
  6
Continuous
 62
               4
100
AcDbLine
 10
429.59335271723108
 20
361.60893458011003
 30
0.0
 11
434.59335271723108
 21
362.49056948365239
 31
0.0
  0
LINE
  5
105
100
AcDbEntity
  8
0
  6
Continuous
 62
               4
100
AcDbLine
 10
429.59335271723108
 20
360.59350796822434
 30
0.0
 11
434.59335271723108
 21
361.47514287176671
 31
0.0
  0
LINE
  5
106
100
AcDbEntity
  8
0
  6
Continuous
 62
               4
100
AcDbLine
 10
429.59335271723108
 20
359.57808135633866
 30
0.0
 11
434.59335271723108
 21
360.45971625988102
 31
0.0
  0
LINE
  5
107
100
AcDbEntity
  8
0
  6
Continuous
 62
               4
100
AcDbLine
 10
429.59335271723108
 20
358.56265474445297
 30
0.0
 11
434.59335271723108
 21
359.44428964799533
 31
0.0
  0
LINE
  5
108
100
AcDbEntity
  8
0
  6
Continuous
 62
               4
100
AcDbLine
 10
429.59335271723108
 20
357.54722813256706
 30
0.0
 11
434.59335271723108
 21
358.42886303610942
 31
0.0
  0
LINE
  5
109
100
AcDbEntity
  8
0
  6
Continuous
 62
               4
100
AcDbLine
 10
429.59335271723108
 20
356.53180152068137
 30
0.0
 11
434.59335271723108
 21
357.41343642422373
 31
0.0
  0
LINE
  5
10A
100
AcDbEntity
  8
0
  6
Continuous
 62
               4
100
AcDbLine
 10
432.09335271723108
 20
355.95719236056686
 30
0.0
 11
434.59335271723108
 21
356.39800981233805
 31
0.0
  0
LINE
  5
10B
100
AcDbEntity
  8
0
  6
Continuous
 62
               6
100
AcDbLine
 10
359.29786750502757
 20
132.94875172302125
 30
0.0
 11
455.29786750500199
 21
132.94868071537201
 31
0.0
  0
LINE
  5
10C
100
AcDbEntity
  8
0
  6
Continuous
 62
               6
100
AcDbLine
 10
357.29790300885264
 20
180.94875320233416
 30
0.0
 11
357.29786898435401
 21
134.94875320234655
 31
0.0
  0
LINE
  5
10D
100
AcDbEntity
  8
0
  6
Continuous
 62
               6
100
AcDbLine
 10
457.29790300882604
 20
180.94867923603294
 30
0.0
 11
457.29786898432741
 21
134.94867923604545
 31
0.0
  0
LINE
  5
10E
100
AcDbEntity
  8
0
  6
Continuous
 62
               7
100
AcDbLine
 10
357.29790448817863
 20
182.94875320233371
 30
0.0
 11
455.2979044881526
 21
182.94868071535836
 31
0.0
  0
LINE
  5
10F
100
AcDbEntity
  8
0
  6
Continuous
 62
               6
100
AcDbLine
 10
377.29790278694833
 20
180.64873840907387
 30
0.0
 11
359.59790278695317
 21
180.64875150110936
 31
0.0
  0
LINE
  5
110
100
AcDbEntity
  8
0
  6
Continuous
 62
               6
100
AcDbLine
 10
359.59790278695317
 20
180.64875150110936
 30
0.0
 11
359.59786920625248
 21
135.24875150112155
 31
0.0
  0
LINE
  5
111
100
AcDbEntity
  8
0
  6
Continuous
 62
               6
100
AcDbLine
 10
359.59786920625248
 20
135.24875150112155
 30
0.0
 11
454.99786920622699
 21
135.24868093727025
 31
0.0
  0
LINE
  5
112
100
AcDbEntity
  8
0
  6
Continuous
 62
               6
100
AcDbLine
 10
454.99786920622699
 20
135.24868093727025
 30
0.0
 11
454.99790278692768
 21
180.64868093725806
 31
0.0
  0
LINE
  5
113
100
AcDbEntity
  8
0
  6
Continuous
 62
               6
100
AcDbLine
 10
454.99790278692768
 20
180.64868093725806
 30
0.0
 11
437.29790278693253
 21
180.64869402929332
 31
0.0
  0
LINE
  5
114
100
AcDbEntity
  8
0
  6
Continuous
 62
               6
100
AcDbLine
 10
377.29790278694833
 20
180.64873840907387
 30
0.0
 11
377.29790448817317
 21
182.94873840907337
 31
0.0
  0
LINE
  5
115
100
AcDbEntity
  8
0
  6
Continuous
 62
               6
100
AcDbLine
 10
437.29790278693253
 20
180.64869402929332
 30
0.0
 11
437.29790448815737
 21
182.94869402929282
 31
0.0
  0
LINE
  5
116
100
AcDbEntity
  8
0
  6
Continuous
 62
               7
100
AcDbLine
 10
463.29790300882445
 20
180.94867479805509
 30
0.0
 11
463.29786898432582
 21
134.94867479806737
 31
0.0
  0
LINE
  5
117
100
AcDbEntity
  8
0
  6
Continuous
 62
               7
100
AcDbLine
 10
455.29790892613056
 20
188.94868071535677
 30
0.0
 11
357.29786898435401
 21
188.94875320236144
 31
0.0
  0
LINE
  5
118
100
AcDbEntity
  8
0
  6
Continuous
 62
               7
100
AcDbLine
 10
440.29786750500585
 20
132.9486918103172
 30
0.0
 11
440.29786306702789
 21
126.94869181031879
 31
0.0
  0
LINE
  5
119
100
AcDbEntity
  8
0
  6
Continuous
 62
               7
100
AcDbLine
 10
440.29786306702789
 20
126.94869181031879
 30
0.0
 11
455.29786306702391
 21
126.94868071537371
 31
0.0
  0
LINE
  5
11A
100
AcDbEntity
  8
0
  6
Continuous
 62
               7
100
AcDbLine
 10
317.76233816243592
 20
188.94865666586213
 30
0.0
 11
320.0976315541231
 21
188.94868574251188
 31
0.0
  0
LINE
  5
11B
100
AcDbEntity
  8
0
  6
Continuous
 62
               7
100
AcDbLine
 10
317.76233816243592
 20
182.94865666577778
 30
0.0
 11
320.09770625977609
 21
182.94868574297686
 31
0.0
  0
LINE
  5
11C
100
AcDbEntity
  8
0
  6
Continuous
 62
               7
100
AcDbLine
 10
326.09774361213766
 20
179.94876044886234
 30
0.0
 11
326.09759420083157
 21
191.94876044793239
 31
0.0
  0
LINE
  5
11D
100
AcDbEntity
  8
0
  6
Continuous
 62
               7
100
AcDbLine
 10
320.09772493618942
 20
181.44868574309305
 30
0.0
 11
320.09761287770988
 21
190.44868574239547
 31
0.0
  0
LINE
  5
11E
100
AcDbEntity
  8
0
  6
Continuous
 62
               7
100
AcDbLine
 10
320.62424421304235
 20
179.94869229863787
 30
0.0
 11
326.09774361213766
 21
179.94876044886234
 31
0.0
  0
LINE
  5
11F
100
AcDbEntity
  8
0
  6
Continuous
 62
               7
100
AcDbLine
 10
320.62409480173625
 20
191.94869229770768
 30
0.0
 11
326.09759420083157
 21
191.94876044793239
 31
0.0
  0
LINE
  5
120
100
AcDbEntity
  8
0
  6
Continuous
 62
               7
100
AcDbLine
 10
320.62424421304235
 20
179.94869229863787
 30
0.0
 11
320.09772493618942
 21
181.44868574309305
 31
0.0
  0
LINE
  5
121
100
AcDbEntity
  8
0
  6
Continuous
 62
               7
100
AcDbLine
 10
320.09761287770988
 20
190.44868574239547
 30
0.0
 11
320.62409480173625
 21
191.94869229770768
 31
0.0
  0
LINE
  5
122
100
AcDbEntity
  8
0
  6
Continuous
 62
               7
100
AcDbLine
 10
320.61366171564515
 20
188.94869216757354
 30
0.0
 11
326.09771069728919
 21
188.94876041001783
 31
0.0
  0
LINE
  5
123
100
AcDbEntity
  8
0
  6
Continuous
 62
               7
100
AcDbLine
 10
320.61242488549777
 20
182.94869215170877
 30
0.0
 11
326.09770625931111
 21
182.94876044862997
 31
0.0
  0
LINE
  5
124
100
AcDbEntity
  8
0
  6
Continuous
 62
               7
100
AcDbLine
 10
326.09771957324523
 20
200.94876044862497
 30
0.0
 11
326.09769738335496
 21
170.94876044863315
 31
0.0
  0
LINE
  5
125
100
AcDbEntity
  8
0
  6
Continuous
 62
               7
100
AcDbLine
 10
326.09770907555725
 20
170.948742648745
 30
0.0
 11
327.29769738335466
 21
170.94875956103772
 31
0.0
  0
LINE
  5
126
100
AcDbEntity
  8
0
  6
Continuous
 62
               7
100
AcDbLine
 10
326.09771957324523
 20
200.94876044862497
 30
0.0
 11
327.29771957324505
 21
200.94875956102931
 31
0.0
  0
LINE
  5
127
100
AcDbEntity
  8
0
  6
Continuous
 62
               7
100
AcDbLine
 10
347.29786898435401
 20
270.20988333933281
 30
0.0
 11
347.29786898435401
 21
76.209883339332777
 31
0.0
  0
LINE
  5
128
100
AcDbEntity
  8
0
  6
Continuous
 62
               4
100
AcDbLine
 10
419.17843405284754
 20
430.00988333933299
 30
0.0
 11
419.17843405284754
 21
455.00988333933321
 31
0.0
  0
LINE
  5
129
100
AcDbEntity
  8
0
  6
Continuous
 62
               4
100
AcDbLine
 10
419.17843405284754
 20
455.00988333933321
 30
0.0
 11
510.4784340528476
 21
455.00988333933321
 31
0.0
  0
LINE
  5
12A
100
AcDbEntity
  8
0
  6
Continuous
 62
               4
100
AcDbLine
 10
294.14600682681947
 20
381.08284994892199
 30
0.0
 11
294.14600682681947
 21
391.08284994892199
 31
0.0
  0
LINE
  5
12B
100
AcDbEntity
  8
0
  6
Continuous
 62
               4
100
AcDbLine
 10
327.14600682681947
 20
383.58284994892199
 30
0.0
 11
327.14600682681947
 21
388.58284994892199
 31
0.0
  0
LINE
  5
12C
100
AcDbEntity
  8
0
  6
Continuous
 62
               4
100
AcDbLine
 10
296.94600682681954
 20
383.58284994892199
 30
0.0
 11
296.94600682681954
 21
388.58284994892199
 31
0.0
  0
LINE
  5
12D
100
AcDbEntity
  8
0
  6
Continuous
 62
               4
100
AcDbLine
 10
327.14600682681947
 20
383.58284994892199
 30
0.0
 11
296.94600682681954
 21
383.58284994892199
 31
0.0
  0
LINE
  5
12E
100
AcDbEntity
  8
0
  6
Continuous
 62
               4
100
AcDbLine
 10
327.14600682681947
 20
388.58284994892199
 30
0.0
 11
296.94600682681954
 21
388.58284994892199
 31
0.0
  0
LINE
  5
12F
100
AcDbEntity
  8
0
  6
Continuous
 62
               4
100
AcDbLine
 10
296.94600682681954
 20
383.58284994892199
 30
0.0
 11
294.14600682681947
 21
381.08284994892199
 31
0.0
  0
LINE
  5
130
100
AcDbEntity
  8
0
  6
Continuous
 62
               4
100
AcDbLine
 10
296.94600682681954
 20
388.58284994892199
 30
0.0
 11
294.14600682681947
 21
391.08284994892199
 31
0.0
  0
LINE
  5
131
100
AcDbEntity
  8
0
  6
Continuous
 62
               4
100
AcDbLine
 10
327.14600682681947
 20
383.58284994892199
 30
0.0
 11
329.14600682681947
 21
386.08284994892199
 31
0.0
  0
LINE
  5
132
100
AcDbEntity
  8
0
  6
Continuous
 62
               4
100
AcDbLine
 10
329.14600682681947
 20
386.08284994892199
 30
0.0
 11
327.14600682681947
 21
388.58284994892199
 31
0.0
  0
LINE
  5
133
100
AcDbEntity
  8
0
  6
Continuous
 62
               4
100
AcDbLine
 10
325.78141942561018
 20
388.58284994892199
 30
0.0
 11
326.66305432915243
 21
383.58284994892199
 31
0.0
  0
LINE
  5
134
100
AcDbEntity
  8
0
  6
Continuous
 62
               4
100
AcDbLine
 10
324.76599281372438
 20
388.58284994892199
 30
0.0
 11
325.64762771726674
 21
383.58284994892199
 31
0.0
  0
LINE
  5
135
100
AcDbEntity
  8
0
  6
Continuous
 62
               4
100
AcDbLine
 10
323.75056620183869
 20
388.58284994892199
 30
0.0
 11
324.63220110538094
 21
383.58284994892199
 31
0.0
  0
LINE
  5
136
100
AcDbEntity
  8
0
  6
Continuous
 62
               4
100
AcDbLine
 10
322.73513958995289
 20
388.58284994892199
 30
0.0
 11
323.61677449349526
 21
383.58284994892199
 31
0.0
  0
LINE
  5
137
100
AcDbEntity
  8
0
  6
Continuous
 62
               4
100
AcDbLine
 10
321.71971297806721
 20
388.58284994892199
 30
0.0
 11
322.60134788160946
 21
383.58284994892199
 31
0.0
  0
LINE
  5
138
100
AcDbEntity
  8
0
  6
Continuous
 62
               4
100
AcDbLine
 10
320.70428636618141
 20
388.58284994892199
 30
0.0
 11
321.58592126972377
 21
383.58284994892199
 31
0.0
  0
LINE
  5
139
100
AcDbEntity
  8
0
  6
Continuous
 62
               4
100
AcDbLine
 10
319.68885975429572
 20
388.58284994892199
 30
0.0
 11
320.57049465783797
 21
383.58284994892199
 31
0.0
  0
LINE
  5
13A
100
AcDbEntity
  8
0
  6
Continuous
 62
               4
100
AcDbLine
 10
318.67343314240992
 20
388.58284994892199
 30
0.0
 11
319.55506804595228
 21
383.58284994892199
 31
0.0
  0
LINE
  5
13B
100
AcDbEntity
  8
0
  6
Continuous
 62
               4
100
AcDbLine
 10
317.65800653052423
 20
388.58284994892199
 30
0.0
 11
318.53964143406648
 21
383.58284994892199
 31
0.0
  0
LINE
  5
13C
100
AcDbEntity
  8
0
  6
Continuous
 62
               4
100
AcDbLine
 10
316.64257991863843
 20
388.58284994892199
 30
0.0
 11
317.5242148221808
 21
383.58284994892199
 31
0.0
  0
LINE
  5
13D
100
AcDbEntity
  8
0
  6
Continuous
 62
               4
100
AcDbLine
 10
315.62715330675275
 20
388.58284994892199
 30
0.0
 11
316.50878821029499
 21
383.58284994892199
 31
0.0
  0
LINE
  5
13E
100
AcDbEntity
  8
0
  6
Continuous
 62
               4
100
AcDbLine
 10
314.61172669486695
 20
388.58284994892199
 30
0.0
 11
315.49336159840931
 21
383.58284994892199
 31
0.0
  0
LINE
  5
13F
100
AcDbEntity
  8
0
  6
Continuous
 62
               4
100
AcDbLine
 10
313.59630008298126
 20
388.58284994892199
 30
0.0
 11
314.47793498652351
 21
383.58284994892199
 31
0.0
  0
LINE
  5
140
100
AcDbEntity
  8
0
  6
Continuous
 62
               4
100
AcDbLine
 10
312.58087347109546
 20
388.58284994892199
 30
0.0
 11
313.46250837463782
 21
383.58284994892199
 31
0.0
  0
LINE
  5
141
100
AcDbEntity
  8
0
  6
Continuous
 62
               4
100
AcDbLine
 10
311.56544685920977
 20
388.58284994892199
 30
0.0
 11
312.44708176275202
 21
383.58284994892199
 31
0.0
  0
LINE
  5
142
100
AcDbEntity
  8
0
  6
Continuous
 62
               4
100
AcDbLine
 10
310.55002024732397
 20
388.58284994892199
 30
0.0
 11
311.43165515086633
 21
383.58284994892199
 31
0.0
  0
LINE
  5
143
100
AcDbEntity
  8
0
  6
Continuous
 62
               4
100
AcDbLine
 10
309.53459363543828
 20
388.58284994892199
 30
0.0
 11
310.41622853898053
 21
383.58284994892199
 31
0.0
  0
LINE
  5
144
100
AcDbEntity
  8
0
  6
Continuous
 62
               4
100
AcDbLine
 10
308.51916702355248
 20
388.58284994892199
 30
0.0
 11
309.40080192709485
 21
383.58284994892199
 31
0.0
  0
LINE
  5
145
100
AcDbEntity
  8
0
  6
Continuous
 62
               4
100
AcDbLine
 10
307.5037404116668
 20
388.58284994892199
 30
0.0
 11
308.38537531520905
 21
383.58284994892199
 31
0.0
  0
LINE
  5
146
100
AcDbEntity
  8
0
  6
Continuous
 62
               4
100
AcDbLine
 10
306.488313799781
 20
388.58284994892199
 30
0.0
 11
307.36994870332336
 21
383.58284994892199
 31
0.0
  0
LINE
  5
147
100
AcDbEntity
  8
0
  6
Continuous
 62
               4
100
AcDbLine
 10
305.47288718789531
 20
388.58284994892199
 30
0.0
 11
306.35452209143756
 21
383.58284994892199
 31
0.0
  0
LINE
  5
148
100
AcDbEntity
  8
0
  6
Continuous
 62
               4
100
AcDbLine
 10
304.45746057600951
 20
388.58284994892199
 30
0.0
 11
305.33909547955187
 21
383.58284994892199
 31
0.0
  0
LINE
  5
149
100
AcDbEntity
  8
0
  6
Continuous
 62
               4
100
AcDbLine
 10
303.44203396412382
 20
388.58284994892199
 30
0.0
 11
304.32366886766607
 21
383.58284994892199
 31
0.0
  0
LINE
  5
14A
100
AcDbEntity
  8
0
  6
Continuous
 62
               4
100
AcDbLine
 10
302.42660735223802
 20
388.58284994892199
 30
0.0
 11
303.30824225578039
 21
383.58284994892199
 31
0.0
  0
LINE
  5
14B
100
AcDbEntity
  8
0
  6
Continuous
 62
               4
100
AcDbLine
 10
301.41118074035234
 20
388.58284994892199
 30
0.0
 11
302.29281564389458
 21
383.58284994892199
 31
0.0
  0
LINE
  5
14C
100
AcDbEntity
  8
0
  6
Continuous
 62
               4
100
AcDbLine
 10
300.39575412846654
 20
388.58284994892199
 30
0.0
 11
300.94930023155445
 21
385.4435339981593
 31
0.0
  0
LINE
  5
14D
100
AcDbEntity
  8
0
  6
Continuous
 62
               7
100
AcDbLine
 10
317.76233816243592
 20
188.94865666586213
 30
0.0
 11
317.76233816243592
 21
182.94865666577778
 31
0.0
  0
LINE
  5
14E
100
AcDbEntity
  8
0
  6
Continuous
 62
               4
100
AcDbLine
 10
324.29786898435401
 20
161.07610765440143
 30
0.0
 11
292.47843405284704
 21
161.07610765440143
 31
0.0
  0
LINE
  5
14F
100
AcDbEntity
  8
0
  6
Continuous
 62
               4
100
AcDbLine
 10
324.29786898435401
 20
161.07610765440143
 30
0.0
 11
324.29786898435401
 21
131.07610765440143
 31
0.0
  0
LINE
  5
150
100
AcDbEntity
  8
0
  6
Continuous
 62
               4
100
AcDbLine
 10
325.79786898435401
 20
131.07610765440143
 30
0.0
 11
327.29786898435401
 21
144.07610765440143
 31
0.0
  0
LINE
  5
151
100
AcDbEntity
  8
0
  6
Continuous
 62
               4
100
AcDbLine
 10
323.99221829942229
 20
142.02709224344255
 30
0.0
 11
323.99221829942229
 21
152.02709224344255
 31
0.0
  0
LINE
  5
152
100
AcDbEntity
  8
0
  6
Continuous
 62
               4
100
AcDbLine
 10
366.9922182994224
 20
144.52709224344255
 30
0.0
 11
366.9922182994224
 21
149.52709224344255
 31
0.0
  0
LINE
  5
153
100
AcDbEntity
  8
0
  6
Continuous
 62
               4
100
AcDbLine
 10
326.79221829942225
 20
144.52709224344255
 30
0.0
 11
326.79221829942225
 21
149.52709224344255
 31
0.0
  0
LINE
  5
154
100
AcDbEntity
  8
0
  6
Continuous
 62
               4
100
AcDbLine
 10
366.9922182994224
 20
144.52709224344255
 30
0.0
 11
326.79221829942225
 21
144.52709224344255
 31
0.0
  0
LINE
  5
155
100
AcDbEntity
  8
0
  6
Continuous
 62
               4
100
AcDbLine
 10
366.9922182994224
 20
149.52709224344255
 30
0.0
 11
326.79221829942225
 21
149.52709224344255
 31
0.0
  0
LINE
  5
156
100
AcDbEntity
  8
0
  6
Continuous
 62
               4
100
AcDbLine
 10
326.79221829942225
 20
144.52709224344255
 30
0.0
 11
323.99221829942229
 21
142.02709224344255
 31
0.0
  0
LINE
  5
157
100
AcDbEntity
  8
0
  6
Continuous
 62
               4
100
AcDbLine
 10
326.79221829942225
 20
149.52709224344255
 30
0.0
 11
323.99221829942229
 21
152.02709224344255
 31
0.0
  0
LINE
  5
158
100
AcDbEntity
  8
0
  6
Continuous
 62
               4
100
AcDbLine
 10
366.9922182994224
 20
144.52709224344255
 30
0.0
 11
368.9922182994224
 21
147.02709224344255
 31
0.0
  0
LINE
  5
159
100
AcDbEntity
  8
0
  6
Continuous
 62
               4
100
AcDbLine
 10
368.9922182994224
 20
147.02709224344255
 30
0.0
 11
366.9922182994224
 21
149.52709224344255
 31
0.0
  0
LINE
  5
15A
100
AcDbEntity
  8
0
  6
Continuous
 62
               4
100
AcDbLine
 10
365.627630898213
 20
149.52709224344255
 30
0.0
 11
366.50926580175536
 21
144.52709224344255
 31
0.0
  0
LINE
  5
15B
100
AcDbEntity
  8
0
  6
Continuous
 62
               4
100
AcDbLine
 10
364.6122042863272
 20
149.52709224344255
 30
0.0
 11
365.49383918986956
 21
144.52709224344255
 31
0.0
  0
LINE
  5
15C
100
AcDbEntity
  8
0
  6
Continuous
 62
               4
100
AcDbLine
 10
363.59677767444151
 20
149.52709224344255
 30
0.0
 11
364.47841257798387
 21
144.52709224344255
 31
0.0
  0
LINE
  5
15D
100
AcDbEntity
  8
0
  6
Continuous
 62
               4
100
AcDbLine
 10
362.58135106255571
 20
149.52709224344255
 30
0.0
 11
363.46298596609807
 21
144.52709224344255
 31
0.0
  0
LINE
  5
15E
100
AcDbEntity
  8
0
  6
Continuous
 62
               4
100
AcDbLine
 10
361.56592445067002
 20
149.52709224344255
 30
0.0
 11
362.44755935421239
 21
144.52709224344255
 31
0.0
  0
LINE
  5
15F
100
AcDbEntity
  8
0
  6
Continuous
 62
               4
100
AcDbLine
 10
360.55049783878422
 20
149.52709224344255
 30
0.0
 11
361.43213274232659
 21
144.52709224344255
 31
0.0
  0
LINE
  5
160
100
AcDbEntity
  8
0
  6
Continuous
 62
               4
100
AcDbLine
 10
359.53507122689854
 20
149.52709224344255
 30
0.0
 11
360.4167061304409
 21
144.52709224344255
 31
0.0
  0
LINE
  5
161
100
AcDbEntity
  8
0
  6
Continuous
 62
               4
100
AcDbLine
 10
358.51964461501274
 20
149.52709224344255
 30
0.0
 11
359.4012795185551
 21
144.52709224344255
 31
0.0
  0
LINE
  5
162
100
AcDbEntity
  8
0
  6
Continuous
 62
               4
100
AcDbLine
 10
357.50421800312694
 20
149.52709224344255
 30
0.0
 11
358.3858529066693
 21
144.52709224344255
 31
0.0
  0
LINE
  5
163
100
AcDbEntity
  8
0
  6
Continuous
 62
               4
100
AcDbLine
 10
356.48879139124125
 20
149.52709224344255
 30
0.0
 11
357.3704262947835
 21
144.52709224344255
 31
0.0
  0
LINE
  5
164
100
AcDbEntity
  8
0
  6
Continuous
 62
               4
100
AcDbLine
 10
355.47336477935545
 20
149.52709224344255
 30
0.0
 11
356.35499968289781
 21
144.52709224344255
 31
0.0
  0
LINE
  5
165
100
AcDbEntity
  8
0
  6
Continuous
 62
               4
100
AcDbLine
 10
354.45793816746976
 20
149.52709224344255
 30
0.0
 11
355.33957307101201
 21
144.52709224344255
 31
0.0
  0
LINE
  5
166
100
AcDbEntity
  8
0
  6
Continuous
 62
               4
100
AcDbLine
 10
353.44251155558396
 20
149.52709224344255
 30
0.0
 11
354.32414645912633
 21
144.52709224344255
 31
0.0
  0
LINE
  5
167
100
AcDbEntity
  8
0
  6
Continuous
 62
               4
100
AcDbLine
 10
352.42708494369828
 20
149.52709224344255
 30
0.0
 11
353.30871984724052
 21
144.52709224344255
 31
0.0
  0
LINE
  5
168
100
AcDbEntity
  8
0
  6
Continuous
 62
               4
100
AcDbLine
 10
351.41165833181248
 20
149.52709224344255
 30
0.0
 11
352.29329323535484
 21
144.52709224344255
 31
0.0
  0
LINE
  5
169
100
AcDbEntity
  8
0
  6
Continuous
 62
               4
100
AcDbLine
 10
350.39623171992679
 20
149.52709224344255
 30
0.0
 11
351.27786662346904
 21
144.52709224344255
 31
0.0
  0
LINE
  5
16A
100
AcDbEntity
  8
0
  6
Continuous
 62
               4
100
AcDbLine
 10
349.38080510804099
 20
149.52709224344255
 30
0.0
 11
350.26244001158335
 21
144.52709224344255
 31
0.0
  0
LINE
  5
16B
100
AcDbEntity
  8
0
  6
Continuous
 62
               4
100
AcDbLine
 10
348.3653784961553
 20
149.52709224344255
 30
0.0
 11
349.24701339969755
 21
144.52709224344255
 31
0.0
  0
LINE
  5
16C
100
AcDbEntity
  8
0
  6
Continuous
 62
               4
100
AcDbLine
 10
347.3499518842695
 20
149.52709224344255
 30
0.0
 11
348.23158678781186
 21
144.52709224344255
 31
0.0
  0
LINE
  5
16D
100
AcDbEntity
  8
0
  6
Continuous
 62
               4
100
AcDbLine
 10
346.33452527238381
 20
149.52709224344255
 30
0.0
 11
347.21616017592606
 21
144.52709224344255
 31
0.0
  0
LINE
  5
16E
100
AcDbEntity
  8
0
  6
Continuous
 62
               4
100
AcDbLine
 10
345.31909866049801
 20
149.52709224344255
 30
0.0
 11
346.20073356404038
 21
144.52709224344255
 31
0.0
  0
LINE
  5
16F
100
AcDbEntity
  8
0
  6
Continuous
 62
               4
100
AcDbLine
 10
344.30367204861233
 20
149.52709224344255
 30
0.0
 11
345.18530695215458
 21
144.52709224344255
 31
0.0
  0
LINE
  5
170
100
AcDbEntity
  8
0
  6
Continuous
 62
               4
100
AcDbLine
 10
343.28824543672653
 20
149.52709224344255
 30
0.0
 11
344.16988034026889
 21
144.52709224344255
 31
0.0
  0
LINE
  5
171
100
AcDbEntity
  8
0
  6
Continuous
 62
               4
100
AcDbLine
 10
342.27281882484084
 20
149.52709224344255
 30
0.0
 11
343.15445372838309
 21
144.52709224344255
 31
0.0
  0
LINE
  5
172
100
AcDbEntity
  8
0
  6
Continuous
 62
               4
100
AcDbLine
 10
341.25739221295504
 20
149.52709224344255
 30
0.0
 11
342.1390271164974
 21
144.52709224344255
 31
0.0
  0
LINE
  5
173
100
AcDbEntity
  8
0
  6
Continuous
 62
               4
100
AcDbLine
 10
340.24196560106935
 20
149.52709224344255
 30
0.0
 11
341.1236005046116
 21
144.52709224344255
 31
0.0
  0
LINE
  5
174
100
AcDbEntity
  8
0
  6
Continuous
 62
               4
100
AcDbLine
 10
339.22653898918355
 20
149.52709224344255
 30
0.0
 11
340.10817389272592
 21
144.52709224344255
 31
0.0
  0
LINE
  5
175
100
AcDbEntity
  8
0
  6
Continuous
 62
               4
100
AcDbLine
 10
338.21111237729787
 20
149.52709224344255
 30
0.0
 11
339.09274728084011
 21
144.52709224344255
 31
0.0
  0
LINE
  5
176
100
AcDbEntity
  8
0
  6
Continuous
 62
               4
100
AcDbLine
 10
337.19568576541207
 20
149.52709224344255
 30
0.0
 11
338.07732066895443
 21
144.52709224344255
 31
0.0
  0
LINE
  5
177
100
AcDbEntity
  8
0
  6
Continuous
 62
               4
100
AcDbLine
 10
336.18025915352638
 20
149.52709224344255
 30
0.0
 11
337.06189405706863
 21
144.52709224344255
 31
0.0
  0
LINE
  5
178
100
AcDbEntity
  8
0
  6
Continuous
 62
               4
100
AcDbLine
 10
335.16483254164058
 20
149.52709224344255
 30
0.0
 11
336.04646744518294
 21
144.52709224344255
 31
0.0
  0
LINE
  5
179
100
AcDbEntity
  8
0
  6
Continuous
 62
               4
100
AcDbLine
 10
334.14940592975489
 20
149.52709224344255
 30
0.0
 11
335.03104083329714
 21
144.52709224344255
 31
0.0
  0
LINE
  5
17A
100
AcDbEntity
  8
0
  6
Continuous
 62
               4
100
AcDbLine
 10
333.13397931786909
 20
149.52709224344255
 30
0.0
 11
334.01561422141145
 21
144.52709224344255
 31
0.0
  0
LINE
  5
17B
100
AcDbEntity
  8
0
  6
Continuous
 62
               4
100
AcDbLine
 10
332.1185527059834
 20
149.52709224344255
 30
0.0
 11
333.00018760952565
 21
144.52709224344255
 31
0.0
  0
LINE
  5
17C
100
AcDbEntity
  8
0
  6
Continuous
 62
               4
100
AcDbLine
 10
331.1031260940976
 20
149.52709224344255
 30
0.0
 11
331.98476099763997
 21
144.52709224344255
 31
0.0
  0
LINE
  5
17D
100
AcDbEntity
  8
0
  6
Continuous
 62
               4
100
AcDbLine
 10
330.08769948221192
 20
149.52709224344255
 30
0.0
 11
330.55635458646094
 21
146.86921707104409
 31
0.0
  0
LINE
  5
17E
100
AcDbEntity
  8
0
  6
Continuous
 62
               4
100
AcDbLine
 10
512.47843405284766
 20
430.50988333933299
 30
0.0
 11
537.47843405284766
 21
430.50988333933299
 31
0.0
  0
LINE
  5
17F
100
AcDbEntity
  8
0
  6
Continuous
 62
               4
100
AcDbLine
 10
539.61938868570564
 20
430.00988333933299
 30
0.0
 11
642.47843405284743
 21
430.00988333933299
 31
0.0
  0
LINE
  5
180
100
AcDbEntity
  8
0
  6
Continuous
 62
               4
100
AcDbLine
 10
537.47843405284766
 20
431.50988333933299
 30
0.0
 11
539.61938868570564
 21
430.00988333933299
 31
0.0
  0
LINE
  5
181
100
AcDbEntity
  8
0
  6
Continuous
 62
               4
100
AcDbLine
 10
514.47843405284766
 20
431.50988333933299
 30
0.0
 11
537.47843405284743
 21
431.50988333933299
 31
0.0
  0
LINE
  5
182
100
AcDbEntity
  8
0
  6
Continuous
 62
               4
100
AcDbLine
 10
514.4784302559724
 20
431.50988333933299
 30
0.0
 11
514.47851948253742
 21
455.00988333933299
 31
0.0
  0
LINE
  5
183
100
AcDbEntity
  8
0
  6
Continuous
 62
               4
100
AcDbLine
 10
510.4784340528476
 20
430.00988333933299
 30
0.0
 11
510.4784340528476
 21
455.00988333933321
 31
0.0
  0
LINE
  5
184
100
AcDbEntity
  8
0
  6
Continuous
 62
               4
100
AcDbLine
 10
510.4784340528476
 20
430.00988333933299
 30
0.0
 11
419.17843405284765
 21
430.00988333933299
 31
0.0
  0
LINE
  5
185
100
AcDbEntity
  8
0
  6
Continuous
 62
               2
100
AcDbLine
 10
539.97843405284766
 20
458.00988333933321
 30
0.0
 11
524.97843405284766
 21
458.00988333933321
 31
0.0
  0
LINE
  5
186
100
AcDbEntity
  8
0
  6
Continuous
 62
               2
100
AcDbLine
 10
509.4784340528476
 20
487.00988333933321
 30
0.0
 11
509.4784340528476
 21
479.75988333933321
 31
0.0
  0
LINE
  5
187
100
AcDbEntity
  8
0
  6
Continuous
 62
               2
100
AcDbLine
 10
513.47843405284766
 20
467.89674330597575
 30
0.0
 11
513.47843405284766
 21
487.00988333933321
 31
0.0
  0
LINE
  5
188
100
AcDbEntity
  8
0
  6
Continuous
 62
               2
100
AcDbLine
 10
511.4784340528476
 20
467.89674330597575
 30
0.0
 11
511.4784340528476
 21
487.60225362018593
 31
0.0
  0
LINE
  5
189
100
AcDbEntity
  8
0
  6
Continuous
 62
               4
100
AcDbLine
 10
509.9784340528476
 20
487.32162208916645
 30
0.0
 11
509.9784340528476
 21
479.74637534721398
 31
0.0
  0
LINE
  5
18A
100
AcDbEntity
  8
0
  6
Continuous
 62
               4
100
AcDbLine
 10
510.4784340528476
 20
487.60225362018593
 30
0.0
 11
510.4784340528476
 21
479.69953683698134
 31
0.0
  0
LINE
  5
18B
100
AcDbEntity
  8
0
  6
Continuous
 62
               4
100
AcDbLine
 10
510.9784340528476
 20
487.47472953558156
 30
0.0
 11
510.9784340528476
 21
479.75988333933321
 31
0.0
  0
LINE
  5
18C
100
AcDbEntity
  8
0
  6
Continuous
 62
               2
100
AcDbLine
 10
499.9784340528476
 20
458.00988333933321
 30
0.0
 11
484.97843405284783
 21
458.00988333933321
 31
0.0
  0
LINE
  5
18D
100
AcDbEntity
  8
0
  6
Continuous
 62
               4
100
AcDbLine
 10
512.47843405284766
 20
487.32162208916668
 30
0.0
 11
512.47843405284766
 21
430.50988333933299
 31
0.0
  0
LINE
  5
18E
100
AcDbEntity
  8
0
  6
Continuous
 62
               2
100
AcDbLine
 10
481.97843405284783
 20
459.00988333933321
 30
0.0
 11
484.97843405284783
 21
458.00988333933321
 31
0.0
  0
LINE
  5
18F
100
AcDbEntity
  8
0
  6
Continuous
 62
               2
100
AcDbLine
 10
542.97843405284743
 20
459.00988333933321
 30
0.0
 11
539.97843405284743
 21
458.00988333933321
 31
0.0
  0
LINE
  5
190
100
AcDbEntity
  8
0
  6
Continuous
 62
               2
100
AcDbLine
 10
542.97843405284743
 20
459.00988333933321
 30
0.0
 11
642.47843405284743
 21
459.00988333933321
 31
0.0
  0
LINE
  5
191
100
AcDbEntity
  8
0
  6
Continuous
 62
               4
100
AcDbLine
 10
267.47843405284715
 20
457.5098833393331
 30
0.0
 11
392.47843405284726
 21
457.50988333933321
 31
0.0
  0
LINE
  5
192
100
AcDbEntity
  8
0
  6
Continuous
 62
               4
100
AcDbLine
 10
267.47843405284704
 20
456.00988333933321
 30
0.0
 11
287.47843405284704
 21
456.00988333933321
 31
0.0
  0
LINE
  5
193
100
AcDbEntity
  8
0
  6
Continuous
 62
               2
100
AcDbLine
 10
267.47843405284704
 20
459.0098833393331
 30
0.0
 11
481.97843405284783
 21
459.00988333933321
 31
0.0
  0
LINE
  5
194
100
AcDbEntity
  8
0
  6
Continuous
 62
               2
100
AcDbLine
 10
285.47808620180655
 20
454.39797928898997
 30
0.0
 11
267.47843405284715
 21
454.5098833393331
 31
0.0
  0
LINE
  5
195
100
AcDbEntity
  8
0
  6
DASHDOT
 62
               4
100
AcDbLine
 10
512.47843405284766
 20
516.00988333933356
 30
0.0
 11
512.47843405284766
 21
398.63796553111376
 31
0.0
  0
LINE
  5
196
100
AcDbEntity
  8
0
  6
Continuous
 62
               4
100
AcDbLine
 10
642.47843405284743
 20
513.00988333933356
 30
0.0
 11
633.6151642757377
 21
511.44704974033118
 31
0.0
  0
LINE
  5
197
100
AcDbEntity
  8
0
  6
Continuous
 62
               4
100
AcDbLine
 10
642.47843405284743
 20
513.00988333933356
 30
0.0
 11
633.6151642757377
 21
514.57271693833593
 31
0.0
  0
LINE
  5
198
100
AcDbEntity
  8
0
  6
Continuous
 62
               6
100
AcDbLine
 10
549.0821155596966
 20
273.20988333933281
 30
0.0
 11
327.2978689843539
 21
273.20988333933281
 31
0.0
  0
LINE
  5
199
100
AcDbEntity
  8
0
  6
Continuous
 62
               6
100
AcDbLine
 10
555.08211555969683
 20
273.20988333933281
 30
0.0
 11
642.47843405284743
 21
273.20988333933281
 31
0.0
  0
LINE
  5
19A
100
AcDbEntity
  8
0
  6
DOT
 62
               6
100
AcDbLine
 10
549.0821155596966
 20
275.50988333933276
 30
0.0
 11
327.2978689843539
 21
275.50988333933276
 31
0.0
  0
LINE
  5
19B
100
AcDbEntity
  8
0
  6
DOT
 62
               6
100
AcDbLine
 10
555.08211555969683
 20
275.50988333933276
 30
0.0
 11
642.47843405284743
 21
275.50988333933276
 31
0.0
  0
LINE
  5
19C
100
AcDbEntity
  8
0
  6
Continuous
 62
               4
100
AcDbLine
 10
714.78679656440374
 20
21.213203435595801
 30
0.0
 11
714.78679656440374
 21
41.213203435595801
 31
0.0
  0
LINE
  5
19D
100
AcDbEntity
  8
0
  6
Continuous
 62
               4
100
AcDbLine
 10
864.78679656440374
 20
21.213203435595801
 30
0.0
 11
714.78679656440374
 21
21.213203435595801
 31
0.0
  0
LINE
  5
19E
100
AcDbEntity
  8
0
  6
Continuous
 62
               4
100
AcDbLine
 10
864.78679656440374
 20
41.213203435595801
 30
0.0
 11
864.78679656440374
 21
21.213203435595801
 31
0.0
  0
LINE
  5
19F
100
AcDbEntity
  8
0
  6
Continuous
 62
               4
100
AcDbLine
 10
864.78679656440374
 20
41.213203435595801
 30
0.0
 11
714.78679656440374
 21
41.213203435595801
 31
0.0
  0
LINE
  5
1A0
100
AcDbEntity
  8
0
  6
Continuous
 62
               4
100
AcDbLine
 10
14.142135623730949
 20
595.85786437626837
 30
0.0
 11
14.142135623730949
 21
615.85786437626837
 31
0.0
  0
LINE
  5
1A1
100
AcDbEntity
  8
0
  6
Continuous
 62
               4
100
AcDbLine
 10
164.14213562373095
 20
595.85786437626837
 30
0.0
 11
14.142135623730949
 21
595.85786437626837
 31
0.0
  0
LINE
  5
1A2
100
AcDbEntity
  8
0
  6
Continuous
 62
               4
100
AcDbLine
 10
164.14213562373095
 20
615.85786437626837
 30
0.0
 11
164.14213562373095
 21
595.85786437626837
 31
0.0
  0
LINE
  5
1A3
100
AcDbEntity
  8
0
  6
Continuous
 62
               4
100
AcDbLine
 10
164.14213562373095
 20
615.85786437626837
 30
0.0
 11
14.142135623730949
 21
615.85786437626837
 31
0.0
  0
CIRCLE
  5
1A4
100
AcDbEntity
  8
0
  6
Continuous
 62
               4
100
AcDbCircle
 10
240.47843405284715
 20
456.00988333933321
 30
0.0
 40
1.500000000000002
  0
CIRCLE
  5
1A5
100
AcDbEntity
  8
0
  6
Continuous
 62
               4
100
AcDbCircle
 10
240.47843405284715
 20
406.00988333933299
 30
0.0
 40
1.500000000000002
  0
CIRCLE
  5
1A6
100
AcDbEntity
  8
0
  6
Continuous
 62
               4
100
AcDbCircle
 10
669.47843405284743
 20
417.50988333933299
 30
0.0
 40
1.500000000000002
  0
CIRCLE
  5
1A7
100
AcDbEntity
  8
0
  6
Continuous
 62
               4
100
AcDbCircle
 10
669.47843405284743
 20
429.50988333933299
 30
0.0
 40
1.500000000000002
  0
CIRCLE
  5
1A8
100
AcDbEntity
  8
0
  6
Continuous
 62
               4
100
AcDbCircle
 10
669.47843405284743
 20
430.00988333933299
 30
0.0
 40
1.500000000000002
  0
CIRCLE
  5
1A9
100
AcDbEntity
  8
0
  6
Continuous
 62
               4
100
AcDbCircle
 10
669.47843405284743
 20
455.00988333933321
 30
0.0
 40
1.500000000000002
  0
CIRCLE
  5
1AA
100
AcDbEntity
  8
0
  6
Continuous
 62
               4
100
AcDbCircle
 10
669.47843405284743
 20
489.00988333933299
 30
0.0
 40
1.500000000000002
  0
CIRCLE
  5
1AB
100
AcDbEntity
  8
0
  6
Continuous
 62
               4
100
AcDbCircle
 10
669.47843405284743
 20
459.00988333933321
 30
0.0
 40
1.500000000000002
  0
CIRCLE
  5
1AC
100
AcDbEntity
  8
0
  6
Continuous
 62
               4
100
AcDbCircle
 10
267.47843405284715
 20
495.00988333933344
 30
0.0
 40
1.500000000000002
  0
CIRCLE
  5
1AD
100
AcDbEntity
  8
0
  6
Continuous
 62
               4
100
AcDbCircle
 10
287.47843405284704
 20
495.00988333933344
 30
0.0
 40
1.500000000000002
  0
CIRCLE
  5
1AE
100
AcDbEntity
  8
0
  6
Continuous
 62
               4
100
AcDbCircle
 10
267.47843405284715
 20
513.00988333933344
 30
0.0
 40
1.500000000000002
  0
CIRCLE
  5
1AF
100
AcDbEntity
  8
0
  6
Continuous
 62
               4
100
AcDbCircle
 10
512.47843405284766
 20
513.00988333933344
 30
0.0
 40
1.500000000000002
  0
CIRCLE
  5
1B0
100
AcDbEntity
  8
0
  6
Continuous
 62
               4
100
AcDbCircle
 10
512.47843405284766
 20
513.00988333933344
 30
0.0
 40
1.500000000000002
  0
CIRCLE
  5
1B1
100
AcDbEntity
  8
0
  6
Continuous
 62
               7
100
AcDbCircle
 10
524.12483816243684
 20
437.16151005166182
 30
0.0
 40
1.0
  0
CIRCLE
  5
1B2
100
AcDbEntity
  8
0
  6
Continuous
 62
               7
100
AcDbCircle
 10
518.78494090216282
 20
448.09558539412762
 30
0.0
 40
0.5
  0
CIRCLE
  5
1B3
100
AcDbEntity
  8
0
  6
Continuous
 62
               7
100
AcDbCircle
 10
528.19333131312169
 20
451.40123607905923
 30
0.0
 40
1.0
  0
CIRCLE
  5
1B4
100
AcDbEntity
  8
0
  6
Continuous
 62
               7
100
AcDbCircle
 10
526.92192720353273
 20
444.78993470919625
 30
0.0
 40
0.1
  0
CIRCLE
  5
1B5
100
AcDbEntity
  8
0
  6
Continuous
 62
               7
100
AcDbCircle
 10
530.22757788846434
 20
437.92435251741529
 30
0.0
 40
0.5
  0
CIRCLE
  5
1B6
100
AcDbEntity
  8
0
  6
Continuous
 62
               7
100
AcDbCircle
 10
518.02209843640935
 20
440.46716073659343
 30
0.0
 40
0.1
  0
CIRCLE
  5
1B7
100
AcDbEntity
  8
0
  6
Continuous
 62
               7
100
AcDbCircle
 10
518.78494090216282
 20
434.61870183248391
 30
0.0
 40
0.1
  0
CIRCLE
  5
1B8
100
AcDbEntity
  8
0
  6
Continuous
 62
               7
100
AcDbCircle
 10
521.5820299432587
 20
451.40123607905923
 30
0.0
 40
0.1
  0
CIRCLE
  5
1B9
100
AcDbEntity
  8
0
  6
Continuous
 62
               7
100
AcDbCircle
 10
540.83331418983403
 20
437.16151005166182
 30
0.0
 40
1.0
  0
CIRCLE
  5
1BA
100
AcDbEntity
  8
0
  6
Continuous
 62
               7
100
AcDbCircle
 10
535.49341692956023
 20
448.09558539412762
 30
0.0
 40
0.5
  0
CIRCLE
  5
1BB
100
AcDbEntity
  8
0
  6
Continuous
 62
               7
100
AcDbCircle
 10
544.9018073405191
 20
451.40123607905923
 30
0.0
 40
1.0
  0
CIRCLE
  5
1BC
100
AcDbEntity
  8
0
  6
Continuous
 62
               7
100
AcDbCircle
 10
543.63040323092991
 20
444.78993470919625
 30
0.0
 40
0.1
  0
CIRCLE
  5
1BD
100
AcDbEntity
  8
0
  6
Continuous
 62
               7
100
AcDbCircle
 10
546.93605391586152
 20
437.92435251741529
 30
0.0
 40
0.5
  0
CIRCLE
  5
1BE
100
AcDbEntity
  8
0
  6
Continuous
 62
               7
100
AcDbCircle
 10
534.73057446380676
 20
440.46716073659343
 30
0.0
 40
0.1
  0
CIRCLE
  5
1BF
100
AcDbEntity
  8
0
  6
Continuous
 62
               7
100
AcDbCircle
 10
535.49341692956023
 20
434.61870183248391
 30
0.0
 40
0.1
  0
CIRCLE
  5
1C0
100
AcDbEntity
  8
0
  6
Continuous
 62
               7
100
AcDbCircle
 10
538.29050597065589
 20
451.40123607905923
 30
0.0
 40
0.1
  0
CIRCLE
  5
1C1
100
AcDbEntity
  8
0
  6
Continuous
 62
               7
100
AcDbCircle
 10
557.54179021723144
 20
437.16151005166182
 30
0.0
 40
1.0
  0
CIRCLE
  5
1C2
100
AcDbEntity
  8
0
  6
Continuous
 62
               7
100
AcDbCircle
 10
552.20189295695741
 20
448.09558539412762
 30
0.0
 40
0.5
  0
CIRCLE
  5
1C3
100
AcDbEntity
  8
0
  6
Continuous
 62
               7
100
AcDbCircle
 10
561.61028336791628
 20
451.40123607905923
 30
0.0
 40
1.0
  0
CIRCLE
  5
1C4
100
AcDbEntity
  8
0
  6
Continuous
 62
               7
100
AcDbCircle
 10
560.3388792583271
 20
444.78993470919625
 30
0.0
 40
0.1
  0
CIRCLE
  5
1C5
100
AcDbEntity
  8
0
  6
Continuous
 62
               7
100
AcDbCircle
 10
563.6445299432587
 20
437.92435251741529
 30
0.0
 40
0.5
  0
CIRCLE
  5
1C6
100
AcDbEntity
  8
0
  6
Continuous
 62
               7
100
AcDbCircle
 10
551.43905049120394
 20
440.46716073659343
 30
0.0
 40
0.1
  0
CIRCLE
  5
1C7
100
AcDbEntity
  8
0
  6
Continuous
 62
               7
100
AcDbCircle
 10
552.20189295695741
 20
434.61870183248391
 30
0.0
 40
0.1
  0
CIRCLE
  5
1C8
100
AcDbEntity
  8
0
  6
Continuous
 62
               7
100
AcDbCircle
 10
554.99898199805307
 20
451.40123607905923
 30
0.0
 40
0.1
  0
CIRCLE
  5
1C9
100
AcDbEntity
  8
0
  6
Continuous
 62
               7
100
AcDbCircle
 10
574.25026624462839
 20
437.16151005166182
 30
0.0
 40
1.0
  0
CIRCLE
  5
1CA
100
AcDbEntity
  8
0
  6
Continuous
 62
               7
100
AcDbCircle
 10
568.91036898435436
 20
448.09558539412762
 30
0.0
 40
0.5
  0
CIRCLE
  5
1CB
100
AcDbEntity
  8
0
  6
Continuous
 62
               7
100
AcDbCircle
 10
578.31875939531324
 20
451.40123607905923
 30
0.0
 40
1.0
  0
CIRCLE
  5
1CC
100
AcDbEntity
  8
0
  6
Continuous
 62
               7
100
AcDbCircle
 10
577.04735528572451
 20
444.78993470919625
 30
0.0
 40
0.1
  0
CIRCLE
  5
1CD
100
AcDbEntity
  8
0
  6
Continuous
 62
               7
100
AcDbCircle
 10
580.35300597065611
 20
437.92435251741529
 30
0.0
 40
0.5
  0
CIRCLE
  5
1CE
100
AcDbEntity
  8
0
  6
Continuous
 62
               7
100
AcDbCircle
 10
568.14752651860113
 20
440.46716073659343
 30
0.0
 40
0.1
  0
CIRCLE
  5
1CF
100
AcDbEntity
  8
0
  6
Continuous
 62
               7
100
AcDbCircle
 10
568.91036898435436
 20
434.61870183248391
 30
0.0
 40
0.1
  0
CIRCLE
  5
1D0
100
AcDbEntity
  8
0
  6
Continuous
 62
               7
100
AcDbCircle
 10
571.70745802545048
 20
451.40123607905923
 30
0.0
 40
0.1
  0
CIRCLE
  5
1D1
100
AcDbEntity
  8
0
  6
Continuous
 62
               7
100
AcDbCircle
 10
590.9587422720258
 20
437.16151005166182
 30
0.0
 40
1.0
  0
CIRCLE
  5
1D2
100
AcDbEntity
  8
0
  6
Continuous
 62
               7
100
AcDbCircle
 10
585.61884501175177
 20
448.09558539412762
 30
0.0
 40
0.5
  0
CIRCLE
  5
1D3
100
AcDbEntity
  8
0
  6
Continuous
 62
               7
100
AcDbCircle
 10
595.02723542271065
 20
451.40123607905923
 30
0.0
 40
1.0
  0
CIRCLE
  5
1D4
100
AcDbEntity
  8
0
  6
Continuous
 62
               7
100
AcDbCircle
 10
593.75583131312146
 20
444.78993470919625
 30
0.0
 40
0.1
  0
CIRCLE
  5
1D5
100
AcDbEntity
  8
0
  6
Continuous
 62
               7
100
AcDbCircle
 10
597.06148199805307
 20
437.92435251741529
 30
0.0
 40
0.5
  0
CIRCLE
  5
1D6
100
AcDbEntity
  8
0
  6
Continuous
 62
               7
100
AcDbCircle
 10
584.85600254599854
 20
440.46716073659343
 30
0.0
 40
0.1
  0
CIRCLE
  5
1D7
100
AcDbEntity
  8
0
  6
Continuous
 62
               7
100
AcDbCircle
 10
585.61884501175177
 20
434.61870183248391
 30
0.0
 40
0.1
  0
CIRCLE
  5
1D8
100
AcDbEntity
  8
0
  6
Continuous
 62
               7
100
AcDbCircle
 10
588.41593405284789
 20
451.40123607905923
 30
0.0
 40
0.1
  0
CIRCLE
  5
1D9
100
AcDbEntity
  8
0
  6
Continuous
 62
               7
100
AcDbCircle
 10
607.66721829942321
 20
437.16151005166182
 30
0.0
 40
1.0
  0
CIRCLE
  5
1DA
100
AcDbEntity
  8
0
  6
Continuous
 62
               7
100
AcDbCircle
 10
602.32732103914918
 20
448.09558539412762
 30
0.0
 40
0.5
  0
CIRCLE
  5
1DB
100
AcDbEntity
  8
0
  6
Continuous
 62
               7
100
AcDbCircle
 10
611.73571145010806
 20
451.40123607905923
 30
0.0
 40
1.0
  0
CIRCLE
  5
1DC
100
AcDbEntity
  8
0
  6
Continuous
 62
               7
100
AcDbCircle
 10
610.46430734051887
 20
444.78993470919625
 30
0.0
 40
0.1
  0
CIRCLE
  5
1DD
100
AcDbEntity
  8
0
  6
Continuous
 62
               7
100
AcDbCircle
 10
613.76995802545048
 20
437.92435251741529
 30
0.0
 40
0.5
  0
CIRCLE
  5
1DE
100
AcDbEntity
  8
0
  6
Continuous
 62
               7
100
AcDbCircle
 10
601.56447857339549
 20
440.46716073659343
 30
0.0
 40
0.1
  0
CIRCLE
  5
1DF
100
AcDbEntity
  8
0
  6
Continuous
 62
               7
100
AcDbCircle
 10
602.32732103914918
 20
434.61870183248391
 30
0.0
 40
0.1
  0
CIRCLE
  5
1E0
100
AcDbEntity
  8
0
  6
Continuous
 62
               7
100
AcDbCircle
 10
605.12441008024484
 20
451.40123607905923
 30
0.0
 40
0.1
  0
CIRCLE
  5
1E1
100
AcDbEntity
  8
0
  6
Continuous
 62
               7
100
AcDbCircle
 10
624.37569432682017
 20
437.16151005166182
 30
0.0
 40
1.0
  0
CIRCLE
  5
1E2
100
AcDbEntity
  8
0
  6
Continuous
 62
               7
100
AcDbCircle
 10
619.03579706654614
 20
448.09558539412762
 30
0.0
 40
0.5
  0
CIRCLE
  5
1E3
100
AcDbEntity
  8
0
  6
Continuous
 62
               7
100
AcDbCircle
 10
628.44418747750547
 20
451.40123607905923
 30
0.0
 40
1.0
  0
CIRCLE
  5
1E4
100
AcDbEntity
  8
0
  6
Continuous
 62
               7
100
AcDbCircle
 10
627.17278336791628
 20
444.78993470919625
 30
0.0
 40
0.1
  0
CIRCLE
  5
1E5
100
AcDbEntity
  8
0
  6
Continuous
 62
               7
100
AcDbCircle
 10
630.47843405284789
 20
437.92435251741529
 30
0.0
 40
0.5
  0
CIRCLE
  5
1E6
100
AcDbEntity
  8
0
  6
Continuous
 62
               7
100
AcDbCircle
 10
618.2729546007929
 20
440.46716073659343
 30
0.0
 40
0.1
  0
CIRCLE
  5
1E7
100
AcDbEntity
  8
0
  6
Continuous
 62
               7
100
AcDbCircle
 10
619.03579706654614
 20
434.61870183248391
 30
0.0
 40
0.1
  0
CIRCLE
  5
1E8
100
AcDbEntity
  8
0
  6
Continuous
 62
               7
100
AcDbCircle
 10
621.83288610764225
 20
451.40123607905923
 30
0.0
 40
0.1
  0
CIRCLE
  5
1E9
100
AcDbEntity
  8
0
  6
Continuous
 62
               7
100
AcDbCircle
 10
641.08417035421758
 20
437.16151005166182
 30
0.0
 40
1.0
  0
CIRCLE
  5
1EA
100
AcDbEntity
  8
0
  6
Continuous
 62
               7
100
AcDbCircle
 10
635.74427309394355
 20
448.09558539412762
 30
0.0
 40
0.5
  0
CIRCLE
  5
1EB
100
AcDbEntity
  8
0
  6
Continuous
 62
               7
100
AcDbCircle
 10
634.98143062819031
 20
440.46716073659343
 30
0.0
 40
0.1
  0
CIRCLE
  5
1EC
100
AcDbEntity
  8
0
  6
Continuous
 62
               7
100
AcDbCircle
 10
635.74427309394355
 20
434.61870183248391
 30
0.0
 40
0.1
  0
CIRCLE
  5
1ED
100
AcDbEntity
  8
0
  6
Continuous
 62
               7
100
AcDbCircle
 10
638.54136213503966
 20
451.40123607905923
 30
0.0
 40
0.1
  0
CIRCLE
  5
1EE
100
AcDbEntity
  8
0
  6
Continuous
 62
               7
100
AcDbCircle
 10
423.16893062819025
 20
437.16151005166182
 30
0.0
 40
1.0
  0
CIRCLE
  5
1EF
100
AcDbEntity
  8
0
  6
Continuous
 62
               7
100
AcDbCircle
 10
427.23742377887532
 20
451.40123607905923
 30
0.0
 40
1.0
  0
CIRCLE
  5
1F0
100
AcDbEntity
  8
0
  6
Continuous
 62
               7
100
AcDbCircle
 10
425.96601966928614
 20
444.78993470919625
 30
0.0
 40
0.1
  0
CIRCLE
  5
1F1
100
AcDbEntity
  8
0
  6
Continuous
 62
               7
100
AcDbCircle
 10
429.27167035421775
 20
437.92435251741529
 30
0.0
 40
0.5
  0
CIRCLE
  5
1F2
100
AcDbEntity
  8
0
  6
Continuous
 62
               7
100
AcDbCircle
 10
420.62612240901223
 20
451.40123607905923
 30
0.0
 40
0.1
  0
CIRCLE
  5
1F3
100
AcDbEntity
  8
0
  6
Continuous
 62
               7
100
AcDbCircle
 10
439.87740665558766
 20
437.16151005166182
 30
0.0
 40
1.0
  0
CIRCLE
  5
1F4
100
AcDbEntity
  8
0
  6
Continuous
 62
               7
100
AcDbCircle
 10
434.53750939531363
 20
448.09558539412762
 30
0.0
 40
0.5
  0
CIRCLE
  5
1F5
100
AcDbEntity
  8
0
  6
Continuous
 62
               7
100
AcDbCircle
 10
443.94589980627251
 20
451.40123607905923
 30
0.0
 40
1.0
  0
CIRCLE
  5
1F6
100
AcDbEntity
  8
0
  6
Continuous
 62
               7
100
AcDbCircle
 10
442.67449569668355
 20
444.78993470919625
 30
0.0
 40
0.1
  0
CIRCLE
  5
1F7
100
AcDbEntity
  8
0
  6
Continuous
 62
               7
100
AcDbCircle
 10
445.98014638161504
 20
437.92435251741529
 30
0.0
 40
0.5
  0
CIRCLE
  5
1F8
100
AcDbEntity
  8
0
  6
Continuous
 62
               7
100
AcDbCircle
 10
433.77466692956017
 20
440.46716073659343
 30
0.0
 40
0.1
  0
CIRCLE
  5
1F9
100
AcDbEntity
  8
0
  6
Continuous
 62
               7
100
AcDbCircle
 10
434.53750939531363
 20
434.61870183248391
 30
0.0
 40
0.1
  0
CIRCLE
  5
1FA
100
AcDbEntity
  8
0
  6
Continuous
 62
               7
100
AcDbCircle
 10
437.33459843640952
 20
451.40123607905923
 30
0.0
 40
0.1
  0
CIRCLE
  5
1FB
100
AcDbEntity
  8
0
  6
Continuous
 62
               7
100
AcDbCircle
 10
456.58588268298485
 20
437.16151005166182
 30
0.0
 40
1.0
  0
CIRCLE
  5
1FC
100
AcDbEntity
  8
0
  6
Continuous
 62
               7
100
AcDbCircle
 10
451.24598542271093
 20
448.09558539412762
 30
0.0
 40
0.5
  0
CIRCLE
  5
1FD
100
AcDbEntity
  8
0
  6
Continuous
 62
               7
100
AcDbCircle
 10
460.6543758336698
 20
451.40123607905923
 30
0.0
 40
1.0
  0
CIRCLE
  5
1FE
100
AcDbEntity
  8
0
  6
Continuous
 62
               7
100
AcDbCircle
 10
459.38297172408073
 20
444.78993470919625
 30
0.0
 40
0.1
  0
CIRCLE
  5
1FF
100
AcDbEntity
  8
0
  6
Continuous
 62
               7
100
AcDbCircle
 10
462.68862240901234
 20
437.92435251741529
 30
0.0
 40
0.5
  0
CIRCLE
  5
200
100
AcDbEntity
  8
0
  6
Continuous
 62
               7
100
AcDbCircle
 10
450.48314295695747
 20
440.46716073659343
 30
0.0
 40
0.1
  0
CIRCLE
  5
201
100
AcDbEntity
  8
0
  6
Continuous
 62
               7
100
AcDbCircle
 10
451.24598542271093
 20
434.61870183248391
 30
0.0
 40
0.1
  0
CIRCLE
  5
202
100
AcDbEntity
  8
0
  6
Continuous
 62
               7
100
AcDbCircle
 10
454.04307446380682
 20
451.40123607905923
 30
0.0
 40
0.1
  0
CIRCLE
  5
203
100
AcDbEntity
  8
0
  6
Continuous
 62
               7
100
AcDbCircle
 10
473.29435871038214
 20
437.16151005166182
 30
0.0
 40
1.0
  0
CIRCLE
  5
204
100
AcDbEntity
  8
0
  6
Continuous
 62
               7
100
AcDbCircle
 10
467.95446145010823
 20
448.09558539412762
 30
0.0
 40
0.5
  0
CIRCLE
  5
205
100
AcDbEntity
  8
0
  6
Continuous
 62
               7
100
AcDbCircle
 10
477.3628518610671
 20
451.40123607905923
 30
0.0
 40
1.0
  0
CIRCLE
  5
206
100
AcDbEntity
  8
0
  6
Continuous
 62
               7
100
AcDbCircle
 10
476.09144775147803
 20
444.78993470919625
 30
0.0
 40
0.1
  0
CIRCLE
  5
207
100
AcDbEntity
  8
0
  6
Continuous
 62
               7
100
AcDbCircle
 10
479.39709843640952
 20
437.92435251741529
 30
0.0
 40
0.5
  0
CIRCLE
  5
208
100
AcDbEntity
  8
0
  6
Continuous
 62
               7
100
AcDbCircle
 10
467.19161898435476
 20
440.46716073659343
 30
0.0
 40
0.1
  0
CIRCLE
  5
209
100
AcDbEntity
  8
0
  6
Continuous
 62
               7
100
AcDbCircle
 10
467.95446145010823
 20
434.61870183248391
 30
0.0
 40
0.1
  0
CIRCLE
  5
20A
100
AcDbEntity
  8
0
  6
Continuous
 62
               7
100
AcDbCircle
 10
470.75155049120411
 20
451.40123607905923
 30
0.0
 40
0.1
  0
CIRCLE
  5
20B
100
AcDbEntity
  8
0
  6
Continuous
 62
               7
100
AcDbCircle
 10
490.00283473777944
 20
437.16151005166182
 30
0.0
 40
1.0
  0
CIRCLE
  5
20C
100
AcDbEntity
  8
0
  6
Continuous
 62
               7
100
AcDbCircle
 10
484.66293747750541
 20
448.09558539412762
 30
0.0
 40
0.5
  0
CIRCLE
  5
20D
100
AcDbEntity
  8
0
  6
Continuous
 62
               7
100
AcDbCircle
 10
494.0713278884644
 20
451.40123607905923
 30
0.0
 40
1.0
  0
CIRCLE
  5
20E
100
AcDbEntity
  8
0
  6
Continuous
 62
               7
100
AcDbCircle
 10
492.79992377887532
 20
444.78993470919625
 30
0.0
 40
0.1
  0
CIRCLE
  5
20F
100
AcDbEntity
  8
0
  6
Continuous
 62
               7
100
AcDbCircle
 10
496.10557446380682
 20
437.92435251741529
 30
0.0
 40
0.5
  0
CIRCLE
  5
210
100
AcDbEntity
  8
0
  6
Continuous
 62
               7
100
AcDbCircle
 10
483.90009501175206
 20
440.46716073659343
 30
0.0
 40
0.1
  0
CIRCLE
  5
211
100
AcDbEntity
  8
0
  6
Continuous
 62
               7
100
AcDbCircle
 10
484.66293747750541
 20
434.61870183248391
 30
0.0
 40
0.1
  0
CIRCLE
  5
212
100
AcDbEntity
  8
0
  6
Continuous
 62
               7
100
AcDbCircle
 10
487.4600265186013
 20
451.40123607905923
 30
0.0
 40
0.1
  0
CIRCLE
  5
213
100
AcDbEntity
  8
0
  6
Continuous
 62
               7
100
AcDbCircle
 10
506.71131076517673
 20
437.16151005166182
 30
0.0
 40
1.0
  0
CIRCLE
  5
214
100
AcDbEntity
  8
0
  6
Continuous
 62
               7
100
AcDbCircle
 10
501.3714135049027
 20
448.09558539412762
 30
0.0
 40
0.5
  0
CIRCLE
  5
215
100
AcDbEntity
  8
0
  6
Continuous
 62
               7
100
AcDbCircle
 10
509.50839980627262
 20
444.78993470919625
 30
0.0
 40
0.1
  0
CIRCLE
  5
216
100
AcDbEntity
  8
0
  6
Continuous
 62
               7
100
AcDbCircle
 10
500.60857103914924
 20
440.46716073659343
 30
0.0
 40
0.1
  0
CIRCLE
  5
217
100
AcDbEntity
  8
0
  6
Continuous
 62
               7
100
AcDbCircle
 10
501.3714135049027
 20
434.61870183248391
 30
0.0
 40
0.1
  0
CIRCLE
  5
218
100
AcDbEntity
  8
0
  6
Continuous
 62
               7
100
AcDbCircle
 10
504.16850254599859
 20
451.40123607905923
 30
0.0
 40
0.1
  0
ARC
  5
219
100
AcDbEntity
  8
0
  6
Continuous
 62
               6
100
AcDbCircle
 10
552.0821155596966
 20
387.50988333933299
 30
0.0
 40
30.0
100
AcDbArc
 50
39.619071083464405
 51
134.99999999999994
  0
ARC
  5
21A
100
AcDbEntity
  8
0
  6
Continuous
 62
               6
100
AcDbCircle
 10
492.08211555969677
 20
403.20988333933303
 30
0.0
 40
30.0
100
AcDbArc
 50
225.00000000000003
 51
314.99999999999989
  0
ARC
  5
21B
100
AcDbEntity
  8
0
  6
Continuous
 62
               6
100
AcDbCircle
 10
552.0821155596966
 20
387.50988333933299
 30
0.0
 40
25.0
100
AcDbArc
 50
44.999999999999979
 51
135.00000000000017
  0
ARC
  5
21C
100
AcDbEntity
  8
0
  6
Continuous
 62
               6
100
AcDbCircle
 10
492.08211555969677
 20
403.20988333933303
 30
0.0
 40
25.0
100
AcDbArc
 50
224.99999999999997
 51
314.99999999999994
  0
ARC
  5
21D
100
AcDbEntity
  8
0
  6
Continuous
 62
               6
100
AcDbCircle
 10
612.0821155596966
 20
403.20988333933303
 30
0.0
 40
30.0
100
AcDbArc
 50
225.00000000000003
 51
314.99999999999989
  0
ARC
  5
21E
100
AcDbEntity
  8
0
  6
Continuous
 62
               6
100
AcDbCircle
 10
612.0821155596966
 20
403.20988333933303
 30
0.0
 40
25.0
100
AcDbArc
 50
224.99999999999929
 51
315.00000000000017
  0
ARC
  5
21F
100
AcDbEntity
  8
0
  6
Continuous
 62
               6
100
AcDbCircle
 10
432.08211555969677
 20
387.50988333933299
 30
0.0
 40
30.0
100
AcDbArc
 50
39.619071083464405
 51
134.99999999999994
  0
ARC
  5
220
100
AcDbEntity
  8
0
  6
Continuous
 62
               6
100
AcDbCircle
 10
372.08211555969632
 20
403.20988333933303
 30
0.0
 40
30.0
100
AcDbArc
 50
225.00000000000003
 51
314.99999999999989
  0
ARC
  5
221
100
AcDbEntity
  8
0
  6
Continuous
 62
               6
100
AcDbCircle
 10
432.08211555969677
 20
387.50988333933299
 30
0.0
 40
25.0
100
AcDbArc
 50
44.999999999999979
 51
135.00000000000017
  0
ARC
  5
222
100
AcDbEntity
  8
0
  6
Continuous
 62
               6
100
AcDbCircle
 10
372.08211555969632
 20
403.20988333933303
 30
0.0
 40
25.0
100
AcDbArc
 50
224.99999999999997
 51
314.99999999999994
  0
ARC
  5
223
100
AcDbEntity
  8
0
  6
Continuous
 62
               7
100
AcDbCircle
 10
552.0821155596966
 20
270.20988333933281
 30
0.0
 40
3.0
100
AcDbArc
 50
180.00000000000011
 51
0.0
  0
ARC
  5
224
100
AcDbEntity
  8
0
  6
Continuous
 62
               7
100
AcDbCircle
 10
552.0821155596966
 20
387.50988333933299
 30
0.0
 40
31.199999999999999
100
AcDbArc
 50
61.264346255094559
 51
118.73565374490538
  0
ARC
  5
225
100
AcDbEntity
  8
0
  6
Continuous
 62
               7
100
AcDbCircle
 10
552.0821155596966
 20
415.70988333933303
 30
0.0
 40
9.0
100
AcDbArc
 50
70.50374634348556
 51
109.47122063449066
  0
ARC
  5
226
100
AcDbEntity
  8
0
  6
Continuous
 62
               7
100
AcDbCircle
 10
547.58211555969683
 20
422.30988333933294
 30
0.0
 40
2.3999999999999999
100
AcDbArc
 50
51.492937089874886
 51
89.999999999999957
  0
ARC
  5
227
100
AcDbEntity
  8
0
  6
Continuous
 62
               7
100
AcDbCircle
 10
556.5821155596966
 20
422.30988333933294
 30
0.0
 40
2.3999999999999999
100
AcDbArc
 50
89.999999999999957
 51
128.68218745348943
  0
ARC
  5
228
100
AcDbEntity
  8
0
  6
Continuous
 62
               6
100
AcDbCircle
 10
432.17843405284765
 20
394.75688676399056
 30
0.0
 40
30.0
100
AcDbArc
 50
39.619071083464405
 51
134.99999999999994
  0
ARC
  5
229
100
AcDbEntity
  8
0
  6
Continuous
 62
               6
100
AcDbCircle
 10
372.17843405284719
 20
410.45688676399061
 30
0.0
 40
30.0
100
AcDbArc
 50
225.00000000000003
 51
314.99999999999989
  0
ARC
  5
22A
100
AcDbEntity
  8
0
  6
Continuous
 62
               6
100
AcDbCircle
 10
432.17843405284765
 20
394.75688676399056
 30
0.0
 40
25.0
100
AcDbArc
 50
44.999999999999979
 51
135.00000000000017
  0
ARC
  5
22B
100
AcDbEntity
  8
0
  6
Continuous
 62
               6
100
AcDbCircle
 10
372.17843405284719
 20
410.45688676399061
 30
0.0
 40
25.0
100
AcDbArc
 50
224.99999999999997
 51
314.99999999999994
  0
ARC
  5
22C
100
AcDbEntity
  8
0
  6
Continuous
 62
               6
100
AcDbCircle
 10
312.17843405284708
 20
394.75688676399056
 30
0.0
 40
30.0
100
AcDbArc
 50
39.619071083464405
 51
89.999999999999957
  0
ARC
  5
22D
100
AcDbEntity
  8
0
  6
Continuous
 62
               6
100
AcDbCircle
 10
312.17843405284708
 20
394.75688676399056
 30
0.0
 40
25.0
100
AcDbArc
 50
44.999999999999979
 51
89.999999999999957
  0
ARC
  5
22E
100
AcDbEntity
  8
0
  6
Continuous
 62
               6
100
AcDbCircle
 10
312.17843405284708
 20
414.75688676399056
 30
0.0
 40
10.0
100
AcDbArc
 50
89.999999999999957
 51
180.00000000000006
  0
ARC
  5
22F
100
AcDbEntity
  8
0
  6
Continuous
 62
               6
100
AcDbCircle
 10
312.17843405284708
 20
414.75688676399056
 30
0.0
 40
5.0
100
AcDbArc
 50
89.999999999999957
 51
180.00000000000006
  0
ARC
  5
230
100
AcDbEntity
  8
0
  6
Continuous
 62
               6
100
AcDbCircle
 10
312.17843405284708
 20
414.75688676399056
 30
0.0
 40
15.0
100
AcDbArc
 50
89.999999999999957
 51
180.00000000000006
  0
ARC
  5
231
100
AcDbEntity
  8
0
  6
Continuous
 62
               6
100
AcDbCircle
 10
312.17843405284708
 20
394.75688676399056
 30
0.0
 40
35.0
100
AcDbArc
 50
39.619071083464405
 51
89.999999999999957
  0
ARC
  5
232
100
AcDbEntity
  8
0
  6
Continuous
 62
               4
100
AcDbCircle
 10
288.22843405284704
 20
406.00988333933299
 30
0.0
 40
0.75
100
AcDbArc
 50
180.0
 51
0.0
  0
ARC
  5
233
100
AcDbEntity
  8
0
  6
Continuous
 62
               6
100
AcDbCircle
 10
455.29786898432798
 20
134.94868071537155
 30
0.0
 40
2.0
100
AcDbArc
 50
269.99995762043244
 51
359.99995762043238
  0
ARC
  5
234
100
AcDbEntity
  8
0
  6
Continuous
 62
               6
100
AcDbCircle
 10
455.29790300882649
 20
180.94868071535905
 30
0.0
 40
2.0
100
AcDbArc
 50
0.0
 51
89.999957620432369
  0
ARC
  5
235
100
AcDbEntity
  8
0
  6
Continuous
 62
               6
100
AcDbCircle
 10
359.29786898435356
 20
134.94875172302056
 30
0.0
 40
2.0
100
AcDbArc
 50
179.9999576204323
 51
269.99995762043244
  0
ARC
  5
236
100
AcDbEntity
  8
0
  6
Continuous
 62
               6
100
AcDbCircle
 10
359.29790300885207
 20
180.94875172300806
 30
0.0
 40
2.0
100
AcDbArc
 50
89.999957620432369
 51
179.9999576204323
  0
ARC
  5
237
100
AcDbEntity
  8
0
  6
Continuous
 62
               7
100
AcDbCircle
 10
455.29790300882649
 20
180.94868071535905
 30
0.0
 40
8.0
100
AcDbArc
 50
0.0
 51
89.999957620432369
  0
ARC
  5
238
100
AcDbEntity
  8
0
  6
Continuous
 62
               7
100
AcDbCircle
 10
455.29786898432798
 20
134.94868071537155
 30
0.0
 40
8.0
100
AcDbArc
 50
269.99995762043244
 51
359.99995762043238
  0
ARC
  5
239
100
AcDbEntity
  8
0
  6
Continuous
 62
               7
100
AcDbCircle
 10
329.09766890625207
 20
185.9487978012238
 30
0.0
 40
9.0
100
AcDbArc
 50
160.50445972992432
 51
199.47193402092938
  0
ARC
  5
23A
100
AcDbEntity
  8
0
  6
Continuous
 62
               7
100
AcDbCircle
 10
322.49772493600341
 20
181.44871562535434
 30
0.0
 40
2.3999999999999999
100
AcDbArc
 50
141.49365047631363
 51
180.00071338643866
  0
ARC
  5
23B
100
AcDbEntity
  8
0
  6
Continuous
 62
               7
100
AcDbCircle
 10
322.49761287752386
 20
190.44871562465676
 30
0.0
 40
2.3999999999999999
100
AcDbArc
 50
180.00071338643866
 51
218.68290083992812
  0
ARC
  5
23C
100
AcDbEntity
  8
0
  6
Continuous
 62
               4
100
AcDbCircle
 10
325.04786898435401
 20
131.07610765440143
 30
0.0
 40
0.75
100
AcDbArc
 50
180.0
 51
0.0
  0
ARC
  5
23D
100
AcDbEntity
  8
0
  6
Continuous
 62
               2
100
AcDbCircle
 10
512.1515792482619
 20
454.72179891592498
 30
0.0
 40
13.241589910331108
100
AcDbArc
 50
14.377820588166037
 51
84.249105970512574
  0
ARC
  5
23E
100
AcDbEntity
  8
0
  6
Continuous
 62
               2
100
AcDbCircle
 10
512.80528885743342
 20
454.72179891592498
 30
0.0
 40
13.241589910331108
100
AcDbArc
 50
95.750894029487256
 51
165.62217941183397
  0
ARC
  5
23F
100
AcDbEntity
  8
0
  6
Continuous
 62
               2
100
AcDbCircle
 10
510.2284340528476
 20
479.75988333933321
 30
0.0
 40
0.750000000000014
100
AcDbArc
 50
180.0
 51
0.0
  0
ARC
  5
240
100
AcDbEntity
  8
0
  6
Continuous
 62
               2
100
AcDbCircle
 10
511.4784340528476
 20
487.00988333933321
 30
0.0
 40
2.0000000000000142
100
AcDbArc
 50
0.0
 51
180.0
  0
ARC
  5
241
100
AcDbEntity
  8
0
  6
Continuous
 62
               4
100
AcDbCircle
 10
511.2284340528476
 20
487.32162208916668
 30
0.0
 40
1.250000000000014
100
AcDbArc
 50
0.0
 51
180.0
  0
ARC
  5
242
100
AcDbEntity
  8
0
  6
Continuous
 62
               4
100
AcDbCircle
 10
510.9784340528476
 20
487.60225362018593
 30
0.0
 40
0.5
100
AcDbArc
 50
0.0
 51
180.0
  0
ARC
  5
243
100
AcDbEntity
  8
0
  6
Continuous
 62
               4
100
AcDbCircle
 10
267.47843405284715
 20
456.7598833393331
 30
0.0
 40
0.75
100
AcDbArc
 50
89.999999999999957
 51
269.99999999999994
  0
ARC
  5
244
100
AcDbEntity
  8
0
  6
Continuous
 62
               2
100
AcDbCircle
 10
267.47843405284715
 20
456.7598833393331
 30
0.0
 40
2.25
100
AcDbArc
 50
89.999999999999957
 51
269.99999999999994
  0
TEXT
  5
245
100
AcDbEntity
  8
0
 62
               7
100
AcDbText
 10
240.47843405284715
 20
425.0098833393331
 30
0.0
 40
12.000000000000012
  1
50
 50
90.000000000000028
 41
0.7695
  7
FontTableH_0
 72
               5
 11
240.47843405284715
 21
437.0098833393331
 31
0.0
100
AcDbText
  0
TEXT
  5
246
100
AcDbEntity
  8
0
 62
               7
100
AcDbText
 10
669.47843405284743
 20
417.50988333933299
 30
0.0
 40
12.000000000000012
  1
12
 50
90.000000000000028
 41
0.7695
  7
FontTableH_0
 72
               5
 11
669.47843405284743
 21
429.50988333933299
 31
0.0
100
AcDbText
  0
TEXT
  5
247
100
AcDbEntity
  8
0
 62
               7
100
AcDbText
 10
669.47843405284743
 20
436.5098833393331
 30
0.0
 40
12.000000000000012
  1
25
 50
90.000000000000028
 41
0.7695
  7
FontTableH_0
 72
               5
 11
669.47843405284743
 21
448.5098833393331
 31
0.0
100
AcDbText
  0
TEXT
  5
248
100
AcDbEntity
  8
0
 62
               7
100
AcDbText
 10
669.47843405284743
 20
468.0098833393331
 30
0.0
 40
12.000000000000012
  1
30
 50
90.000000000000028
 41
0.7695
  7
FontTableH_0
 72
               5
 11
669.47843405284743
 21
480.0098833393331
 31
0.0
100
AcDbText
  0
TEXT
  5
249
100
AcDbEntity
  8
0
 62
               7
100
AcDbText
 10
247.68318253048318
 20
127.80060482139822
 30
0.0
 40
12.000000000000012
  1
既存外壁
 41
0.7695
  7
FontTableH_0
 72
               5
 11
295.68318253048324
 21
127.80060482139822
 31
0.0
100
AcDbText
  0
TEXT
  5
24A
100
AcDbEntity
  8
0
 62
               7
100
AcDbText
 10
226.5250032199902
 20
300.87840513910402
 30
0.0
 40
12.000000000000012
  1
破風板
 41
0.7695
  7
FontTableH_0
 72
               5
 11
262.52500321999025
 21
300.87840513910402
 31
0.0
100
AcDbText
  0
TEXT
  5
24B
100
AcDbEntity
  8
0
 62
               7
100
AcDbText
 10
233.18884971234826
 20
380.88056521552505
 30
0.0
 40
12.000000000000012
  1
唐草
 41
0.7695
  7
FontTableH_0
 72
               5
 11
257.18884971234826
 21
380.88056521552505
 31
0.0
100
AcDbText
  0
TEXT
  5
24C
100
AcDbEntity
  8
0
 62
               7
100
AcDbText
 10
306.43089448507652
 20
435.66608330544886
 30
0.0
 40
12.000000000000012
  1
既存大波スレート
 41
0.7695
  7
FontTableH_0
 72
               5
 11
402.43089448507681
 21
435.66608330544886
 31
0.0
100
AcDbText
  0
TEXT
  5
24D
100
AcDbEntity
  8
0
 62
               7
100
AcDbText
 10
271.47843405284704
 20
495.00988333933344
 30
0.0
 40
12.000000000000012
  1
20
 41
0.7695
  7
FontTableH_0
 72
               5
 11
283.47843405284704
 21
495.00988333933344
 31
0.0
100
AcDbText
  0
TEXT
  5
24E
100
AcDbEntity
  8
0
 62
               7
100
AcDbText
 10
341.97843405284726
 20
513.00988333933344
 30
0.0
 40
12.000000000000012
  1
(割付により調整)
 41
0.7695
  7
FontTableH_0
 72
               5
 11
437.97843405284755
 21
513.00988333933344
 31
0.0
100
AcDbText
  0
TEXT
  5
24F
100
AcDbEntity
  8
0
 62
               7
100
AcDbText
 10
565.47843405284743
 20
513.00988333933344
 30
0.0
 40
12.000000000000012
  1
@385
 41
0.7695
  7
FontTableH_0
 72
               5
 11
589.47843405284743
 21
513.00988333933344
 31
0.0
100
AcDbText
  0
TEXT
  5
250
100
AcDbEntity
  8
0
 62
               7
100
AcDbText
 10
271.52379458130162
 20
539.45191783065786
 30
0.0
 40
12.000000000000353
  1
ハーパーズストロングルーフ385
 41
0.7695
  7
FontTableH_0
 72
               5
 11
445.52379458130201
 21
539.45191783065786
 31
0.0
100
AcDbText
  0
TEXT
  5
251
100
AcDbEntity
  8
0
 62
               7
100
AcDbText
 10
532.311740818207
 20
494.07992442149475
 30
0.0
 40
12.000000000000012
  1
吊子
 41
0.7695
  7
FontTableH_0
 72
               5
 11
556.311740818207
 21
494.07992442149475
 31
0.0
100
AcDbText
  0
TEXT
  5
252
100
AcDbEntity
  8
0
 62
               7
100
AcDbText
 10
569.46367633016166
 20
474.5431307471049
 30
0.0
 40
12.000000000000012
  1
断熱材
 41
0.7695
  7
FontTableH_0
 72
               5
 11
605.46367633016166
 21
474.5431307471049
 31
0.0
100
AcDbText
  0
TEXT
  5
253
100
AcDbEntity
  8
0
 62
               7
100
AcDbText
 10
483.42799273231248
 20
395.34237840247533
 30
0.0
 40
12.000000000000012
  1
金属垂木
 41
0.7695
  7
FontTableH_0
 72
               5
 11
531.42799273231253
 21
395.34237840247533
 31
0.0
100
AcDbText
  0
TEXT
  5
254
100
AcDbEntity
  8
0
 62
               7
100
AcDbText
 10
386.8657565925792
 20
245.25060869613856
 30
0.0
 40
12.000000000000012
  1
既存母屋
 41
0.7695
  7
FontTableH_0
 72
               5
 11
434.86575659257926
 21
245.25060869613856
 31
0.0
100
AcDbText
  0
TEXT
  5
255
100
AcDbEntity
  8
0
 62
               7
100
AcDbText
 10
413.68303156896565
 20
206.19034480009418
 30
0.0
 40
12.000000000000098
  1
既存チャンネルボルト
 41
0.7695
  7
FontTableH_0
 72
               5
 11
533.68303156896593
 21
206.19034480009418
 31
0.0
100
AcDbText
  0
TEXT
  5
256
100
AcDbEntity
  8
0
 62
               7
100
AcDbText
 10
48.642136696614457
 20
601.35786449547766
 30
0.0
 40
8.9999997615814422
  1
ジンクロンスレート
 41
0.7695
  7
FontTableH_0
 72
               5
 11
129.64213455084743
 21
601.35786449547766
 31
0.0
100
AcDbText
  0
TEXT
  5
257
100
AcDbEntity
  8
0
 62
               7
100
AcDbText
 10
740.28679787570559
 20
26.71320355480508
 30
0.0
 40
8.9999997615814422
  1
ケラバ詳細図 【S=1/3】
 41
0.7695
  7
FontTableH_0
 72
               5
 11
839.28679525310145
 21
26.71320355480508
 31
0.0
100
AcDbText
  0
ENDSEC
  0
SECTION
  2
OBJECTS
  0
DICTIONARY
  5
19
100
AcDbDictionary
  3
ACAD_GROUP
350
1A
  3
ACAD_MLINESTYLE
350
1B
  3
DWGPROPS
350
258
  0
DICTIONARY
  5
1A
102
{ACAD_REACTORS
330
19
102
}
100
AcDbDictionary
  0
DICTIONARY
  5
1B
102
{ACAD_REACTORS
330
19
102
}
100
AcDbDictionary
  3
STANDARD
350
1C
  0
MLINESTYLE
  5
1C
102
{ACAD_REACTORS
330
1B
102
}
100
AcDbMlineStyle
  2
Standard
 70
               0
  3

 62
               0
 51
90.0
 52
90.0
 71
               2
 49
0.5
 62
             256
  6
ByLayer
 49
-0.5
 62
             256
  6
ByLayer
  0
XRECORD
  5
258
100
AcDbXrecord
  1
DWGPROPS COOKIE
  2

  3

  4

  6

  7

  0
ENDSEC
  0
EOF
