  0
SECTION
  2
HEADER
  9
$ACADVER
  1
AC1014
  9
$ACADMAINTVER
 70
               0
  9
$DWGCODEPAGE
  3
ANSI_932
  9
$INSBASE
 10
0.0
 20
0.0
 30
0.0
  9
$EXTMIN
 10
0.0
 20
0.0
 30
0.0
  9
$EXTMAX
 10
891.00000000000091
 20
630.00000000000068
 30
0.0
  9
$LIMMIN
 10
0.0
 20
0.0
  9
$LIMMAX
 10
891.00000000000091
 20
630.00000000000068
  9
$ORTHOMODE
 70
               0
  9
$REGENMODE
 70
               1
  9
$FILLMODE
 70
               1
  9
$QTEXTMODE
 70
               0
  9
$MIRRTEXT
 70
               1
  9
$DRAGMODE
 70
               2
  9
$LTSCALE
 40
3.0000000000000031
  9
$OSMODE
 70
               0
  9
$ATTMODE
 70
               1
  9
$TEXTSIZE
 40
0.2
  9
$TRACEWID
 40
0.05
  9
$TEXTSTYLE
  7
Standard
  9
$CLAYER
  8
0
  9
$CELTYPE
  6
Continuous
  9
$CECOLOR
 62
             256
  9
$CELTSCALE
 40
1.0
  9
$DELOBJ
 70
               1
  9
$DISPSILH
 70
               0
  9
$DIMSCALE
 40
1.0
  9
$DIMASZ
 40
0.18
  9
$DIMEXO
 40
0.0625
  9
$DIMDLI
 40
0.38
  9
$DIMRND
 40
0.0
  9
$DIMDLE
 40
0.0
  9
$DIMEXE
 40
0.18
  9
$DIMTP
 40
0.0
  9
$DIMTM
 40
0.0
  9
$DIMTXT
 40
0.18
  9
$DIMCEN
 40
0.09
  9
$DIMTSZ
 40
0.0
  9
$DIMTOL
 70
               0
  9
$DIMLIM
 70
               0
  9
$DIMTIH
 70
               1
  9
$DIMTOH
 70
               1
  9
$DIMSE1
 70
               0
  9
$DIMSE2
 70
               0
  9
$DIMTAD
 70
               0
  9
$DIMZIN
 70
               0
  9
$DIMBLK
  1

  9
$DIMASO
 70
               1
  9
$DIMSHO
 70
               1
  9
$DIMPOST
  1

  9
$DIMAPOST
  1

  9
$DIMALT
 70
               0
  9
$DIMALTD
 70
               2
  9
$DIMALTF
 40
25.399999999999999
  9
$DIMLFAC
 40
1.0
  9
$DIMTOFL
 70
               0
  9
$DIMTVP
 40
0.0
  9
$DIMTIX
 70
               0
  9
$DIMSOXD
 70
               0
  9
$DIMSAH
 70
               0
  9
$DIMBLK1
  1

  9
$DIMBLK2
  1

  9
$DIMSTYLE
  2
Standard
  9
$DIMCLRD
 70
               0
  9
$DIMCLRE
 70
               0
  9
$DIMCLRT
 70
               0
  9
$DIMTFAC
 40
1.0
  9
$DIMGAP
 40
0.09
  9
$DIMJUST
 70
               0
  9
$DIMSD1
 70
               0
  9
$DIMSD2
 70
               0
  9
$DIMTOLJ
 70
               1
  9
$DIMTZIN
 70
               0
  9
$DIMALTZ
 70
               0
  9
$DIMALTTZ
 70
               0
  9
$DIMFIT
 70
               3
  9
$DIMUPT
 70
               0
  9
$DIMUNIT
 70
               2
  9
$DIMDEC
 70
               4
  9
$DIMTDEC
 70
               4
  9
$DIMALTU
 70
               2
  9
$DIMALTTD
 70
               2
  9
$DIMTXSTY
  7
Standard
  9
$DIMAUNIT
 70
               0
  9
$LUNITS
 70
               2
  9
$LUPREC
 70
               4
  9
$SKETCHINC
 40
0.1
  9
$FILLETRAD
 40
0.0
  9
$AUNITS
 70
               0
  9
$AUPREC
 70
               0
  9
$MENU
  1
acad
  9
$ELEVATION
 40
0.0
  9
$PELEVATION
 40
0.0
  9
$THICKNESS
 40
0.0
  9
$LIMCHECK
 70
               0
  9
$BLIPMODE
 70
               1
  9
$CHAMFERA
 40
0.0
  9
$CHAMFERB
 40
0.0
  9
$CHAMFERC
 40
0.0
  9
$CHAMFERD
 40
0.0
  9
$SKPOLY
 70
               0
  9
$TDCREATE
 40
0.000000000
  9
$TDUPDATE
 40
0.000000000
  9
$TDINDWG
 40
0.0000000000
  9
$TDUSRTIMER
 40
0.0000000000
  9
$USRTIMER
 70
               1
  9
$ANGBASE
 50
0.0
  9
$ANGDIR
 70
               0
  9
$PDMODE
 70
               0
  9
$PDSIZE
 40
0.0
  9
$PLINEWID
 40
0.0
  9
$COORDS
 70
               0
  9
$SPLFRAME
 70
               0
  9
$SPLINETYPE
 70
               6
  9
$SPLINESEGS
 70
               8
  9
$ATTDIA
 70
               0
  9
$ATTREQ
 70
               1
  9
$HANDLING
 70
               1
  9
$HANDSEED
  5
24A
  9
$SURFTAB1
 70
               6
  9
$SURFTAB2
 70
               6
  9
$SURFTYPE
 70
               6
  9
$SURFU
 70
               6
  9
$SURFV
 70
               6
  9
$UCSNAME
  2

  9
$UCSORG
 10
0.0
 20
0.0
 30
0.0
  9
$UCSXDIR
 10
1.0
 20
0.0
 30
0.0
  9
$UCSYDIR
 10
0.0
 20
1.0
 30
0.0
  9
$PUCSNAME
  2

  9
$PUCSORG
 10
0.0
 20
0.0
 30
0.0
  9
$PUCSXDIR
 10
1.0
 20
0.0
 30
0.0
  9
$PUCSYDIR
 10
0.0
 20
1.0
 30
0.0
  9
$USERI1
 70
               0
  9
$USERI2
 70
               0
  9
$USERI3
 70
               0
  9
$USERI4
 70
               0
  9
$USERI5
 70
               0
  9
$USERR1
 40
0.0
  9
$USERR2
 40
0.0
  9
$USERR3
 40
0.0
  9
$USERR4
 40
0.0
  9
$USERR5
 40
0.0
  9
$WORLDVIEW
 70
               1
  9
$SHADEDGE
 70
               3
  9
$SHADEDIF
 70
              70
  9
$TILEMODE
 70
               1
  9
$MAXACTVP
 70
              16
  9
$PINSBASE
 10
0.0
 20
0.0
 30
0.0
  9
$PLIMCHECK
 70
               0
  9
$PEXTMIN
 10
1.0000000000000000E+20
 20
1.0000000000000000E+20
 30
1.0000000000000000E+20
  9
$PEXTMAX
 10
-1.0000000000000000E+20
 20
-1.0000000000000000E+20
 30
-1.0000000000000000E+20
  9
$PLIMMIN
 10
0.0
 20
0.0
  9
$PLIMMAX
 10
12.0
 20
9.0
  9
$UNITMODE
 70
               0
  9
$VISRETAIN
 70
               0
  9
$PLINEGEN
 70
               1
  9
$PSLTSCALE
 70
               0
  9
$TREEDEPTH
 70
            3020
  9
$PICKSTYLE
 70
               1
  9
$CMLSTYLE
  2
Standard
  9
$CMLJUST
 70
               0
  9
$CMLSCALE
 40
1.0
  9
$PROXYGRAPHICS
 70
               0
  9
$MEASUREMENT
 70
               0
  0
ENDSEC
  0
SECTION
  2
CLASSES
  0
CLASS
  1
LWPOLYLINE
  2
AcDbPolyline
  3
"AutoCAD"
 90
        0
280
               0
281
               1
  0
CLASS
  1
IMAGE
  2
AcDbRasterImage
  3
ISM
 90
      127
280
               0
281
               1
  0
CLASS
  1
OLE2FRAME
  2
AcDbOle2Frame
  3
""
 90
        0
280
               0
281
               1
  0
CLASS
  1
HATCH
  2
AcDbHatch
  3
"ACAD_SEDONA"
 90
        0
280
               0
281
               1
  0
CLASS
  1
DICTIONARYVAR
  2
AcDbDictionaryVar
  3
"AutoCAD"
 90
        0
280
               0
281
               0
  0
CLASS
  1
RASTERVARIABLES
  2
AcDbRasterVariables
  3
ISM
 90
        0
280
               0
281
               0
  0
CLASS
  1
IMAGEDEF
  2
AcDbRasterImageDef
  3
ISM
 90
        0
280
               0
281
               0
  0
CLASS
  1
IMAGEDEF_REACTOR
  2
AcDbRasterImageDefReactor
  3
ISM
 90
        1
280
               0
281
               0
  0
CLASS
  1
IDBUFFER
  2
AcDbIdBuffer
  3
"Acad"
 90
        0
280
               0
281
               0
  0
CLASS
  1
SPATIAL_FILTER
  2
AcDbSpatialFilter
  3
"Acad"
 90
        0
280
               0
281
               0
  0
CLASS
  1
XRECORD
  2
AcDbXrecord
  3
"<Built In>"
 90
        0
280
               0
281
               0
  0
CLASS
  1
SORTENTSTABLE
  2
AcDbSortentsTable
  3
"AutoCAD"
 90
        0
280
               0
281
               0
  0
CLASS
  1
LAYER_INDEX
  2
AcDbLayerIndex
  3
"Acad"
 90
        0
280
               0
281
               0
  0
CLASS
  1
SPATIAL_INDEX
  2
AcDbSpatialIndex
  3
"Acad"
 90
        0
280
               0
281
               0
  0
CLASS
  1
OBJECT_PTR
  2
CAseDLPNTableRecord
  3
"ASE-LPNTableRecord"
 90
        1
280
               0
281
               0
  0
CLASS
  1
LAYOUT
  2
AcDbLayout
  3
"AutoCAD 2000"
 90
        0
280
               0
281
               0
  0
CLASS
  1
PLOTSETTINGS
  2
AcDbPlotSettings
  3
"AutoCAD 2000"
 90
        0
280
               0
281
               0
  0
CLASS
  1
ACDBDICTIONARYWDFLT
  2
AcDbDictionaryWithDefault
  3
"AutoCAD 2000"
 90
        0
280
               0
281
               0
  0
CLASS
  1
ACDBPLACEHOLDER
  2
AcDbPlaceHolder
  3
"AutoCAD 2000"
 90
        0
280
               0
281
               0
  0
CLASS
  1
VBA_PROJECT
  2
AcDbVbaProject
  3
"acadvba"
 90
        0
280
               0
281
               0
  0
CLASS
  1
WIPEOUT
  2
AcDbWipeout
  3
WipeOut|AutoCAD Express Tool|expresstools@autodesk.com
 90
      127
280
               0
281
               1
  0
CLASS
  1
WIPEOUTVARIABLES
  2
AcDbWipeoutVariables
  3
WipeOut|AutoCAD Express Tool|expresstools@autodesk.com
 90
        0
280
               0
281
               0
  0
CLASS
  1
RTEXT
  2
RText
  3
RText|AutoCAD Express Tool|expresstools@autodesk.com
 90
        0
280
               0
281
               1
  0
CLASS
  1
ARCALIGNEDTEXT
  2
AcDbArcAlignedText
  3
ATEXT|AutoCAD Express Tool|expresstools@autodesk.com
 90
        0
280
               0
281
               1
  0
ENDSEC
  0
SECTION
  2
TABLES
  0
TABLE
  2
VPORT
  5
7
100
AcDbSymbolTable
 70
               1
  0
VPORT
  5
15
100
AcDbSymbolTableRecord
100
AcDbViewportTableRecord
  2
*ACTIVE
 70
               0
 10
0.0
 20
0.0
 11
1.0
 21
1.0
 12
445.50000000000045
 22
315.00000000000034
 13
0.0
 23
0.0
 14
10.0
 24
10.0
 15
10.0
 25
10.0
 16
0.0
 26
0.0
 36
1.0
 17
0.0
 27
0.0
 37
0.0
 40
630.00000000000068
 41
1.4142857142857141
 42
50.0
 43
0.0
 44
0.0
 50
0.0
 51
0.0
 71
               0
 72
             100
 73
               1
 74
               1
 75
               0
 76
               0
 77
               0
 78
               0
  0
ENDTAB
  0
TABLE
  2
LTYPE
  5
4
100
AcDbSymbolTable
 70
              24
  0
LTYPE
  5
11
100
AcDbSymbolTableRecord
100
AcDbLinetypeTableRecord
  2
ByBlock
 70
              64
  3

 72
              65
 73
               0
 40
0.0
  0
LTYPE
  5
12
100
AcDbSymbolTableRecord
100
AcDbLinetypeTableRecord
  2
ByLayer
 70
              64
  3

 72
              65
 73
               0
 40
0.0
  0
LTYPE
  5
13
100
AcDbSymbolTableRecord
100
AcDbLinetypeTableRecord
  2
Continuous
 70
              64
  3
Solid line
 72
              65
 73
               0
 40
0.0
  0
LTYPE
  5
1D
100
AcDbSymbolTableRecord
100
AcDbLinetypeTableRecord
  2
DOT
 70
              64
  3
Dot . . . . . . . . . . . . . . . . . . . . . .
 72
              65
 73
               2
 40
6.3499999999999996
 49
0.35
 74
               0
 49
-6.0
 74
               0
  0
LTYPE
  5
1E
100
AcDbSymbolTableRecord
100
AcDbLinetypeTableRecord
  2
DASHED
 70
              64
  3
Dashed __ __ __ __ __ __ __ __ __ __ __ __ __ _
 72
              65
 73
               2
 40
12.699999999999999
 49
6.3499999999999996
 74
               0
 49
-6.3499999999999996
 74
               0
  0
LTYPE
  5
1F
100
AcDbSymbolTableRecord
100
AcDbLinetypeTableRecord
  2
DASHDOT
 70
              64
  3
Dash dot __ . __ . __ . __ . __ . __ . __ . __
 72
              65
 73
               4
 40
25.399999999999999
 49
12.699999999999999
 74
               0
 49
-6.0
 74
               0
 49
0.7
 74
               0
 49
-6.0
 74
               0
  0
LTYPE
  5
20
100
AcDbSymbolTableRecord
100
AcDbLinetypeTableRecord
  2
DIVIDE
 70
              64
  3
Divide ____ . . ____ . . ____ . . ____ . . ____
 72
              65
 73
               6
 40
31.75
 49
12.699999999999999
 74
               0
 49
-6.0
 74
               0
 49
0.875
 74
               0
 49
-6.0
 74
               0
 49
0.875
 74
               0
 49
-6.0
 74
               0
  0
LTYPE
  5
21
100
AcDbSymbolTableRecord
100
AcDbLinetypeTableRecord
  2
HIDDEN
 70
              64
  3
Hidden __ __ __ __ __ __ __ __ __ __ __ __ __ _
 72
              65
 73
               2
 40
9.5250000000000004
 49
6.3499999999999996
 74
               0
 49
-3.1749999999999998
 74
               0
  0
LTYPE
  5
22
100
AcDbSymbolTableRecord
100
AcDbLinetypeTableRecord
  2
CENTER
 70
              64
  3
Center ____ _ ____ _ ____ _ ____ _ ____ _ ____
 72
              65
 73
               4
 40
50.799999999999997
 49
31.75
 74
               0
 49
-6.3499999999999996
 74
               0
 49
6.3499999999999996
 74
               0
 49
-6.3499999999999996
 74
               0
  0
LTYPE
  5
23
100
AcDbSymbolTableRecord
100
AcDbLinetypeTableRecord
  2
PHANTOM
 70
              64
  3
Phantom ______  __  __  ______  __  __  ______
 72
              65
 73
               6
 40
63.5
 49
31.75
 74
               0
 49
-6.3499999999999996
 74
               0
 49
6.3499999999999996
 74
               0
 49
-6.3499999999999996
 74
               0
 49
6.3499999999999996
 74
               0
 49
-6.3499999999999996
 74
               0
  0
LTYPE
  5
24
100
AcDbSymbolTableRecord
100
AcDbLinetypeTableRecord
  2
ACAD_ISO02W100
 70
              64
  3
ISO dash __ __ __ __ __ __ __ __ __ __ __ __ __
 72
              65
 73
               2
 40
15.0
 49
12.0
 74
               0
 49
-3.0
 74
               0
  0
LTYPE
  5
25
100
AcDbSymbolTableRecord
100
AcDbLinetypeTableRecord
  2
ACAD_ISO03W100
 70
              64
  3
ISO dash space __ __ __ __ __ __ __ __ __ __ __ __ __ __
 72
              65
 73
               2
 40
30.0
 49
12.0
 74
               0
 49
-18.0
 74
               0
  0
LTYPE
  5
26
100
AcDbSymbolTableRecord
100
AcDbLinetypeTableRecord
  2
ACAD_ISO04W100
 70
              64
  3
ISO long-dash dot ____ . ____ . ____ . ____ . _
 72
              65
 73
               4
 40
30.0
 49
24.0
 74
               0
 49
-3.0
 74
               0
 49
0.0
 74
               0
 49
-3.0
 74
               0
  0
LTYPE
  5
27
100
AcDbSymbolTableRecord
100
AcDbLinetypeTableRecord
  2
ACAD_ISO05W100
 70
              64
  3
ISO long-dash double-dot ____ .. ____ .. ____ .
 72
              65
 73
               6
 40
33.0
 49
24.0
 74
               0
 49
-3.0
 74
               0
 49
0.0
 74
               0
 49
-3.0
 74
               0
 49
0.0
 74
               0
 49
-3.0
 74
               0
  0
LTYPE
  5
28
100
AcDbSymbolTableRecord
100
AcDbLinetypeTableRecord
  2
ACAD_ISO06W100
 70
              64
  3
ISO long-dash triple-dot ____ ... ____ ... ____
 72
              65
 73
               8
 40
36.0
 49
24.0
 74
               0
 49
-3.0
 74
               0
 49
0.0
 74
               0
 49
-3.0
 74
               0
 49
0.0
 74
               0
 49
-3.0
 74
               0
 49
0.0
 74
               0
 49
-3.0
 74
               0
  0
LTYPE
  5
29
100
AcDbSymbolTableRecord
100
AcDbLinetypeTableRecord
  2
ACAD_ISO07W100
 70
              64
  3
ISO dot . . . . . . . . . . . . . . . . . . . .
 72
              65
 73
               2
 40
3.0
 49
0.0
 74
               0
 49
-3.0
 74
               0
  0
LTYPE
  5
2A
100
AcDbSymbolTableRecord
100
AcDbLinetypeTableRecord
  2
ACAD_ISO08W100
 70
              64
  3
ISO long-dash short-dash ____ __ ____ __ ____ _
 72
              65
 73
               4
 40
36.0
 49
24.0
 74
               0
 49
-3.0
 74
               0
 49
6.0
 74
               0
 49
-3.0
 74
               0
  0
LTYPE
  5
2B
100
AcDbSymbolTableRecord
100
AcDbLinetypeTableRecord
  2
ACAD_ISO09W100
 70
              64
  3
ISO long-dash double-short-dash ____ __ __ ____
 72
              65
 73
               6
 40
45.0
 49
24.0
 74
               0
 49
-3.0
 74
               0
 49
6.0
 74
               0
 49
-3.0
 74
               0
 49
6.0
 74
               0
 49
-3.0
 74
               0
  0
LTYPE
  5
2C
100
AcDbSymbolTableRecord
100
AcDbLinetypeTableRecord
  2
ACAD_ISO10W100
 70
              64
  3
ISO dash dot __ . __ . __ . __ . __ . __ . __ .
 72
              65
 73
               4
 40
18.0
 49
12.0
 74
               0
 49
-3.0
 74
               0
 49
0.0
 74
               0
 49
-3.0
 74
               0
  0
LTYPE
  5
2D
100
AcDbSymbolTableRecord
100
AcDbLinetypeTableRecord
  2
ACAD_ISO11W100
 70
              64
  3
ISO double-dash dot __ __ . __ __ . __ __ . __ 
 72
              65
 73
               6
 40
33.0
 49
12.0
 74
               0
 49
-3.0
 74
               0
 49
12.0
 74
               0
 49
-3.0
 74
               0
 49
0.0
 74
               0
 49
-3.0
 74
               0
  0
LTYPE
  5
2E
100
AcDbSymbolTableRecord
100
AcDbLinetypeTableRecord
  2
ACAD_ISO12W100
 70
              64
  3
ISO dash double-dot __ . . __ . . __ . . __ . .
 72
              65
 73
               6
 40
21.0
 49
12.0
 74
               0
 49
-3.0
 74
               0
 49
0.0
 74
               0
 49
-3.0
 74
               0
 49
0.0
 74
               0
 49
-3.0
 74
               0
  0
LTYPE
  5
2F
100
AcDbSymbolTableRecord
100
AcDbLinetypeTableRecord
  2
ACAD_ISO13W100
 70
              64
  3
ISO double-dash double-dot __ __ . . __ __ . . 
 72
              65
 73
               8
 40
36.0
 49
12.0
 74
               0
 49
-3.0
 74
               0
 49
12.0
 74
               0
 49
-3.0
 74
               0
 49
0.0
 74
               0
 49
-3.0
 74
               0
 49
0.0
 74
               0
 49
-3.0
 74
               0
  0
LTYPE
  5
30
100
AcDbSymbolTableRecord
100
AcDbLinetypeTableRecord
  2
ACAD_ISO14W100
 70
              64
  3
ISO dash triple-dot __ . . . __ . . . __ . . . 
 72
              65
 73
               8
 40
24.0
 49
12.0
 74
               0
 49
-3.0
 74
               0
 49
0.0
 74
               0
 49
-3.0
 74
               0
 49
0.0
 74
               0
 49
-3.0
 74
               0
 49
0.0
 74
               0
 49
-3.0
 74
               0
  0
LTYPE
  5
31
100
AcDbSymbolTableRecord
100
AcDbLinetypeTableRecord
  2
ACAD_ISO15W100
 70
              64
  3
ISO double-dash double-dot __ __ . . __ __ . . 
 72
              65
 73
              10
 40
39.0
 49
12.0
 74
               0
 49
-3.0
 74
               0
 49
12.0
 74
               0
 49
-3.0
 74
               0
 49
0.0
 74
               0
 49
-3.0
 74
               0
 49
0.0
 74
               0
 49
-3.0
 74
               0
 49
0.0
 74
               0
 49
-3.0
 74
               0
  0
ENDTAB
  0
TABLE
  2
LAYER
  5
2
100
AcDbSymbolTable
 70
              16
  0
LAYER
  5
14
100
AcDbSymbolTableRecord
100
AcDbLayerTableRecord
  2
0
 70
               0
 62
               7
  6
Continuous
  0
LAYER
  5
35
100
AcDbSymbolTableRecord
100
AcDbLayerTableRecord
  2
Layer00001
 70
               0
 62
               7
  6
Continuous
  0
LAYER
  5
36
100
AcDbSymbolTableRecord
100
AcDbLayerTableRecord
  2
Layer00002
 70
               0
 62
               7
  6
Continuous
  0
LAYER
  5
37
100
AcDbSymbolTableRecord
100
AcDbLayerTableRecord
  2
Layer00003
 70
               0
 62
               7
  6
Continuous
  0
LAYER
  5
38
100
AcDbSymbolTableRecord
100
AcDbLayerTableRecord
  2
Layer00004
 70
               0
 62
               7
  6
Continuous
  0
LAYER
  5
39
100
AcDbSymbolTableRecord
100
AcDbLayerTableRecord
  2
Layer00005
 70
               0
 62
               7
  6
Continuous
  0
LAYER
  5
3A
100
AcDbSymbolTableRecord
100
AcDbLayerTableRecord
  2
Layer00006
 70
               0
 62
               7
  6
Continuous
  0
LAYER
  5
3B
100
AcDbSymbolTableRecord
100
AcDbLayerTableRecord
  2
Layer00007
 70
               0
 62
               7
  6
Continuous
  0
LAYER
  5
3C
100
AcDbSymbolTableRecord
100
AcDbLayerTableRecord
  2
Layer00008
 70
               0
 62
               7
  6
Continuous
  0
LAYER
  5
3D
100
AcDbSymbolTableRecord
100
AcDbLayerTableRecord
  2
Layer00009
 70
               0
 62
               7
  6
Continuous
  0
LAYER
  5
3E
100
AcDbSymbolTableRecord
100
AcDbLayerTableRecord
  2
Layer00010
 70
               0
 62
               7
  6
Continuous
  0
LAYER
  5
3F
100
AcDbSymbolTableRecord
100
AcDbLayerTableRecord
  2
Layer00011
 70
               0
 62
               7
  6
Continuous
  0
LAYER
  5
40
100
AcDbSymbolTableRecord
100
AcDbLayerTableRecord
  2
Layer00012
 70
               0
 62
               7
  6
Continuous
  0
LAYER
  5
41
100
AcDbSymbolTableRecord
100
AcDbLayerTableRecord
  2
Layer00013
 70
               0
 62
               7
  6
Continuous
  0
LAYER
  5
42
100
AcDbSymbolTableRecord
100
AcDbLayerTableRecord
  2
Layer00014
 70
               0
 62
               7
  6
Continuous
  0
LAYER
  5
43
100
AcDbSymbolTableRecord
100
AcDbLayerTableRecord
  2
Layer00015
 70
               0
 62
               7
  6
Continuous
  0
ENDTAB
  0
TABLE
  2
STYLE
  5
3
100
AcDbSymbolTable
 70
               4
  0
STYLE
  5
17
100
AcDbSymbolTableRecord
100
AcDbTextStyleTableRecord
  2
Standard
 70
               0
 40
0.0
 41
1.0
 50
0.0
 71
               0
 42
0.0
  3
txt.shx
  4
bigfont.shx
  0
STYLE
  5
32
100
AcDbSymbolTableRecord
100
AcDbTextStyleTableRecord
  2
STANDARD_T
 70
               4
 40
0.0
 41
1.0
 50
0.0
 71
               0
 42
0.0
  3
txt.shx
  4
bigfont.shx
  0
STYLE
  5
33
100
AcDbSymbolTableRecord
100
AcDbTextStyleTableRecord
  2
FontTableH_0
 70
               0
 40
0.0
 41
1.0
 50
0.0
 71
               0
 42
0.0
  3
MS Gothic.ttf
  4

1001
ACAD
1000
MS Gothic
1071
    32817
  0
STYLE
  5
34
100
AcDbSymbolTableRecord
100
AcDbTextStyleTableRecord
  2
FontTableV_0
 70
               0
 40
0.0
 41
1.0
 50
0.0
 71
               0
 42
0.0
  3
@MS Gothic.ttf
  4

1001
ACAD
1000
@MS Gothic
1071
    32817
  0
ENDTAB
  0
TABLE
  2
VIEW
  5
5
100
AcDbSymbolTable
 70
               0
  0
ENDTAB
  0
TABLE
  2
UCS
  5
6
100
AcDbSymbolTable
 70
               0
  0
ENDTAB
  0
TABLE
  2
APPID
  5
8
100
AcDbSymbolTable
 70
               1
  0
APPID
  5
16
100
AcDbSymbolTableRecord
100
AcDbRegAppTableRecord
  2
ACAD
 70
               0
  0
ENDTAB
  0
TABLE
  2
DIMSTYLE
  5
9
100
AcDbSymbolTable
 70
               1
  0
DIMSTYLE
105
18
100
AcDbSymbolTableRecord
100
AcDbDimStyleTableRecord
  2
Standard
 70
               0
  3

  4

  5

  6

  7

 40
1.0
 41
0.18
 42
0.0625
 43
0.38
 44
0.18
 45
0.0
 46
0.0
 47
0.0
 48
0.0
 71
               0
 72
               0
 73
               1
 74
               1
 75
               0
 76
               0
 77
               0
 78
               0
140
0.18
141
0.09
142
0.0
143
25.399999999999999
144
1.0
145
0.0
146
1.0
147
0.09
170
               0
171
               2
172
               0
173
               0
174
               0
175
               0
176
               0
177
               0
178
               0
270
               2
271
               4
272
               4
273
               2
274
               2
275
               0
280
               0
281
               0
282
               0
283
               1
284
               0
285
               0
286
               0
287
               0
288
               0
340
17
  0
ENDTAB
  0
TABLE
  2
BLOCK_RECORD
  5
1
100
AcDbSymbolTable
 70
               0
  0
BLOCK_RECORD
  5
A
100
AcDbSymbolTableRecord
100
AcDbBlockTableRecord
  2
*MODEL_SPACE
  0
BLOCK_RECORD
  5
B
100
AcDbSymbolTableRecord
100
AcDbBlockTableRecord
  2
*PAPER_SPACE
  0
ENDTAB
  0
ENDSEC
  0
SECTION
  2
BLOCKS
  0
BLOCK
  5
D
100
AcDbEntity
  8
0
100
AcDbBlockBegin
  2
*MODEL_SPACE
 70
               0
 10
0.0
 20
0.0
 30
0.0
  3
*MODEL_SPACE
  1

  0
ENDBLK
  5
E
100
AcDbEntity
  8
0
100
AcDbBlockEnd
  0
BLOCK
  5
F
100
AcDbEntity
 67
               1
  8
0
100
AcDbBlockBegin
  2
*PAPER_SPACE
 70
               0
 10
0.0
 20
0.0
 30
0.0
  3
*PAPER_SPACE
  1

  0
ENDBLK
  5
10
100
AcDbEntity
 67
               1
  8
0
100
AcDbBlockEnd
  0
ENDSEC
  0
SECTION
  2
ENTITIES
  0
LINE
  5
44
100
AcDbEntity
  8
0
  6
Continuous
 62
               4
100
AcDbLine
 10
652.64405590101796
 20
449.05320879307209
 30
0.0
 11
676.64405590101796
 21
449.05320879307209
 31
0.0
  0
LINE
  5
45
100
AcDbEntity
  8
0
  6
Continuous
 62
               4
100
AcDbLine
 10
652.64405590101796
 20
419.05320879307197
 30
0.0
 11
676.64405590101796
 21
419.05320879307197
 31
0.0
  0
LINE
  5
46
100
AcDbEntity
  8
0
  6
Continuous
 62
               4
100
AcDbLine
 10
673.64405590101796
 20
449.05320879307209
 30
0.0
 11
673.64405590101796
 21
419.05320879307197
 31
0.0
  0
LINE
  5
47
100
AcDbEntity
  8
0
  6
Continuous
 62
               4
100
AcDbLine
 10
652.64405590101796
 20
415.05320879307197
 30
0.0
 11
676.64405590101796
 21
415.05320879307197
 31
0.0
  0
LINE
  5
48
100
AcDbEntity
  8
0
  6
Continuous
 62
               4
100
AcDbLine
 10
652.64405590101796
 20
403.05320879307197
 30
0.0
 11
676.64405590101796
 21
403.05320879307197
 31
0.0
  0
LINE
  5
49
100
AcDbEntity
  8
0
  6
Continuous
 62
               4
100
AcDbLine
 10
673.64405590101796
 20
415.05320879307197
 30
0.0
 11
673.64405590101796
 21
403.05320879307197
 31
0.0
  0
LINE
  5
4A
100
AcDbEntity
  8
0
  6
Continuous
 62
               4
100
AcDbLine
 10
652.64405590101751
 20
373.05320879307192
 30
0.0
 11
676.64405590101796
 21
373.05320879307192
 31
0.0
  0
LINE
  5
4B
100
AcDbEntity
  8
0
  6
Continuous
 62
               4
100
AcDbLine
 10
673.64405590101796
 20
403.05320879307197
 30
0.0
 11
673.64405590101796
 21
373.05320879307192
 31
0.0
  0
LINE
  5
4C
100
AcDbEntity
  8
0
  6
Continuous
 62
               4
100
AcDbLine
 10
276.64405590101717
 20
425.05320879307197
 30
0.0
 11
276.64405590101717
 21
458.05320879307197
 31
0.0
  0
LINE
  5
4D
100
AcDbEntity
  8
0
  6
Continuous
 62
               4
100
AcDbLine
 10
296.64405590101751
 20
422.55320879307197
 30
0.0
 11
296.64405590101751
 21
458.05320879307197
 31
0.0
  0
LINE
  5
4E
100
AcDbEntity
  8
0
  6
Continuous
 62
               4
100
AcDbLine
 10
276.64405590101717
 20
455.05320879307197
 30
0.0
 11
296.64405590101751
 21
455.05320879307197
 31
0.0
  0
LINE
  5
4F
100
AcDbEntity
  8
0
  6
Continuous
 62
               4
100
AcDbLine
 10
276.64405590101717
 20
425.05320879307197
 30
0.0
 11
276.64405590101717
 21
485.05320879307197
 31
0.0
  0
LINE
  5
50
100
AcDbEntity
  8
0
  6
Continuous
 62
               4
100
AcDbLine
 10
276.64405590101717
 20
482.05320879307197
 30
0.0
 11
546.64405590101785
 21
482.05320879307197
 31
0.0
  0
LINE
  5
51
100
AcDbEntity
  8
0
  6
Continuous
 62
               4
100
AcDbLine
 10
546.64405590101785
 20
482.05320879307197
 30
0.0
 11
646.64405590101796
 21
482.05320879307197
 31
0.0
  0
LINE
  5
52
100
AcDbEntity
  8
0
  6
Continuous
 62
               4
100
AcDbLine
 10
613.6730917528389
 20
388.78391834656981
 30
0.0
 11
631.48880675310329
 21
455.27307190072298
 31
0.0
  0
LINE
  5
53
100
AcDbEntity
  8
0
  6
Continuous
 62
               4
100
AcDbLine
 10
631.48880675310329
 20
455.27307190072298
 30
0.0
 11
669.65827085582168
 21
455.27307190072298
 31
0.0
  0
LINE
  5
54
100
AcDbEntity
  8
0
  6
Continuous
 62
               4
100
AcDbLine
 10
613.6730917528389
 20
388.78391834656981
 30
0.0
 11
614.45749343756779
 21
397.74967062939555
 31
0.0
  0
LINE
  5
55
100
AcDbEntity
  8
0
  6
Continuous
 62
               4
100
AcDbLine
 10
613.6730917528389
 20
388.78391834656981
 30
0.0
 11
617.47665610850527
 21
396.94068842989958
 31
0.0
  0
LINE
  5
56
100
AcDbEntity
  8
0
  6
Continuous
 62
               4
100
AcDbLine
 10
603.8827521251942
 20
410.343747316676
 30
0.0
 11
627.73315440300485
 21
499.35466039842089
 31
0.0
  0
LINE
  5
57
100
AcDbEntity
  8
0
  6
Continuous
 62
               4
100
AcDbLine
 10
627.73315440300485
 20
499.35466039842089
 30
0.0
 11
665.24855637128758
 21
499.35466039842089
 31
0.0
  0
LINE
  5
58
100
AcDbEntity
  8
0
  6
Continuous
 62
               4
100
AcDbLine
 10
603.8827521251942
 20
410.343747316676
 30
0.0
 11
604.66715380992309
 21
419.30949959950163
 31
0.0
  0
LINE
  5
59
100
AcDbEntity
  8
0
  6
Continuous
 62
               4
100
AcDbLine
 10
603.8827521251942
 20
410.343747316676
 30
0.0
 11
607.68631648086057
 21
418.50051740000578
 31
0.0
  0
LINE
  5
5A
100
AcDbEntity
  8
0
  6
Continuous
 62
               4
100
AcDbLine
 10
546.64405590101785
 20
424.35620252561586
 30
0.0
 11
531.30614218347944
 21
450.92224836649967
 31
0.0
  0
LINE
  5
5B
100
AcDbEntity
  8
0
  6
Continuous
 62
               4
100
AcDbLine
 10
531.30614218347944
 20
450.92224836649967
 30
0.0
 11
507.06626703855375
 21
450.92224836649967
 31
0.0
  0
LINE
  5
5C
100
AcDbEntity
  8
0
  6
Continuous
 62
               4
100
AcDbLine
 10
546.64405590101785
 20
424.35620252561586
 30
0.0
 11
540.85896741383874
 21
431.25060251368672
 31
0.0
  0
LINE
  5
5D
100
AcDbEntity
  8
0
  6
Continuous
 62
               4
100
AcDbLine
 10
546.64405590101785
 20
424.35620252561586
 30
0.0
 11
543.56587461108654
 21
432.81343611268898
 31
0.0
  0
LINE
  5
5E
100
AcDbEntity
  8
0
  6
Continuous
 62
               4
100
AcDbLine
 10
490.49033544695692
 20
419.05320879307197
 30
0.0
 11
464.36971200101027
 21
516.53670261871935
 31
0.0
  0
LINE
  5
5F
100
AcDbEntity
  8
0
  6
Continuous
 62
               4
100
AcDbLine
 10
464.36971200101027
 20
516.53670261871935
 30
0.0
 11
288.94399442858128
 21
516.53670261871935
 31
0.0
  0
LINE
  5
60
100
AcDbEntity
  8
0
  6
Continuous
 62
               4
100
AcDbLine
 10
490.49033544695692
 20
419.05320879307197
 30
0.0
 11
486.68677109129067
 21
427.20997887640186
 31
0.0
  0
LINE
  5
61
100
AcDbEntity
  8
0
  6
Continuous
 62
               4
100
AcDbLine
 10
490.49033544695692
 20
419.05320879307197
 30
0.0
 11
489.70593376222803
 21
428.01896107589772
 31
0.0
  0
LINE
  5
62
100
AcDbEntity
  8
0
  6
Continuous
 62
               4
100
AcDbLine
 10
270.64405590101717
 20
416.55320879307197
 30
0.0
 11
246.64405590101717
 21
416.55320879307197
 31
0.0
  0
LINE
  5
63
100
AcDbEntity
  8
0
  6
Continuous
 62
               4
100
AcDbLine
 10
290.64405590101751
 20
366.55320879307186
 30
0.0
 11
246.64405590101717
 21
366.55320879307186
 31
0.0
  0
LINE
  5
64
100
AcDbEntity
  8
0
  6
Continuous
 62
               4
100
AcDbLine
 10
249.64405590101717
 20
416.55320879307197
 30
0.0
 11
249.64405590101717
 21
366.55320879307186
 31
0.0
  0
LINE
  5
65
100
AcDbEntity
  8
0
  6
Continuous
 62
               4
100
AcDbLine
 10
341.46388827335329
 20
104.96807285402974
 30
0.0
 11
309.64133385552725
 21
136.79062727185573
 31
0.0
  0
LINE
  5
66
100
AcDbEntity
  8
0
  6
Continuous
 62
               4
100
AcDbLine
 10
309.64133385552725
 20
136.79062727185573
 30
0.0
 11
257.02936944714679
 21
136.79062727185573
 31
0.0
  0
LINE
  5
67
100
AcDbEntity
  8
0
  6
Continuous
 62
               4
100
AcDbLine
 10
341.46388827335329
 20
104.96807285402974
 30
0.0
 11
334.09151987475229
 21
110.13026078118918
 31
0.0
  0
LINE
  5
68
100
AcDbEntity
  8
0
  6
Continuous
 62
               4
100
AcDbLine
 10
341.46388827335329
 20
104.96807285402974
 30
0.0
 11
336.30170034619391
 21
112.34044125263065
 31
0.0
  0
LINE
  5
69
100
AcDbEntity
  8
0
  6
Continuous
 62
               4
100
AcDbLine
 10
296.64405590101751
 20
391.55320879307197
 30
0.0
 11
256.73041570213343
 21
322.4207560535811
 31
0.0
  0
LINE
  5
6A
100
AcDbEntity
  8
0
  6
Continuous
 62
               4
100
AcDbLine
 10
256.73041570213343
 20
322.4207560535811
 30
0.0
 11
230.46123132406058
 21
322.4207560535811
 31
0.0
  0
LINE
  5
6B
100
AcDbEntity
  8
0
  6
Continuous
 62
               4
100
AcDbLine
 10
296.64405590101751
 20
391.55320879307197
 30
0.0
 11
293.56587461108643
 21
383.09597520599885
 31
0.0
  0
LINE
  5
6C
100
AcDbEntity
  8
0
  6
Continuous
 62
               4
100
AcDbLine
 10
296.64405590101751
 20
391.55320879307197
 30
0.0
 11
290.85896741383863
 21
384.65880880500123
 31
0.0
  0
LINE
  5
6D
100
AcDbEntity
  8
0
  6
Continuous
 62
               4
100
AcDbLine
 10
301.64405590101762
 20
336.25664927872288
 30
0.0
 11
270.01095545607996
 21
281.46651210716175
 31
0.0
  0
LINE
  5
6E
100
AcDbEntity
  8
0
  6
Continuous
 62
               4
100
AcDbLine
 10
270.01095545607996
 20
281.46651210716175
 30
0.0
 11
231.74368882019655
 21
281.46651210716175
 31
0.0
  0
LINE
  5
6F
100
AcDbEntity
  8
0
  6
Continuous
 62
               4
100
AcDbLine
 10
301.64405590101762
 20
336.25664927872288
 30
0.0
 11
298.56587461108654
 21
327.7994156916497
 31
0.0
  0
LINE
  5
70
100
AcDbEntity
  8
0
  6
Continuous
 62
               4
100
AcDbLine
 10
301.64405590101762
 20
336.25664927872288
 30
0.0
 11
295.85896741383874
 21
329.36224929065213
 31
0.0
  0
LINE
  5
71
100
AcDbEntity
  8
0
  6
Continuous
 62
               4
100
AcDbLine
 10
540.6440559010174
 20
387.05320879307197
 30
0.0
 11
585.61728425643378
 21
219.21083559025942
 31
0.0
  0
LINE
  5
72
100
AcDbEntity
  8
0
  6
Continuous
 62
               4
100
AcDbLine
 10
585.61728425643378
 20
219.21083559025942
 30
0.0
 11
673.16046960270251
 21
219.21083559025942
 31
0.0
  0
LINE
  5
73
100
AcDbEntity
  8
0
  6
Continuous
 62
               4
100
AcDbLine
 10
540.6440559010174
 20
387.05320879307197
 30
0.0
 11
544.44762025668354
 21
378.89643870974209
 31
0.0
  0
LINE
  5
74
100
AcDbEntity
  8
0
  6
Continuous
 62
               4
100
AcDbLine
 10
540.6440559010174
 20
387.05320879307197
 30
0.0
 11
541.42845758574629
 21
378.08745651024617
 31
0.0
  0
LINE
  5
75
100
AcDbEntity
  8
0
  6
Continuous
 62
               4
100
AcDbLine
 10
472.80614193655015
 20
268.62157747588572
 30
0.0
 11
494.16028449409214
 21
188.92683249906901
 31
0.0
  0
LINE
  5
76
100
AcDbEntity
  8
0
  6
Continuous
 62
               4
100
AcDbLine
 10
494.16028449409214
 20
188.92683249906901
 30
0.0
 11
545.51151287936329
 21
188.92683249906901
 31
0.0
  0
LINE
  5
77
100
AcDbEntity
  8
0
  6
Continuous
 62
               4
100
AcDbLine
 10
472.80614193655015
 20
268.62157747588572
 30
0.0
 11
476.6097062922164
 21
260.46480739255588
 31
0.0
  0
LINE
  5
78
100
AcDbEntity
  8
0
  6
Continuous
 62
               4
100
AcDbLine
 10
472.80614193655015
 20
268.62157747588572
 30
0.0
 11
473.59054362127904
 21
259.65582519306002
 31
0.0
  0
LINE
  5
79
100
AcDbEntity
  8
0
  6
Continuous
 62
               4
100
AcDbLine
 10
539.6440559010174
 20
394.05320879307197
 30
0.0
 11
539.6440559010174
 21
400.05320879307197
 31
0.0
  0
LINE
  5
7A
100
AcDbEntity
  8
0
  6
DASHED
 62
               4
100
AcDbLine
 10
538.6440559010174
 20
395.05320879307197
 30
0.0
 11
538.6440559010174
 21
400.05320879307197
 31
0.0
  0
LINE
  5
7B
100
AcDbEntity
  8
0
  6
Continuous
 62
               4
100
AcDbLine
 10
537.6440559010174
 20
400.05320879307197
 30
0.0
 11
537.6440559010174
 21
395.05320879307197
 31
0.0
  0
LINE
  5
7C
100
AcDbEntity
  8
0
  6
DASHED
 62
               4
100
AcDbLine
 10
536.6440559010174
 20
401.05320879307197
 30
0.0
 11
536.6440559010174
 21
395.05320879307197
 31
0.0
  0
LINE
  5
7D
100
AcDbEntity
  8
0
  6
Continuous
 62
               4
100
AcDbLine
 10
535.6440559010174
 20
394.05320879307197
 30
0.0
 11
535.6440559010174
 21
402.05320879307197
 31
0.0
  0
LINE
  5
7E
100
AcDbEntity
  8
0
  6
Continuous
 62
               4
100
AcDbLine
 10
538.6440559010174
 20
393.05320879307197
 30
0.0
 11
536.6440559010174
 21
393.05320879307197
 31
0.0
  0
LINE
  5
7F
100
AcDbEntity
  8
0
  6
DASHED
 62
               4
100
AcDbLine
 10
537.6440559010174
 20
402.05320879307197
 30
0.0
 11
540.6440559010174
 21
402.05320879307197
 31
0.0
  0
LINE
  5
80
100
AcDbEntity
  8
0
  6
Continuous
 62
               4
100
AcDbLine
 10
542.6440559010174
 20
396.05320879307197
 30
0.0
 11
542.6440559010174
 21
402.05320879307197
 31
0.0
  0
LINE
  5
81
100
AcDbEntity
  8
0
  6
Continuous
 62
               4
100
AcDbLine
 10
539.6440559010174
 20
401.05320879307197
 30
0.0
 11
538.6440559010174
 21
401.05320879307197
 31
0.0
  0
LINE
  5
82
100
AcDbEntity
  8
0
  6
Continuous
 62
               4
100
AcDbLine
 10
583.64405590101751
 20
394.05320879307197
 30
0.0
 11
583.64405590101751
 21
400.05320879307197
 31
0.0
  0
LINE
  5
83
100
AcDbEntity
  8
0
  6
DASHED
 62
               4
100
AcDbLine
 10
584.64405590101751
 20
395.05320879307197
 30
0.0
 11
584.64405590101751
 21
400.05320879307197
 31
0.0
  0
LINE
  5
84
100
AcDbEntity
  8
0
  6
Continuous
 62
               4
100
AcDbLine
 10
585.64405590101751
 20
400.05320879307197
 30
0.0
 11
585.64405590101751
 21
395.05320879307197
 31
0.0
  0
LINE
  5
85
100
AcDbEntity
  8
0
  6
DASHED
 62
               4
100
AcDbLine
 10
586.64405590101751
 20
401.05320879307197
 30
0.0
 11
586.64405590101751
 21
395.05320879307197
 31
0.0
  0
LINE
  5
86
100
AcDbEntity
  8
0
  6
Continuous
 62
               4
100
AcDbLine
 10
587.64405590101751
 20
394.05320879307197
 30
0.0
 11
587.64405590101751
 21
402.05320879307197
 31
0.0
  0
LINE
  5
87
100
AcDbEntity
  8
0
  6
Continuous
 62
               4
100
AcDbLine
 10
584.64405590101751
 20
393.05320879307197
 30
0.0
 11
586.64405590101751
 21
393.05320879307197
 31
0.0
  0
LINE
  5
88
100
AcDbEntity
  8
0
  6
DASHED
 62
               4
100
AcDbLine
 10
585.64405590101751
 20
402.05320879307197
 30
0.0
 11
582.64405590101751
 21
402.05320879307197
 31
0.0
  0
LINE
  5
89
100
AcDbEntity
  8
0
  6
Continuous
 62
               4
100
AcDbLine
 10
580.64405590101751
 20
396.05320879307197
 30
0.0
 11
580.64405590101751
 21
402.05320879307197
 31
0.0
  0
LINE
  5
8A
100
AcDbEntity
  8
0
  6
Continuous
 62
               4
100
AcDbLine
 10
583.64405590101751
 20
401.05320879307197
 30
0.0
 11
584.64405590101751
 21
401.05320879307197
 31
0.0
  0
LINE
  5
8B
100
AcDbEntity
  8
0
  6
Continuous
 62
               4
100
AcDbLine
 10
543.6440559010174
 20
395.05320879307197
 30
0.0
 11
579.64405590101751
 21
395.05320879307197
 31
0.0
  0
LINE
  5
8C
100
AcDbEntity
  8
0
  6
Continuous
 62
               4
100
AcDbLine
 10
532.6440559010174
 20
375.05320879307192
 30
0.0
 11
532.6440559010174
 21
400.05320879307197
 31
0.0
  0
LINE
  5
8D
100
AcDbEntity
  8
0
  6
Continuous
 62
               4
100
AcDbLine
 10
590.64405590101751
 20
374.05320879307192
 30
0.0
 11
590.64405590101751
 21
399.05320879307197
 31
0.0
  0
LINE
  5
8E
100
AcDbEntity
  8
0
  6
Continuous
 62
               4
100
AcDbLine
 10
336.64405590101751
 20
358.05320879307192
 30
0.0
 11
336.64405590101751
 21
370.05320879307192
 31
0.0
  0
LINE
  5
8F
100
AcDbEntity
  8
0
  6
Continuous
 62
               4
100
AcDbLine
 10
532.6440559010174
 20
375.05320879307192
 30
0.0
 11
376.80091543590243
 21
375.05320879307192
 31
0.0
  0
LINE
  5
90
100
AcDbEntity
  8
0
  6
Continuous
 62
               4
100
AcDbLine
 10
532.6440559010174
 20
400.05320879307197
 30
0.0
 11
336.64405590101751
 21
400.05320879307197
 31
0.0
  0
LINE
  5
91
100
AcDbEntity
  8
0
  6
Continuous
 62
               4
100
AcDbLine
 10
304.64405590101751
 20
398.85320879307193
 30
0.0
 11
304.64405590101751
 21
400.05320879307197
 31
0.0
  0
LINE
  5
92
100
AcDbEntity
  8
0
  6
Continuous
 62
               4
100
AcDbLine
 10
334.64405590101751
 20
376.25320879307196
 30
0.0
 11
334.64405590101751
 21
400.05320879307197
 31
0.0
  0
LINE
  5
93
100
AcDbEntity
  8
0
  6
Continuous
 62
               4
100
AcDbLine
 10
364.64405590101751
 20
375.05320879307192
 30
0.0
 11
364.64405590101751
 21
376.25320879307196
 31
0.0
  0
LINE
  5
94
100
AcDbEntity
  8
0
  6
Continuous
 62
               4
100
AcDbLine
 10
364.64405590101751
 20
376.25320879307196
 30
0.0
 11
334.64405590101751
 21
376.25320879307196
 31
0.0
  0
LINE
  5
95
100
AcDbEntity
  8
0
  6
Continuous
 62
               4
100
AcDbLine
 10
333.44405590101758
 20
375.05320879307192
 30
0.0
 11
333.44405590101758
 21
398.85320879307193
 31
0.0
  0
LINE
  5
96
100
AcDbEntity
  8
0
  6
Continuous
 62
               4
100
AcDbLine
 10
333.44405590101758
 20
398.85320879307193
 30
0.0
 11
304.64405590101751
 21
398.85320879307193
 31
0.0
  0
LINE
  5
97
100
AcDbEntity
  8
0
  6
Continuous
 62
               4
100
AcDbLine
 10
336.64405590101751
 20
376.25320879307196
 30
0.0
 11
336.64405590101751
 21
400.05320879307197
 31
0.0
  0
LINE
  5
98
100
AcDbEntity
  8
0
  6
Continuous
 62
               4
100
AcDbLine
 10
334.64405590101751
 20
400.05320879307197
 30
0.0
 11
304.64405590101751
 21
400.05320879307197
 31
0.0
  0
LINE
  5
99
100
AcDbEntity
  8
0
  6
Continuous
 62
               4
100
AcDbLine
 10
364.64405590101751
 20
376.25320879307196
 30
0.0
 11
376.80091543590243
 21
375.05320879307192
 31
0.0
  0
LINE
  5
9A
100
AcDbEntity
  8
0
  6
Continuous
 62
               4
100
AcDbLine
 10
364.64405590101751
 20
375.05320879307192
 30
0.0
 11
333.44405590101758
 21
375.05320879307192
 31
0.0
  0
LINE
  5
9B
100
AcDbEntity
  8
0
  6
Continuous
 62
               4
100
AcDbLine
 10
296.64405590101751
 20
366.55320879307192
 30
0.0
 11
296.64405590101751
 21
416.55320879307197
 31
0.0
  0
LINE
  5
9C
100
AcDbEntity
  8
0
  6
Continuous
 62
               4
100
AcDbLine
 10
298.14405590101751
 20
366.55320879307192
 30
0.0
 11
301.26932384052691
 21
376.05229823923855
 31
0.0
  0
LINE
  5
9D
100
AcDbEntity
  8
0
  6
Continuous
 62
               4
100
AcDbLine
 10
346.18891891471606
 20
376.48856838211304
 30
0.0
 11
356.18891891471606
 21
376.48856838211304
 31
0.0
  0
LINE
  5
9E
100
AcDbEntity
  8
0
  6
Continuous
 62
               4
100
AcDbLine
 10
348.68891891471606
 20
333.48856838211282
 30
0.0
 11
353.68891891471606
 21
333.48856838211282
 31
0.0
  0
LINE
  5
9F
100
AcDbEntity
  8
0
  6
Continuous
 62
               4
100
AcDbLine
 10
348.68891891471606
 20
373.68856838211309
 30
0.0
 11
353.68891891471606
 21
373.68856838211309
 31
0.0
  0
LINE
  5
A0
100
AcDbEntity
  8
0
  6
Continuous
 62
               4
100
AcDbLine
 10
348.68891891471606
 20
333.48856838211282
 30
0.0
 11
348.68891891471606
 21
373.68856838211309
 31
0.0
  0
LINE
  5
A1
100
AcDbEntity
  8
0
  6
Continuous
 62
               4
100
AcDbLine
 10
353.68891891471606
 20
333.48856838211282
 30
0.0
 11
353.68891891471606
 21
373.68856838211309
 31
0.0
  0
LINE
  5
A2
100
AcDbEntity
  8
0
  6
Continuous
 62
               4
100
AcDbLine
 10
348.68891891471606
 20
373.68856838211309
 30
0.0
 11
346.18891891471606
 21
376.48856838211304
 31
0.0
  0
LINE
  5
A3
100
AcDbEntity
  8
0
  6
Continuous
 62
               4
100
AcDbLine
 10
353.68891891471606
 20
373.68856838211309
 30
0.0
 11
356.18891891471606
 21
376.48856838211304
 31
0.0
  0
LINE
  5
A4
100
AcDbEntity
  8
0
  6
Continuous
 62
               4
100
AcDbLine
 10
348.68891891471606
 20
333.48856838211282
 30
0.0
 11
351.18891891471606
 21
331.48856838211282
 31
0.0
  0
LINE
  5
A5
100
AcDbEntity
  8
0
  6
Continuous
 62
               4
100
AcDbLine
 10
351.18891891471606
 20
331.48856838211282
 30
0.0
 11
353.68891891471606
 21
333.48856838211282
 31
0.0
  0
LINE
  5
A6
100
AcDbEntity
  8
0
  6
Continuous
 62
               4
100
AcDbLine
 10
353.68891891471606
 20
334.85315578332234
 30
0.0
 11
348.68891891471606
 21
333.97152087977997
 31
0.0
  0
LINE
  5
A7
100
AcDbEntity
  8
0
  6
Continuous
 62
               4
100
AcDbLine
 10
353.68891891471606
 20
335.86858239520802
 30
0.0
 11
348.68891891471606
 21
334.98694749166566
 31
0.0
  0
LINE
  5
A8
100
AcDbEntity
  8
0
  6
Continuous
 62
               4
100
AcDbLine
 10
353.68891891471606
 20
336.88400900709371
 30
0.0
 11
348.68891891471606
 21
336.00237410355135
 31
0.0
  0
LINE
  5
A9
100
AcDbEntity
  8
0
  6
Continuous
 62
               4
100
AcDbLine
 10
353.68891891471606
 20
337.89943561897962
 30
0.0
 11
348.68891891471606
 21
337.01780071543726
 31
0.0
  0
LINE
  5
AA
100
AcDbEntity
  8
0
  6
Continuous
 62
               4
100
AcDbLine
 10
353.68891891471606
 20
338.91486223086531
 30
0.0
 11
348.68891891471606
 21
338.03322732732295
 31
0.0
  0
LINE
  5
AB
100
AcDbEntity
  8
0
  6
Continuous
 62
               4
100
AcDbLine
 10
353.68891891471606
 20
339.930288842751
 30
0.0
 11
348.68891891471606
 21
339.04865393920863
 31
0.0
  0
LINE
  5
AC
100
AcDbEntity
  8
0
  6
Continuous
 62
               4
100
AcDbLine
 10
353.68891891471606
 20
340.94571545463668
 30
0.0
 11
348.68891891471606
 21
340.06408055109432
 31
0.0
  0
LINE
  5
AD
100
AcDbEntity
  8
0
  6
Continuous
 62
               4
100
AcDbLine
 10
353.68891891471606
 20
341.9611420665226
 30
0.0
 11
348.68891891471606
 21
341.07950716298024
 31
0.0
  0
LINE
  5
AE
100
AcDbEntity
  8
0
  6
Continuous
 62
               4
100
AcDbLine
 10
353.68891891471606
 20
342.97656867840828
 30
0.0
 11
348.68891891471606
 21
342.09493377486592
 31
0.0
  0
LINE
  5
AF
100
AcDbEntity
  8
0
  6
Continuous
 62
               4
100
AcDbLine
 10
353.68891891471606
 20
343.99199529029397
 30
0.0
 11
348.68891891471606
 21
343.11036038675184
 31
0.0
  0
LINE
  5
B0
100
AcDbEntity
  8
0
  6
Continuous
 62
               4
100
AcDbLine
 10
353.68891891471606
 20
345.00742190217989
 30
0.0
 11
348.68891891471606
 21
344.12578699863752
 31
0.0
  0
LINE
  5
B1
100
AcDbEntity
  8
0
  6
Continuous
 62
               4
100
AcDbLine
 10
353.68891891471606
 20
346.02284851406557
 30
0.0
 11
348.68891891471606
 21
345.14121361052321
 31
0.0
  0
LINE
  5
B2
100
AcDbEntity
  8
0
  6
Continuous
 62
               4
100
AcDbLine
 10
353.68891891471606
 20
347.03827512595126
 30
0.0
 11
348.68891891471606
 21
346.1566402224089
 31
0.0
  0
LINE
  5
B3
100
AcDbEntity
  8
0
  6
Continuous
 62
               4
100
AcDbLine
 10
353.68891891471606
 20
348.05370173783695
 30
0.0
 11
348.68891891471606
 21
347.17206683429481
 31
0.0
  0
LINE
  5
B4
100
AcDbEntity
  8
0
  6
Continuous
 62
               4
100
AcDbLine
 10
353.68891891471606
 20
349.06912834972286
 30
0.0
 11
348.68891891471606
 21
348.1874934461805
 31
0.0
  0
LINE
  5
B5
100
AcDbEntity
  8
0
  6
Continuous
 62
               4
100
AcDbLine
 10
353.68891891471606
 20
350.08455496160855
 30
0.0
 11
348.68891891471606
 21
349.20292005806618
 31
0.0
  0
LINE
  5
B6
100
AcDbEntity
  8
0
  6
Continuous
 62
               4
100
AcDbLine
 10
353.68891891471606
 20
351.09998157349423
 30
0.0
 11
348.68891891471606
 21
350.21834666995187
 31
0.0
  0
LINE
  5
B7
100
AcDbEntity
  8
0
  6
Continuous
 62
               4
100
AcDbLine
 10
353.68891891471606
 20
352.11540818537992
 30
0.0
 11
348.68891891471606
 21
351.23377328183778
 31
0.0
  0
LINE
  5
B8
100
AcDbEntity
  8
0
  6
Continuous
 62
               4
100
AcDbLine
 10
353.68891891471606
 20
353.13083479726583
 30
0.0
 11
348.68891891471606
 21
352.24919989372347
 31
0.0
  0
LINE
  5
B9
100
AcDbEntity
  8
0
  6
Continuous
 62
               4
100
AcDbLine
 10
353.68891891471606
 20
354.14626140915152
 30
0.0
 11
348.68891891471606
 21
353.26462650560916
 31
0.0
  0
LINE
  5
BA
100
AcDbEntity
  8
0
  6
Continuous
 62
               4
100
AcDbLine
 10
353.68891891471606
 20
355.16168802103721
 30
0.0
 11
348.68891891471606
 21
354.28005311749484
 31
0.0
  0
LINE
  5
BB
100
AcDbEntity
  8
0
  6
Continuous
 62
               4
100
AcDbLine
 10
353.68891891471606
 20
356.17711463292289
 30
0.0
 11
348.68891891471606
 21
355.29547972938076
 31
0.0
  0
LINE
  5
BC
100
AcDbEntity
  8
0
  6
Continuous
 62
               4
100
AcDbLine
 10
353.68891891471606
 20
357.19254124480881
 30
0.0
 11
348.68891891471606
 21
356.31090634126645
 31
0.0
  0
LINE
  5
BD
100
AcDbEntity
  8
0
  6
Continuous
 62
               4
100
AcDbLine
 10
353.68891891471606
 20
358.20796785669449
 30
0.0
 11
348.68891891471606
 21
357.32633295315213
 31
0.0
  0
LINE
  5
BE
100
AcDbEntity
  8
0
  6
Continuous
 62
               4
100
AcDbLine
 10
353.68891891471606
 20
359.22339446858018
 30
0.0
 11
348.68891891471606
 21
358.34175956503782
 31
0.0
  0
LINE
  5
BF
100
AcDbEntity
  8
0
  6
Continuous
 62
               4
100
AcDbLine
 10
353.68891891471606
 20
360.2388210804661
 30
0.0
 11
348.68891891471606
 21
359.35718617692373
 31
0.0
  0
LINE
  5
C0
100
AcDbEntity
  8
0
  6
Continuous
 62
               4
100
AcDbLine
 10
353.68891891471606
 20
361.25424769235178
 30
0.0
 11
348.68891891471606
 21
360.37261278880942
 31
0.0
  0
LINE
  5
C1
100
AcDbEntity
  8
0
  6
Continuous
 62
               4
100
AcDbLine
 10
353.68891891471606
 20
362.26967430423747
 30
0.0
 11
348.68891891471606
 21
361.38803940069511
 31
0.0
  0
LINE
  5
C2
100
AcDbEntity
  8
0
  6
Continuous
 62
               4
100
AcDbLine
 10
353.68891891471606
 20
363.28510091612316
 30
0.0
 11
348.68891891471606
 21
362.40346601258079
 31
0.0
  0
LINE
  5
C3
100
AcDbEntity
  8
0
  6
Continuous
 62
               4
100
AcDbLine
 10
353.68891891471606
 20
364.30052752800907
 30
0.0
 11
348.68891891471606
 21
363.41889262446671
 31
0.0
  0
LINE
  5
C4
100
AcDbEntity
  8
0
  6
Continuous
 62
               4
100
AcDbLine
 10
353.68891891471606
 20
365.31595413989476
 30
0.0
 11
348.68891891471606
 21
364.43431923635239
 31
0.0
  0
LINE
  5
C5
100
AcDbEntity
  8
0
  6
Continuous
 62
               4
100
AcDbLine
 10
353.68891891471606
 20
366.33138075178044
 30
0.0
 11
348.68891891471606
 21
365.44974584823808
 31
0.0
  0
LINE
  5
C6
100
AcDbEntity
  8
0
  6
Continuous
 62
               4
100
AcDbLine
 10
353.68891891471606
 20
367.34680736366613
 30
0.0
 11
348.68891891471606
 21
366.46517246012377
 31
0.0
  0
LINE
  5
C7
100
AcDbEntity
  8
0
  6
Continuous
 62
               4
100
AcDbLine
 10
353.68891891471606
 20
368.36223397555204
 30
0.0
 11
348.68891891471606
 21
367.48059907200968
 31
0.0
  0
LINE
  5
C8
100
AcDbEntity
  8
0
  6
Continuous
 62
               4
100
AcDbLine
 10
353.68891891471606
 20
369.37766058743773
 30
0.0
 11
348.68891891471606
 21
368.49602568389537
 31
0.0
  0
LINE
  5
C9
100
AcDbEntity
  8
0
  6
Continuous
 62
               4
100
AcDbLine
 10
353.68891891471606
 20
370.39308719932342
 30
0.0
 11
351.03104374231771
 21
369.92443209507451
 31
0.0
  0
LINE
  5
CA
100
AcDbEntity
  8
0
  6
Continuous
 62
               6
100
AcDbLine
 10
366.64405590101774
 20
356.05320879307237
 30
0.0
 11
366.64405590101774
 21
258.05320879307197
 31
0.0
  0
LINE
  5
CB
100
AcDbEntity
  8
0
  6
Continuous
 62
               6
100
AcDbLine
 10
414.64405590101774
 20
358.05320879307237
 30
0.0
 11
368.64405590101774
 21
358.05320879307237
 31
0.0
  0
LINE
  5
CC
100
AcDbEntity
  8
0
  6
Continuous
 62
               6
100
AcDbLine
 10
416.64405590101774
 20
356.05320879307237
 30
0.0
 11
416.64405590101774
 21
338.05320879307192
 31
0.0
  0
LINE
  5
CD
100
AcDbEntity
  8
0
  6
Continuous
 62
               6
100
AcDbLine
 10
414.64405590101774
 20
258.05320879307197
 30
0.0
 11
368.64405590101774
 21
258.05320879307197
 31
0.0
  0
LINE
  5
CE
100
AcDbEntity
  8
0
  6
Continuous
 62
               6
100
AcDbLine
 10
416.64405590101774
 20
260.05320879307197
 30
0.0
 11
416.64405590101774
 21
278.05320879307197
 31
0.0
  0
LINE
  5
CF
100
AcDbEntity
  8
0
  6
Continuous
 62
               6
100
AcDbLine
 10
414.34405590101778
 20
338.05320879307192
 30
0.0
 11
414.34405590101778
 21
355.75320879307242
 31
0.0
  0
LINE
  5
D0
100
AcDbEntity
  8
0
  6
Continuous
 62
               6
100
AcDbLine
 10
414.34405590101778
 20
355.75320879307242
 30
0.0
 11
368.94405590101769
 21
355.75320879307242
 31
0.0
  0
LINE
  5
D1
100
AcDbEntity
  8
0
  6
Continuous
 62
               6
100
AcDbLine
 10
368.94405590101769
 20
355.75320879307242
 30
0.0
 11
368.94405590101769
 21
260.35320879307193
 31
0.0
  0
LINE
  5
D2
100
AcDbEntity
  8
0
  6
Continuous
 62
               6
100
AcDbLine
 10
368.94405590101769
 20
260.35320879307193
 30
0.0
 11
414.34405590101778
 21
260.35320879307193
 31
0.0
  0
LINE
  5
D3
100
AcDbEntity
  8
0
  6
Continuous
 62
               6
100
AcDbLine
 10
414.34405590101778
 20
260.35320879307193
 30
0.0
 11
414.34405590101778
 21
278.05320879307197
 31
0.0
  0
LINE
  5
D4
100
AcDbEntity
  8
0
  6
Continuous
 62
               6
100
AcDbLine
 10
414.34405590101778
 20
338.05320879307192
 30
0.0
 11
416.64405590101774
 21
338.05320879307192
 31
0.0
  0
LINE
  5
D5
100
AcDbEntity
  8
0
  6
Continuous
 62
               6
100
AcDbLine
 10
414.34405590101778
 20
278.05320879307197
 30
0.0
 11
416.64405590101774
 21
278.05320879307197
 31
0.0
  0
LINE
  5
D6
100
AcDbEntity
  8
0
  6
Continuous
 62
               6
100
AcDbLine
 10
418.64405590101762
 20
358.05320879307186
 30
0.0
 11
418.64405590101762
 21
258.05320879307197
 31
0.0
  0
LINE
  5
D7
100
AcDbEntity
  8
0
  6
Continuous
 62
               4
100
AcDbLine
 10
335.14405590101751
 20
296.55320879307197
 30
0.0
 11
335.14405590101751
 21
286.55320879307197
 31
0.0
  0
LINE
  5
D8
100
AcDbEntity
  8
0
  6
Continuous
 62
               4
100
AcDbLine
 10
332.74474083252437
 20
297.69627386156509
 30
0.0
 11
332.74474083252437
 21
307.69627386156509
 31
0.0
  0
LINE
  5
D9
100
AcDbEntity
  8
0
  6
Continuous
 62
               4
100
AcDbLine
 10
375.7447408325246
 20
300.19627386156509
 30
0.0
 11
375.7447408325246
 21
305.19627386156509
 31
0.0
  0
LINE
  5
DA
100
AcDbEntity
  8
0
  6
Continuous
 62
               4
100
AcDbLine
 10
335.54474083252444
 20
300.19627386156509
 30
0.0
 11
335.54474083252444
 21
305.19627386156509
 31
0.0
  0
LINE
  5
DB
100
AcDbEntity
  8
0
  6
Continuous
 62
               4
100
AcDbLine
 10
375.7447408325246
 20
300.19627386156509
 30
0.0
 11
335.54474083252444
 21
300.19627386156509
 31
0.0
  0
LINE
  5
DC
100
AcDbEntity
  8
0
  6
Continuous
 62
               4
100
AcDbLine
 10
375.7447408325246
 20
305.19627386156509
 30
0.0
 11
335.54474083252444
 21
305.19627386156509
 31
0.0
  0
LINE
  5
DD
100
AcDbEntity
  8
0
  6
Continuous
 62
               4
100
AcDbLine
 10
335.54474083252444
 20
300.19627386156509
 30
0.0
 11
332.74474083252437
 21
297.69627386156509
 31
0.0
  0
LINE
  5
DE
100
AcDbEntity
  8
0
  6
Continuous
 62
               4
100
AcDbLine
 10
335.54474083252444
 20
305.19627386156509
 30
0.0
 11
332.74474083252437
 21
307.69627386156509
 31
0.0
  0
LINE
  5
DF
100
AcDbEntity
  8
0
  6
Continuous
 62
               4
100
AcDbLine
 10
375.7447408325246
 20
300.19627386156509
 30
0.0
 11
377.7447408325246
 21
302.69627386156509
 31
0.0
  0
LINE
  5
E0
100
AcDbEntity
  8
0
  6
Continuous
 62
               4
100
AcDbLine
 10
377.7447408325246
 20
302.69627386156509
 30
0.0
 11
375.7447408325246
 21
305.19627386156509
 31
0.0
  0
LINE
  5
E1
100
AcDbEntity
  8
0
  6
Continuous
 62
               4
100
AcDbLine
 10
374.38015343131519
 20
305.19627386156509
 30
0.0
 11
375.26178833485756
 21
300.19627386156509
 31
0.0
  0
LINE
  5
E2
100
AcDbEntity
  8
0
  6
Continuous
 62
               4
100
AcDbLine
 10
373.36472681942951
 20
305.19627386156509
 30
0.0
 11
374.24636172297187
 21
300.19627386156509
 31
0.0
  0
LINE
  5
E3
100
AcDbEntity
  8
0
  6
Continuous
 62
               4
100
AcDbLine
 10
372.34930020754359
 20
305.19627386156509
 30
0.0
 11
373.23093511108607
 21
300.19627386156509
 31
0.0
  0
LINE
  5
E4
100
AcDbEntity
  8
0
  6
Continuous
 62
               4
100
AcDbLine
 10
371.33387359565791
 20
305.19627386156509
 30
0.0
 11
372.21550849920027
 21
300.19627386156509
 31
0.0
  0
LINE
  5
E5
100
AcDbEntity
  8
0
  6
Continuous
 62
               4
100
AcDbLine
 10
370.31844698377211
 20
305.19627386156509
 30
0.0
 11
371.20008188731447
 21
300.19627386156509
 31
0.0
  0
LINE
  5
E6
100
AcDbEntity
  8
0
  6
Continuous
 62
               4
100
AcDbLine
 10
369.30302037188642
 20
305.19627386156509
 30
0.0
 11
370.18465527542878
 21
300.19627386156509
 31
0.0
  0
LINE
  5
E7
100
AcDbEntity
  8
0
  6
Continuous
 62
               4
100
AcDbLine
 10
368.28759376000062
 20
305.19627386156509
 30
0.0
 11
369.16922866354298
 21
300.19627386156509
 31
0.0
  0
LINE
  5
E8
100
AcDbEntity
  8
0
  6
Continuous
 62
               4
100
AcDbLine
 10
367.27216714811482
 20
305.19627386156509
 30
0.0
 11
368.15380205165729
 21
300.19627386156509
 31
0.0
  0
LINE
  5
E9
100
AcDbEntity
  8
0
  6
Continuous
 62
               4
100
AcDbLine
 10
366.25674053622913
 20
305.19627386156509
 30
0.0
 11
367.13837543977138
 21
300.19627386156509
 31
0.0
  0
LINE
  5
EA
100
AcDbEntity
  8
0
  6
Continuous
 62
               4
100
AcDbLine
 10
365.24131392434333
 20
305.19627386156509
 30
0.0
 11
366.12294882788569
 21
300.19627386156509
 31
0.0
  0
LINE
  5
EB
100
AcDbEntity
  8
0
  6
Continuous
 62
               4
100
AcDbLine
 10
364.22588731245764
 20
305.19627386156509
 30
0.0
 11
365.10752221599989
 21
300.19627386156509
 31
0.0
  0
LINE
  5
EC
100
AcDbEntity
  8
0
  6
Continuous
 62
               4
100
AcDbLine
 10
363.21046070057184
 20
305.19627386156509
 30
0.0
 11
364.09209560411421
 21
300.19627386156509
 31
0.0
  0
LINE
  5
ED
100
AcDbEntity
  8
0
  6
Continuous
 62
               4
100
AcDbLine
 10
362.19503408868616
 20
305.19627386156509
 30
0.0
 11
363.07666899222841
 21
300.19627386156509
 31
0.0
  0
LINE
  5
EE
100
AcDbEntity
  8
0
  6
Continuous
 62
               4
100
AcDbLine
 10
361.17960747680036
 20
305.19627386156509
 30
0.0
 11
362.06124238034272
 21
300.19627386156509
 31
0.0
  0
LINE
  5
EF
100
AcDbEntity
  8
0
  6
Continuous
 62
               4
100
AcDbLine
 10
360.16418086491467
 20
305.19627386156509
 30
0.0
 11
361.04581576845692
 21
300.19627386156509
 31
0.0
  0
LINE
  5
F0
100
AcDbEntity
  8
0
  6
Continuous
 62
               4
100
AcDbLine
 10
359.14875425302887
 20
305.19627386156509
 30
0.0
 11
360.03038915657123
 21
300.19627386156509
 31
0.0
  0
LINE
  5
F1
100
AcDbEntity
  8
0
  6
Continuous
 62
               4
100
AcDbLine
 10
358.13332764114318
 20
305.19627386156509
 30
0.0
 11
359.01496254468543
 21
300.19627386156509
 31
0.0
  0
LINE
  5
F2
100
AcDbEntity
  8
0
  6
Continuous
 62
               4
100
AcDbLine
 10
357.11790102925738
 20
305.19627386156509
 30
0.0
 11
357.99953593279974
 21
300.19627386156509
 31
0.0
  0
LINE
  5
F3
100
AcDbEntity
  8
0
  6
Continuous
 62
               4
100
AcDbLine
 10
356.1024744173717
 20
305.19627386156509
 30
0.0
 11
356.98410932091394
 21
300.19627386156509
 31
0.0
  0
LINE
  5
F4
100
AcDbEntity
  8
0
  6
Continuous
 62
               4
100
AcDbLine
 10
355.08704780548589
 20
305.19627386156509
 30
0.0
 11
355.96868270902826
 21
300.19627386156509
 31
0.0
  0
LINE
  5
F5
100
AcDbEntity
  8
0
  6
Continuous
 62
               4
100
AcDbLine
 10
354.07162119360021
 20
305.19627386156509
 30
0.0
 11
354.95325609714246
 21
300.19627386156509
 31
0.0
  0
LINE
  5
F6
100
AcDbEntity
  8
0
  6
Continuous
 62
               4
100
AcDbLine
 10
353.05619458171441
 20
305.19627386156509
 30
0.0
 11
353.93782948525677
 21
300.19627386156509
 31
0.0
  0
LINE
  5
F7
100
AcDbEntity
  8
0
  6
Continuous
 62
               4
100
AcDbLine
 10
352.04076796982861
 20
305.19627386156509
 30
0.0
 11
352.92240287337097
 21
300.19627386156509
 31
0.0
  0
LINE
  5
F8
100
AcDbEntity
  8
0
  6
Continuous
 62
               4
100
AcDbLine
 10
351.02534135794292
 20
305.19627386156509
 30
0.0
 11
351.90697626148528
 21
300.19627386156509
 31
0.0
  0
LINE
  5
F9
100
AcDbEntity
  8
0
  6
Continuous
 62
               4
100
AcDbLine
 10
350.00991474605712
 20
305.19627386156509
 30
0.0
 11
350.89154964959948
 21
300.19627386156509
 31
0.0
  0
LINE
  5
FA
100
AcDbEntity
  8
0
  6
Continuous
 62
               4
100
AcDbLine
 10
348.99448813417143
 20
305.19627386156509
 30
0.0
 11
349.8761230377138
 21
300.19627386156509
 31
0.0
  0
LINE
  5
FB
100
AcDbEntity
  8
0
  6
Continuous
 62
               4
100
AcDbLine
 10
347.97906152228563
 20
305.19627386156509
 30
0.0
 11
348.860696425828
 21
300.19627386156509
 31
0.0
  0
LINE
  5
FC
100
AcDbEntity
  8
0
  6
Continuous
 62
               4
100
AcDbLine
 10
346.96363491039995
 20
305.19627386156509
 30
0.0
 11
347.84526981394231
 21
300.19627386156509
 31
0.0
  0
LINE
  5
FD
100
AcDbEntity
  8
0
  6
Continuous
 62
               4
100
AcDbLine
 10
345.94820829851415
 20
305.19627386156509
 30
0.0
 11
346.82984320205651
 21
300.19627386156509
 31
0.0
  0
LINE
  5
FE
100
AcDbEntity
  8
0
  6
Continuous
 62
               4
100
AcDbLine
 10
344.93278168662846
 20
305.19627386156509
 30
0.0
 11
345.81441659017082
 21
300.19627386156509
 31
0.0
  0
LINE
  5
FF
100
AcDbEntity
  8
0
  6
Continuous
 62
               4
100
AcDbLine
 10
343.91735507474266
 20
305.19627386156509
 30
0.0
 11
344.79898997828502
 21
300.19627386156509
 31
0.0
  0
LINE
  5
100
100
AcDbEntity
  8
0
  6
Continuous
 62
               4
100
AcDbLine
 10
342.90192846285697
 20
305.19627386156509
 30
0.0
 11
343.78356336639933
 21
300.19627386156509
 31
0.0
  0
LINE
  5
101
100
AcDbEntity
  8
0
  6
Continuous
 62
               4
100
AcDbLine
 10
341.88650185097117
 20
305.19627386156509
 30
0.0
 11
342.76813675451353
 21
300.19627386156509
 31
0.0
  0
LINE
  5
102
100
AcDbEntity
  8
0
  6
Continuous
 62
               4
100
AcDbLine
 10
340.87107523908549
 20
305.19627386156509
 30
0.0
 11
341.75271014262785
 21
300.19627386156509
 31
0.0
  0
LINE
  5
103
100
AcDbEntity
  8
0
  6
Continuous
 62
               4
100
AcDbLine
 10
339.85564862719968
 20
305.19627386156509
 30
0.0
 11
340.73728353074205
 21
300.19627386156509
 31
0.0
  0
LINE
  5
104
100
AcDbEntity
  8
0
  6
Continuous
 62
               4
100
AcDbLine
 10
338.840222015314
 20
305.19627386156509
 30
0.0
 11
339.30887711956302
 21
302.53839868916663
 31
0.0
  0
LINE
  5
105
100
AcDbEntity
  8
0
  6
Continuous
 62
               4
100
AcDbLine
 10
333.6440559010174
 20
316.55320879307192
 30
0.0
 11
333.64405590101751
 21
286.55320879307197
 31
0.0
  0
LINE
  5
106
100
AcDbEntity
  8
0
  6
Continuous
 62
               4
100
AcDbLine
 10
333.6440559010174
 20
316.55320879307192
 30
0.0
 11
301.64405590101751
 21
316.55320879307192
 31
0.0
  0
LINE
  5
107
100
AcDbEntity
  8
0
  6
Continuous
 62
               4
100
AcDbLine
 10
434.64405590101751
 20
372.05320879307197
 30
0.0
 11
304.64405590101751
 21
372.05320879307197
 31
0.0
  0
LINE
  5
108
100
AcDbEntity
  8
0
  6
Continuous
 62
               4
100
AcDbLine
 10
329.64405590101751
 20
370.55320879307197
 30
0.0
 11
304.64405590101751
 21
370.55320879307197
 31
0.0
  0
LINE
  5
109
100
AcDbEntity
  8
0
  6
Continuous
 62
               4
100
AcDbLine
 10
329.64405590101751
 20
370.55320879307197
 30
0.0
 11
329.64405590101751
 21
330.55320879307197
 31
0.0
  0
LINE
  5
10A
100
AcDbEntity
  8
0
  6
Continuous
 62
               4
100
AcDbLine
 10
334.3914348216199
 20
340.01124929552435
 30
0.0
 11
331.14405590101751
 21
330.55320879307197
 31
0.0
  0
LINE
  5
10B
100
AcDbEntity
  8
0
  6
Continuous
 62
               4
100
AcDbLine
 10
304.64405590101751
 20
370.05320879307192
 30
0.0
 11
317.64405590101751
 21
368.05320879307192
 31
0.0
  0
LINE
  5
10C
100
AcDbEntity
  8
0
  6
Continuous
 62
               4
100
AcDbLine
 10
301.6440559010174
 20
417.05320879307197
 30
0.0
 11
351.6440559010174
 21
417.05320879307197
 31
0.0
  0
LINE
  5
10D
100
AcDbEntity
  8
0
  6
Continuous
 62
               4
100
AcDbLine
 10
301.6440559010174
 20
417.05320879307197
 30
0.0
 11
301.64405590101751
 21
316.55320879307192
 31
0.0
  0
LINE
  5
10E
100
AcDbEntity
  8
0
  6
Continuous
 62
               4
100
AcDbLine
 10
276.64405590101717
 20
416.55320879307197
 30
0.0
 11
296.64405590101751
 21
416.55320879307197
 31
0.0
  0
LINE
  5
10F
100
AcDbEntity
  8
0
  6
Continuous
 62
               2
100
AcDbLine
 10
294.63434003111888
 20
414.46187393179144
 30
0.0
 11
276.64405590101717
 21
415.05320879307197
 31
0.0
  0
LINE
  5
110
100
AcDbEntity
  8
0
  6
Continuous
 62
               4
100
AcDbLine
 10
276.64405590101717
 20
418.05320879307197
 30
0.0
 11
401.6440559010174
 21
418.05320879307197
 31
0.0
  0
LINE
  5
111
100
AcDbEntity
  8
0
  6
Continuous
 62
               2
100
AcDbLine
 10
519.14405590101785
 20
418.05320879307186
 30
0.0
 11
534.14405590101785
 21
418.05320879307186
 31
0.0
  0
LINE
  5
112
100
AcDbEntity
  8
0
  6
Continuous
 62
               2
100
AcDbLine
 10
516.14405590101785
 20
419.05320879307186
 30
0.0
 11
519.14405590101785
 21
418.05320879307186
 31
0.0
  0
LINE
  5
113
100
AcDbEntity
  8
0
  6
Continuous
 62
               2
100
AcDbLine
 10
559.14405590101762
 20
418.05320879307186
 30
0.0
 11
574.14405590101751
 21
418.05320879307186
 31
0.0
  0
LINE
  5
114
100
AcDbEntity
  8
0
  6
Continuous
 62
               2
100
AcDbLine
 10
577.14405590101751
 20
419.05320879307186
 30
0.0
 11
574.14405590101751
 21
418.05320879307186
 31
0.0
  0
LINE
  5
115
100
AcDbEntity
  8
0
  6
Continuous
 62
               2
100
AcDbLine
 10
543.64405590101762
 20
447.05320879307197
 30
0.0
 11
543.64405590101762
 21
439.80320879307186
 31
0.0
  0
LINE
  5
116
100
AcDbEntity
  8
0
  6
Continuous
 62
               2
100
AcDbLine
 10
547.64405590101762
 20
427.94006875971439
 30
0.0
 11
547.64405590101762
 21
447.05320879307186
 31
0.0
  0
LINE
  5
117
100
AcDbEntity
  8
0
  6
Continuous
 62
               2
100
AcDbLine
 10
545.64405590101762
 20
427.94006875971439
 30
0.0
 11
545.64405590101762
 21
447.64557907392447
 31
0.0
  0
LINE
  5
118
100
AcDbEntity
  8
0
  6
Continuous
 62
               4
100
AcDbLine
 10
544.14405590101762
 20
447.36494754290521
 30
0.0
 11
544.14405590101762
 21
439.78970080095252
 31
0.0
  0
LINE
  5
119
100
AcDbEntity
  8
0
  6
Continuous
 62
               4
100
AcDbLine
 10
544.64405590101762
 20
447.64557907392447
 30
0.0
 11
544.64405590101762
 21
439.74286229071998
 31
0.0
  0
LINE
  5
11A
100
AcDbEntity
  8
0
  6
Continuous
 62
               4
100
AcDbLine
 10
545.14405590101762
 20
447.51805498932009
 30
0.0
 11
545.14405590101762
 21
439.80320879307186
 31
0.0
  0
LINE
  5
11B
100
AcDbEntity
  8
0
  6
Continuous
 62
               2
100
AcDbLine
 10
516.14405590101694
 20
419.05320879307197
 30
0.0
 11
276.64405590101717
 21
419.05320879307197
 31
0.0
  0
LINE
  5
11C
100
AcDbEntity
  8
0
  6
Continuous
 62
               4
100
AcDbLine
 10
546.64405590101785
 20
417.05320879307197
 30
0.0
 11
546.64405590101785
 21
447.36494754290521
 31
0.0
  0
LINE
  5
11D
100
AcDbEntity
  8
0
  6
Continuous
 62
               4
100
AcDbLine
 10
546.64405590101762
 20
417.05320879307209
 30
0.0
 11
571.64405590101751
 21
417.05320879307209
 31
0.0
  0
LINE
  5
11E
100
AcDbEntity
  8
0
  6
Continuous
 62
               4
100
AcDbLine
 10
552.88363752289285
 20
417.43817888006055
 30
0.0
 11
562.88363752289285
 21
417.43817888006055
 31
0.0
  0
LINE
  5
11F
100
AcDbEntity
  8
0
  6
Continuous
 62
               4
100
AcDbLine
 10
555.38363752289285
 20
344.43817888006049
 30
0.0
 11
560.38363752289285
 21
344.43817888006049
 31
0.0
  0
LINE
  5
120
100
AcDbEntity
  8
0
  6
Continuous
 62
               4
100
AcDbLine
 10
555.38363752289285
 20
414.63817888006059
 30
0.0
 11
560.38363752289285
 21
414.63817888006059
 31
0.0
  0
LINE
  5
121
100
AcDbEntity
  8
0
  6
Continuous
 62
               4
100
AcDbLine
 10
555.38363752289285
 20
344.43817888006049
 30
0.0
 11
555.38363752289285
 21
414.63817888006059
 31
0.0
  0
LINE
  5
122
100
AcDbEntity
  8
0
  6
Continuous
 62
               4
100
AcDbLine
 10
560.38363752289285
 20
344.43817888006049
 30
0.0
 11
560.38363752289285
 21
414.63817888006059
 31
0.0
  0
LINE
  5
123
100
AcDbEntity
  8
0
  6
Continuous
 62
               4
100
AcDbLine
 10
555.38363752289285
 20
414.63817888006059
 30
0.0
 11
552.88363752289285
 21
417.43817888006055
 31
0.0
  0
LINE
  5
124
100
AcDbEntity
  8
0
  6
Continuous
 62
               4
100
AcDbLine
 10
560.38363752289285
 20
414.63817888006059
 30
0.0
 11
562.88363752289285
 21
417.43817888006055
 31
0.0
  0
LINE
  5
125
100
AcDbEntity
  8
0
  6
Continuous
 62
               4
100
AcDbLine
 10
555.38363752289285
 20
344.43817888006049
 30
0.0
 11
557.88363752289285
 21
342.43817888006049
 31
0.0
  0
LINE
  5
126
100
AcDbEntity
  8
0
  6
Continuous
 62
               4
100
AcDbLine
 10
557.88363752289285
 20
342.43817888006049
 30
0.0
 11
560.38363752289285
 21
344.43817888006049
 31
0.0
  0
LINE
  5
127
100
AcDbEntity
  8
0
  6
Continuous
 62
               4
100
AcDbLine
 10
555.38363752289285
 20
359.76873952047606
 30
0.0
 11
560.38363752289285
 21
360.65037442401842
 31
0.0
  0
LINE
  5
128
100
AcDbEntity
  8
0
  6
Continuous
 62
               4
100
AcDbLine
 10
555.38363752289285
 20
360.78416613236175
 30
0.0
 11
560.38363752289285
 21
361.66580103590411
 31
0.0
  0
LINE
  5
129
100
AcDbEntity
  8
0
  6
Continuous
 62
               4
100
AcDbLine
 10
555.38363752289285
 20
361.79959274424766
 30
0.0
 11
560.38363752289285
 21
362.68122764779002
 31
0.0
  0
LINE
  5
12A
100
AcDbEntity
  8
0
  6
Continuous
 62
               4
100
AcDbLine
 10
555.38363752289285
 20
362.81501935613335
 30
0.0
 11
560.38363752289285
 21
363.69665425967571
 31
0.0
  0
LINE
  5
12B
100
AcDbEntity
  8
0
  6
Continuous
 62
               4
100
AcDbLine
 10
555.38363752289285
 20
363.83044596801903
 30
0.0
 11
560.38363752289285
 21
364.7120808715614
 31
0.0
  0
LINE
  5
12C
100
AcDbEntity
  8
0
  6
Continuous
 62
               4
100
AcDbLine
 10
555.38363752289285
 20
364.84587257990472
 30
0.0
 11
560.38363752289285
 21
365.72750748344708
 31
0.0
  0
LINE
  5
12D
100
AcDbEntity
  8
0
  6
Continuous
 62
               4
100
AcDbLine
 10
555.38363752289285
 20
365.86129919179064
 30
0.0
 11
560.38363752289285
 21
366.742934095333
 31
0.0
  0
LINE
  5
12E
100
AcDbEntity
  8
0
  6
Continuous
 62
               4
100
AcDbLine
 10
555.38363752289285
 20
366.87672580367632
 30
0.0
 11
560.38363752289285
 21
367.75836070721869
 31
0.0
  0
LINE
  5
12F
100
AcDbEntity
  8
0
  6
Continuous
 62
               4
100
AcDbLine
 10
555.38363752289285
 20
367.89215241556201
 30
0.0
 11
560.38363752289285
 21
368.77378731910437
 31
0.0
  0
LINE
  5
130
100
AcDbEntity
  8
0
  6
Continuous
 62
               4
100
AcDbLine
 10
555.38363752289285
 20
368.90757902744792
 30
0.0
 11
560.38363752289285
 21
369.78921393099006
 31
0.0
  0
LINE
  5
131
100
AcDbEntity
  8
0
  6
Continuous
 62
               4
100
AcDbLine
 10
555.38363752289285
 20
369.92300563933361
 30
0.0
 11
560.38363752289285
 21
370.80464054287597
 31
0.0
  0
LINE
  5
132
100
AcDbEntity
  8
0
  6
Continuous
 62
               4
100
AcDbLine
 10
555.38363752289285
 20
370.9384322512193
 30
0.0
 11
560.38363752289285
 21
371.82006715476166
 31
0.0
  0
LINE
  5
133
100
AcDbEntity
  8
0
  6
Continuous
 62
               4
100
AcDbLine
 10
555.38363752289285
 20
371.95385886310498
 30
0.0
 11
560.38363752289285
 21
372.83549376664735
 31
0.0
  0
LINE
  5
134
100
AcDbEntity
  8
0
  6
Continuous
 62
               4
100
AcDbLine
 10
555.38363752289285
 20
372.9692854749909
 30
0.0
 11
560.38363752289285
 21
373.85092037853303
 31
0.0
  0
LINE
  5
135
100
AcDbEntity
  8
0
  6
Continuous
 62
               4
100
AcDbLine
 10
555.38363752289285
 20
373.98471208687658
 30
0.0
 11
560.38363752289285
 21
374.86634699041895
 31
0.0
  0
LINE
  5
136
100
AcDbEntity
  8
0
  6
Continuous
 62
               4
100
AcDbLine
 10
555.38363752289285
 20
375.00013869876227
 30
0.0
 11
560.38363752289285
 21
375.88177360230463
 31
0.0
  0
LINE
  5
137
100
AcDbEntity
  8
0
  6
Continuous
 62
               4
100
AcDbLine
 10
555.38363752289285
 20
376.01556531064796
 30
0.0
 11
560.38363752289285
 21
376.89720021419032
 31
0.0
  0
LINE
  5
138
100
AcDbEntity
  8
0
  6
Continuous
 62
               4
100
AcDbLine
 10
555.38363752289285
 20
377.03099192253387
 30
0.0
 11
560.38363752289285
 21
377.91262682607601
 31
0.0
  0
LINE
  5
139
100
AcDbEntity
  8
0
  6
Continuous
 62
               4
100
AcDbLine
 10
555.38363752289285
 20
378.04641853441956
 30
0.0
 11
560.38363752289285
 21
378.92805343796186
 31
0.0
  0
LINE
  5
13A
100
AcDbEntity
  8
0
  6
Continuous
 62
               4
100
AcDbLine
 10
555.38363752289285
 20
379.06184514630519
 30
0.0
 11
560.38363752289285
 21
379.94348004984766
 31
0.0
  0
LINE
  5
13B
100
AcDbEntity
  8
0
  6
Continuous
 62
               4
100
AcDbLine
 10
555.38363752289285
 20
380.07727175819099
 30
0.0
 11
560.38363752289285
 21
380.95890666173335
 31
0.0
  0
LINE
  5
13C
100
AcDbEntity
  8
0
  6
Continuous
 62
               4
100
AcDbLine
 10
555.38363752289285
 20
381.0926983700769
 30
0.0
 11
560.38363752289285
 21
381.97433327361904
 31
0.0
  0
LINE
  5
13D
100
AcDbEntity
  8
0
  6
Continuous
 62
               4
100
AcDbLine
 10
555.38363752289285
 20
382.10812498196259
 30
0.0
 11
560.38363752289285
 21
382.98975988550495
 31
0.0
  0
LINE
  5
13E
100
AcDbEntity
  8
0
  6
Continuous
 62
               4
100
AcDbLine
 10
555.38363752289285
 20
383.12355159384828
 30
0.0
 11
560.38363752289285
 21
384.00518649739064
 31
0.0
  0
LINE
  5
13F
100
AcDbEntity
  8
0
  6
Continuous
 62
               4
100
AcDbLine
 10
555.38363752289285
 20
384.13897820573396
 30
0.0
 11
560.38363752289285
 21
385.02061310927633
 31
0.0
  0
LINE
  5
140
100
AcDbEntity
  8
0
  6
Continuous
 62
               4
100
AcDbLine
 10
555.38363752289285
 20
385.15440481761988
 30
0.0
 11
560.38363752289285
 21
386.03603972116201
 31
0.0
  0
LINE
  5
141
100
AcDbEntity
  8
0
  6
Continuous
 62
               4
100
AcDbLine
 10
555.38363752289285
 20
386.16983142950556
 30
0.0
 11
560.38363752289285
 21
387.05146633304793
 31
0.0
  0
LINE
  5
142
100
AcDbEntity
  8
0
  6
Continuous
 62
               4
100
AcDbLine
 10
555.38363752289285
 20
387.18525804139125
 30
0.0
 11
560.38363752289285
 21
388.06689294493361
 31
0.0
  0
LINE
  5
143
100
AcDbEntity
  8
0
  6
Continuous
 62
               4
100
AcDbLine
 10
555.38363752289285
 20
388.20068465327694
 30
0.0
 11
560.38363752289285
 21
389.0823195568193
 31
0.0
  0
LINE
  5
144
100
AcDbEntity
  8
0
  6
Continuous
 62
               4
100
AcDbLine
 10
555.38363752289285
 20
389.21611126516285
 30
0.0
 11
560.38363752289285
 21
390.09774616870499
 31
0.0
  0
LINE
  5
145
100
AcDbEntity
  8
0
  6
Continuous
 62
               4
100
AcDbLine
 10
555.38363752289285
 20
390.23153787704854
 30
0.0
 11
560.38363752289285
 21
391.1131727805909
 31
0.0
  0
LINE
  5
146
100
AcDbEntity
  8
0
  6
Continuous
 62
               4
100
AcDbLine
 10
555.38363752289285
 20
391.24696448893422
 30
0.0
 11
560.38363752289285
 21
392.12859939247659
 31
0.0
  0
LINE
  5
147
100
AcDbEntity
  8
0
  6
Continuous
 62
               4
100
AcDbLine
 10
555.38363752289285
 20
392.26239110081991
 30
0.0
 11
560.38363752289285
 21
393.14402600436227
 31
0.0
  0
LINE
  5
148
100
AcDbEntity
  8
0
  6
Continuous
 62
               4
100
AcDbLine
 10
555.38363752289285
 20
393.27781771270583
 30
0.0
 11
560.38363752289285
 21
394.15945261624796
 31
0.0
  0
LINE
  5
149
100
AcDbEntity
  8
0
  6
Continuous
 62
               4
100
AcDbLine
 10
555.38363752289285
 20
394.29324432459151
 30
0.0
 11
560.38363752289285
 21
395.17487922813388
 31
0.0
  0
LINE
  5
14A
100
AcDbEntity
  8
0
  6
Continuous
 62
               4
100
AcDbLine
 10
555.38363752289285
 20
395.3086709364772
 30
0.0
 11
560.38363752289285
 21
396.19030584001956
 31
0.0
  0
LINE
  5
14B
100
AcDbEntity
  8
0
  6
Continuous
 62
               4
100
AcDbLine
 10
555.38363752289285
 20
396.32409754836289
 30
0.0
 11
560.38363752289285
 21
397.20573245190525
 31
0.0
  0
LINE
  5
14C
100
AcDbEntity
  8
0
  6
Continuous
 62
               4
100
AcDbLine
 10
555.38363752289285
 20
397.3395241602488
 30
0.0
 11
560.38363752289285
 21
398.22115906379094
 31
0.0
  0
LINE
  5
14D
100
AcDbEntity
  8
0
  6
Continuous
 62
               4
100
AcDbLine
 10
555.38363752289285
 20
398.35495077213449
 30
0.0
 11
560.38363752289285
 21
399.23658567567685
 31
0.0
  0
LINE
  5
14E
100
AcDbEntity
  8
0
  6
Continuous
 62
               4
100
AcDbLine
 10
555.38363752289285
 20
399.37037738402017
 30
0.0
 11
560.38363752289285
 21
400.25201228756254
 31
0.0
  0
LINE
  5
14F
100
AcDbEntity
  8
0
  6
Continuous
 62
               4
100
AcDbLine
 10
555.38363752289285
 20
400.38580399590586
 30
0.0
 11
560.38363752289285
 21
401.26743889944822
 31
0.0
  0
LINE
  5
150
100
AcDbEntity
  8
0
  6
Continuous
 62
               4
100
AcDbLine
 10
555.38363752289285
 20
401.40123060779177
 30
0.0
 11
560.38363752289285
 21
402.28286551133391
 31
0.0
  0
LINE
  5
151
100
AcDbEntity
  8
0
  6
Continuous
 62
               4
100
AcDbLine
 10
555.38363752289285
 20
402.41665721967746
 30
0.0
 11
560.38363752289285
 21
403.29829212321982
 31
0.0
  0
LINE
  5
152
100
AcDbEntity
  8
0
  6
Continuous
 62
               4
100
AcDbLine
 10
555.38363752289285
 20
403.43208383156315
 30
0.0
 11
560.38363752289285
 21
404.31371873510551
 31
0.0
  0
LINE
  5
153
100
AcDbEntity
  8
0
  6
Continuous
 62
               4
100
AcDbLine
 10
555.38363752289285
 20
404.44751044344883
 30
0.0
 11
560.38363752289285
 21
405.3291453469912
 31
0.0
  0
LINE
  5
154
100
AcDbEntity
  8
0
  6
Continuous
 62
               4
100
AcDbLine
 10
555.38363752289285
 20
405.46293705533475
 30
0.0
 11
560.38363752289285
 21
406.34457195887688
 31
0.0
  0
LINE
  5
155
100
AcDbEntity
  8
0
  6
Continuous
 62
               4
100
AcDbLine
 10
555.38363752289285
 20
406.47836366722044
 30
0.0
 11
560.38363752289285
 21
407.3599985707628
 31
0.0
  0
LINE
  5
156
100
AcDbEntity
  8
0
  6
Continuous
 62
               4
100
AcDbLine
 10
555.38363752289285
 20
407.49379027910612
 30
0.0
 11
560.38363752289285
 21
408.37542518264848
 31
0.0
  0
LINE
  5
157
100
AcDbEntity
  8
0
  6
Continuous
 62
               4
100
AcDbLine
 10
555.38363752289285
 20
408.50921689099181
 30
0.0
 11
560.38363752289285
 21
409.39085179453417
 31
0.0
  0
LINE
  5
158
100
AcDbEntity
  8
0
  6
Continuous
 62
               4
100
AcDbLine
 10
557.88363752289285
 20
409.9654609546489
 30
0.0
 11
560.38363752289285
 21
410.40627840641986
 31
0.0
  0
LINE
  5
159
100
AcDbEntity
  8
0
  6
Continuous
 62
               4
100
AcDbLine
 10
555.38363752289285
 20
358.75331290859037
 30
0.0
 11
560.38363752289285
 21
359.63494781213274
 31
0.0
  0
LINE
  5
15A
100
AcDbEntity
  8
0
  6
Continuous
 62
               4
100
AcDbLine
 10
555.38363752289285
 20
357.73788629670469
 30
0.0
 11
560.38363752289285
 21
358.61952120024705
 31
0.0
  0
LINE
  5
15B
100
AcDbEntity
  8
0
  6
Continuous
 62
               4
100
AcDbLine
 10
555.38363752289285
 20
356.72245968481877
 30
0.0
 11
560.38363752289285
 21
357.60409458836114
 31
0.0
  0
LINE
  5
15C
100
AcDbEntity
  8
0
  6
Continuous
 62
               4
100
AcDbLine
 10
555.38363752289285
 20
355.70703307293309
 30
0.0
 11
560.38363752289285
 21
356.58866797647545
 31
0.0
  0
LINE
  5
15D
100
AcDbEntity
  8
0
  6
Continuous
 62
               4
100
AcDbLine
 10
555.38363752289285
 20
354.6916064610474
 30
0.0
 11
560.38363752289285
 21
355.57324136458976
 31
0.0
  0
LINE
  5
15E
100
AcDbEntity
  8
0
  6
Continuous
 62
               4
100
AcDbLine
 10
555.38363752289285
 20
353.67617984916171
 30
0.0
 11
560.38363752289285
 21
354.55781475270408
 31
0.0
  0
LINE
  5
15F
100
AcDbEntity
  8
0
  6
Continuous
 62
               4
100
AcDbLine
 10
555.38363752289285
 20
352.6607532372758
 30
0.0
 11
560.38363752289285
 21
353.54238814081816
 31
0.0
  0
LINE
  5
160
100
AcDbEntity
  8
0
  6
Continuous
 62
               4
100
AcDbLine
 10
555.38363752289285
 20
351.64532662539011
 30
0.0
 11
560.38363752289285
 21
352.52696152893247
 31
0.0
  0
LINE
  5
161
100
AcDbEntity
  8
0
  6
Continuous
 62
               4
100
AcDbLine
 10
555.38363752289285
 20
350.62990001350443
 30
0.0
 11
560.38363752289285
 21
351.51153491704679
 31
0.0
  0
LINE
  5
162
100
AcDbEntity
  8
0
  6
Continuous
 62
               4
100
AcDbLine
 10
555.38363752289285
 20
349.61447340161874
 30
0.0
 11
560.38363752289285
 21
350.4961083051611
 31
0.0
  0
LINE
  5
163
100
AcDbEntity
  8
0
  6
Continuous
 62
               4
100
AcDbLine
 10
555.38363752289285
 20
348.59904678973282
 30
0.0
 11
560.38363752289285
 21
349.48068169327519
 31
0.0
  0
LINE
  5
164
100
AcDbEntity
  8
0
  6
Continuous
 62
               4
100
AcDbLine
 10
555.38363752289285
 20
347.58362017784714
 30
0.0
 11
560.38363752289285
 21
348.4652550813895
 31
0.0
  0
LINE
  5
165
100
AcDbEntity
  8
0
  6
Continuous
 62
               4
100
AcDbLine
 10
557.88363752289285
 20
347.00901101773263
 30
0.0
 11
560.38363752289285
 21
347.44982846950381
 31
0.0
  0
LINE
  5
166
100
AcDbEntity
  8
0
  6
Continuous
 62
               3
100
AcDbLine
 10
304.64405590101751
 20
403.05320879307197
 30
0.0
 11
304.64405590101751
 21
415.05320879307197
 31
0.0
  0
LINE
  5
167
100
AcDbEntity
  8
0
  6
Continuous
 62
               4
100
AcDbLine
 10
646.64405590101796
 20
358.05320879307192
 30
0.0
 11
336.64405590101751
 21
358.05320879307192
 31
0.0
  0
LINE
  5
168
100
AcDbEntity
  8
0
  6
Continuous
 62
               4
100
AcDbLine
 10
646.64405590101796
 20
370.05320879307192
 30
0.0
 11
336.64405590101751
 21
370.05320879307192
 31
0.0
  0
LINE
  5
169
100
AcDbEntity
  8
0
  6
Continuous
 62
               4
100
AcDbLine
 10
646.64405590101796
 20
374.05320879307186
 30
0.0
 11
590.64405590101751
 21
374.05320879307186
 31
0.0
  0
LINE
  5
16A
100
AcDbEntity
  8
0
  6
Continuous
 62
               4
100
AcDbLine
 10
646.64405590101796
 20
399.05320879307197
 30
0.0
 11
590.64405590101751
 21
399.05320879307197
 31
0.0
  0
LINE
  5
16B
100
AcDbEntity
  8
0
  6
Continuous
 62
               7
100
AcDbLine
 10
646.64405590101796
 20
359.05320879307197
 30
0.0
 11
336.64405590101751
 21
359.05320879307197
 31
0.0
  0
LINE
  5
16C
100
AcDbEntity
  8
0
  6
Continuous
 62
               7
100
AcDbLine
 10
646.64405590101796
 20
369.05320879307192
 30
0.0
 11
336.64405590101751
 21
369.05320879307192
 31
0.0
  0
LINE
  5
16D
100
AcDbEntity
  8
0
  6
Continuous
 62
               7
100
AcDbLine
 10
646.64405590101796
 20
361.05320879307192
 30
0.0
 11
336.64405590101751
 21
361.05320879307192
 31
0.0
  0
LINE
  5
16E
100
AcDbEntity
  8
0
  6
Continuous
 62
               7
100
AcDbLine
 10
646.64405590101796
 20
364.05320879307192
 30
0.0
 11
336.64405590101751
 21
364.05320879307192
 31
0.0
  0
LINE
  5
16F
100
AcDbEntity
  8
0
  6
Continuous
 62
               7
100
AcDbLine
 10
646.64405590101796
 20
367.05320879307192
 30
0.0
 11
336.64405590101751
 21
367.05320879307192
 31
0.0
  0
LINE
  5
170
100
AcDbEntity
  8
0
  6
DOT
 62
               6
100
AcDbLine
 10
646.64405590101751
 20
355.75320879307191
 30
0.0
 11
418.64405590101762
 21
355.75320879307191
 31
0.0
  0
LINE
  5
171
100
AcDbEntity
  8
0
  6
Continuous
 62
               6
100
AcDbLine
 10
646.64405590101751
 20
338.05320879307192
 30
0.0
 11
418.64405590101762
 21
338.05320879307192
 31
0.0
  0
LINE
  5
172
100
AcDbEntity
  8
0
  6
Continuous
 62
               6
100
AcDbLine
 10
646.64405590101751
 20
278.05320879307186
 30
0.0
 11
418.64405590101762
 21
278.05320879307197
 31
0.0
  0
LINE
  5
173
100
AcDbEntity
  8
0
  6
DOT
 62
               6
100
AcDbLine
 10
646.64405590101751
 20
260.35320879307181
 30
0.0
 11
418.64405590101762
 21
260.35320879307181
 31
0.0
  0
LINE
  5
174
100
AcDbEntity
  8
0
  6
Continuous
 62
               6
100
AcDbLine
 10
646.64405590101751
 20
258.05320879307197
 30
0.0
 11
418.64405590101762
 21
258.05320879307197
 31
0.0
  0
LINE
  5
175
100
AcDbEntity
  8
0
  6
DASHED
 62
               4
100
AcDbLine
 10
646.64405590101796
 20
371.05320879307197
 30
0.0
 11
336.64405590101751
 21
371.05320879307197
 31
0.0
  0
LINE
  5
176
100
AcDbEntity
  8
0
  6
DASHED
 62
               6
100
AcDbLine
 10
646.64405590101796
 20
416.05320879307197
 30
0.0
 11
304.64405590101751
 21
416.05320879307197
 31
0.0
  0
LINE
  5
177
100
AcDbEntity
  8
0
  6
Continuous
 62
               2
100
AcDbLine
 10
646.64405590101796
 20
419.05320879307197
 30
0.0
 11
577.14405590101796
 21
419.05320879307197
 31
0.0
  0
LINE
  5
178
100
AcDbEntity
  8
0
  6
Continuous
 62
               3
100
AcDbLine
 10
646.64405590101796
 20
415.05320879307197
 30
0.0
 11
304.64405590101751
 21
415.05320879307197
 31
0.0
  0
LINE
  5
179
100
AcDbEntity
  8
0
  6
Continuous
 62
               3
100
AcDbLine
 10
646.64405590101796
 20
403.05320879307197
 30
0.0
 11
304.64405590101751
 21
403.05320879307197
 31
0.0
  0
LINE
  5
17A
100
AcDbEntity
  8
0
  6
DASHDOT
 62
               4
100
AcDbLine
 10
546.64405590101785
 20
485.05320879307197
 30
0.0
 11
546.64405590101785
 21
384.18129098485275
 31
0.0
  0
LINE
  5
17B
100
AcDbEntity
  8
0
  6
Continuous
 62
               4
100
AcDbLine
 10
646.64405590101796
 20
482.05320879307197
 30
0.0
 11
637.780786123908
 21
480.4903751940696
 31
0.0
  0
LINE
  5
17C
100
AcDbEntity
  8
0
  6
Continuous
 62
               4
100
AcDbLine
 10
646.64405590101796
 20
482.05320879307197
 30
0.0
 11
637.780786123908
 21
483.61604239207435
 31
0.0
  0
LINE
  5
17D
100
AcDbEntity
  8
0
  6
Continuous
 62
               7
100
AcDbLine
 10
356.64405590101751
 20
85.199905789790279
 30
0.0
 11
356.64405590101751
 21
358.05320879307192
 31
0.0
  0
LINE
  5
17E
100
AcDbEntity
  8
0
  6
Continuous
 62
               7
100
AcDbLine
 10
366.64405590101762
 20
85.199905789790279
 30
0.0
 11
366.64405590101751
 21
358.05320879307192
 31
0.0
  0
LINE
  5
17F
100
AcDbEntity
  8
0
  6
Continuous
 62
               7
100
AcDbLine
 10
336.6440559010174
 20
85.199905789790279
 30
0.0
 11
336.64405590101751
 21
358.05320879307192
 31
0.0
  0
LINE
  5
180
100
AcDbEntity
  8
0
  6
Continuous
 62
               4
100
AcDbLine
 10
582.64405590101751
 20
373.05320879307192
 30
0.0
 11
646.64405590101751
 21
373.05320879307192
 31
0.0
  0
LINE
  5
181
100
AcDbEntity
  8
0
  6
Continuous
 62
               4
100
AcDbLine
 10
582.64405590101751
 20
373.05320879307192
 30
0.0
 11
582.64405590101751
 21
400.05320879307197
 31
0.0
  0
LINE
  5
182
100
AcDbEntity
  8
0
  6
DASHED
 62
               4
100
AcDbLine
 10
581.64405590101751
 20
373.05320879307192
 30
0.0
 11
581.64405590101751
 21
401.05320879307197
 31
0.0
  0
LINE
  5
183
100
AcDbEntity
  8
0
  6
DASHED
 62
               4
100
AcDbLine
 10
541.6440559010174
 20
373.05320879307192
 30
0.0
 11
581.64405590101751
 21
373.05320879307192
 31
0.0
  0
LINE
  5
184
100
AcDbEntity
  8
0
  6
DASHED
 62
               4
100
AcDbLine
 10
541.6440559010174
 20
373.05320879307192
 30
0.0
 11
541.6440559010174
 21
401.05320879307197
 31
0.0
  0
LINE
  5
185
100
AcDbEntity
  8
0
  6
Continuous
 62
               4
100
AcDbLine
 10
540.64405590101762
 20
374.05320879307186
 30
0.0
 11
540.6440559010174
 21
400.05320879307197
 31
0.0
  0
LINE
  5
186
100
AcDbEntity
  8
0
  6
Continuous
 62
               4
100
AcDbLine
 10
540.64405590101762
 20
374.05320879307186
 30
0.0
 11
304.64405590101762
 21
374.05320879307186
 31
0.0
  0
LINE
  5
187
100
AcDbEntity
  8
0
  6
Continuous
 62
               4
100
AcDbLine
 10
714.78679656440374
 20
21.213203435595801
 30
0.0
 11
714.78679656440374
 21
41.213203435595801
 31
0.0
  0
LINE
  5
188
100
AcDbEntity
  8
0
  6
Continuous
 62
               4
100
AcDbLine
 10
864.78679656440374
 20
21.213203435595801
 30
0.0
 11
714.78679656440374
 21
21.213203435595801
 31
0.0
  0
LINE
  5
189
100
AcDbEntity
  8
0
  6
Continuous
 62
               4
100
AcDbLine
 10
864.78679656440374
 20
41.213203435595801
 30
0.0
 11
864.78679656440374
 21
21.213203435595801
 31
0.0
  0
LINE
  5
18A
100
AcDbEntity
  8
0
  6
Continuous
 62
               4
100
AcDbLine
 10
864.78679656440374
 20
41.213203435595801
 30
0.0
 11
714.78679656440374
 21
41.213203435595801
 31
0.0
  0
LINE
  5
18B
100
AcDbEntity
  8
0
  6
Continuous
 62
               4
100
AcDbLine
 10
14.142135623730949
 20
595.85786437626837
 30
0.0
 11
14.142135623730949
 21
615.85786437626837
 31
0.0
  0
LINE
  5
18C
100
AcDbEntity
  8
0
  6
Continuous
 62
               4
100
AcDbLine
 10
164.14213562373095
 20
595.85786437626837
 30
0.0
 11
14.142135623730949
 21
595.85786437626837
 31
0.0
  0
LINE
  5
18D
100
AcDbEntity
  8
0
  6
Continuous
 62
               4
100
AcDbLine
 10
164.14213562373095
 20
615.85786437626837
 30
0.0
 11
164.14213562373095
 21
595.85786437626837
 31
0.0
  0
LINE
  5
18E
100
AcDbEntity
  8
0
  6
Continuous
 62
               4
100
AcDbLine
 10
164.14213562373095
 20
615.85786437626837
 30
0.0
 11
14.142135623730949
 21
615.85786437626837
 31
0.0
  0
CIRCLE
  5
18F
100
AcDbEntity
  8
0
  6
Continuous
 62
               4
100
AcDbCircle
 10
673.64405590101796
 20
449.05320879307209
 30
0.0
 40
1.500000000000002
  0
CIRCLE
  5
190
100
AcDbEntity
  8
0
  6
Continuous
 62
               4
100
AcDbCircle
 10
673.64405590101796
 20
419.05320879307197
 30
0.0
 40
1.500000000000002
  0
CIRCLE
  5
191
100
AcDbEntity
  8
0
  6
Continuous
 62
               4
100
AcDbCircle
 10
673.64405590101796
 20
415.05320879307197
 30
0.0
 40
1.500000000000002
  0
CIRCLE
  5
192
100
AcDbEntity
  8
0
  6
Continuous
 62
               4
100
AcDbCircle
 10
673.64405590101796
 20
403.05320879307197
 30
0.0
 40
1.500000000000002
  0
CIRCLE
  5
193
100
AcDbEntity
  8
0
  6
Continuous
 62
               4
100
AcDbCircle
 10
673.64405590101796
 20
403.05320879307197
 30
0.0
 40
1.500000000000002
  0
CIRCLE
  5
194
100
AcDbEntity
  8
0
  6
Continuous
 62
               4
100
AcDbCircle
 10
673.64405590101796
 20
373.05320879307192
 30
0.0
 40
1.500000000000002
  0
CIRCLE
  5
195
100
AcDbEntity
  8
0
  6
Continuous
 62
               4
100
AcDbCircle
 10
276.64405590101717
 20
455.05320879307197
 30
0.0
 40
1.500000000000002
  0
CIRCLE
  5
196
100
AcDbEntity
  8
0
  6
Continuous
 62
               4
100
AcDbCircle
 10
296.64405590101751
 20
455.05320879307197
 30
0.0
 40
1.500000000000002
  0
CIRCLE
  5
197
100
AcDbEntity
  8
0
  6
Continuous
 62
               4
100
AcDbCircle
 10
276.64405590101717
 20
482.05320879307197
 30
0.0
 40
1.500000000000002
  0
CIRCLE
  5
198
100
AcDbEntity
  8
0
  6
Continuous
 62
               4
100
AcDbCircle
 10
546.64405590101785
 20
482.05320879307197
 30
0.0
 40
1.500000000000002
  0
CIRCLE
  5
199
100
AcDbEntity
  8
0
  6
Continuous
 62
               4
100
AcDbCircle
 10
546.64405590101785
 20
482.05320879307197
 30
0.0
 40
1.500000000000002
  0
CIRCLE
  5
19A
100
AcDbEntity
  8
0
  6
Continuous
 62
               4
100
AcDbCircle
 10
249.64405590101717
 20
416.55320879307197
 30
0.0
 40
1.500000000000002
  0
CIRCLE
  5
19B
100
AcDbEntity
  8
0
  6
Continuous
 62
               4
100
AcDbCircle
 10
249.64405590101717
 20
366.55320879307186
 30
0.0
 40
1.500000000000002
  0
CIRCLE
  5
19C
100
AcDbEntity
  8
0
  6
Continuous
 62
               7
100
AcDbCircle
 10
340.18643603800444
 20
381.96767797115427
 30
0.0
 40
0.5
  0
CIRCLE
  5
19D
100
AcDbEntity
  8
0
  6
Continuous
 62
               7
100
AcDbCircle
 10
350.79217233937436
 20
381.20483550540081
 30
0.0
 40
1.0
  0
CIRCLE
  5
19E
100
AcDbEntity
  8
0
  6
Continuous
 62
               7
100
AcDbCircle
 10
345.45227507910033
 20
392.13891084786661
 30
0.0
 40
0.5
  0
CIRCLE
  5
19F
100
AcDbEntity
  8
0
  6
Continuous
 62
               7
100
AcDbCircle
 10
354.8606654900592
 20
395.44456153279799
 30
0.0
 40
1.0
  0
CIRCLE
  5
1A0
100
AcDbEntity
  8
0
  6
Continuous
 62
               7
100
AcDbCircle
 10
353.58926138047025
 20
388.83326016293501
 30
0.0
 40
0.1
  0
CIRCLE
  5
1A1
100
AcDbEntity
  8
0
  6
Continuous
 62
               7
100
AcDbCircle
 10
356.89491206540174
 20
381.96767797115427
 30
0.0
 40
0.5
  0
CIRCLE
  5
1A2
100
AcDbEntity
  8
0
  6
Continuous
 62
               7
100
AcDbCircle
 10
344.68943261334687
 20
384.51048619033219
 30
0.0
 40
0.1
  0
CIRCLE
  5
1A3
100
AcDbEntity
  8
0
  6
Continuous
 62
               7
100
AcDbCircle
 10
345.45227507910033
 20
378.66202728622261
 30
0.0
 40
0.1
  0
CIRCLE
  5
1A4
100
AcDbEntity
  8
0
  6
Continuous
 62
               7
100
AcDbCircle
 10
348.24936412019622
 20
395.44456153279799
 30
0.0
 40
0.1
  0
CIRCLE
  5
1A5
100
AcDbEntity
  8
0
  6
Continuous
 62
               7
100
AcDbCircle
 10
367.50064836677154
 20
381.20483550540081
 30
0.0
 40
1.0
  0
CIRCLE
  5
1A6
100
AcDbEntity
  8
0
  6
Continuous
 62
               7
100
AcDbCircle
 10
362.16075110649763
 20
392.13891084786661
 30
0.0
 40
0.5
  0
CIRCLE
  5
1A7
100
AcDbEntity
  8
0
  6
Continuous
 62
               7
100
AcDbCircle
 10
371.5691415174565
 20
395.44456153279799
 30
0.0
 40
1.0
  0
CIRCLE
  5
1A8
100
AcDbEntity
  8
0
  6
Continuous
 62
               7
100
AcDbCircle
 10
370.29773740786743
 20
388.83326016293501
 30
0.0
 40
0.1
  0
CIRCLE
  5
1A9
100
AcDbEntity
  8
0
  6
Continuous
 62
               7
100
AcDbCircle
 10
373.60338809279904
 20
381.96767797115427
 30
0.0
 40
0.5
  0
CIRCLE
  5
1AA
100
AcDbEntity
  8
0
  6
Continuous
 62
               7
100
AcDbCircle
 10
361.39790864074416
 20
384.51048619033219
 30
0.0
 40
0.1
  0
CIRCLE
  5
1AB
100
AcDbEntity
  8
0
  6
Continuous
 62
               7
100
AcDbCircle
 10
362.16075110649763
 20
378.66202728622261
 30
0.0
 40
0.1
  0
CIRCLE
  5
1AC
100
AcDbEntity
  8
0
  6
Continuous
 62
               7
100
AcDbCircle
 10
364.95784014759352
 20
395.44456153279799
 30
0.0
 40
0.1
  0
CIRCLE
  5
1AD
100
AcDbEntity
  8
0
  6
Continuous
 62
               7
100
AcDbCircle
 10
384.20912439416884
 20
381.20483550540081
 30
0.0
 40
1.0
  0
CIRCLE
  5
1AE
100
AcDbEntity
  8
0
  6
Continuous
 62
               7
100
AcDbCircle
 10
378.86922713389492
 20
392.13891084786661
 30
0.0
 40
0.5
  0
CIRCLE
  5
1AF
100
AcDbEntity
  8
0
  6
Continuous
 62
               7
100
AcDbCircle
 10
388.2776175448538
 20
395.44456153279799
 30
0.0
 40
1.0
  0
CIRCLE
  5
1B0
100
AcDbEntity
  8
0
  6
Continuous
 62
               7
100
AcDbCircle
 10
387.00621343526473
 20
388.83326016293501
 30
0.0
 40
0.1
  0
CIRCLE
  5
1B1
100
AcDbEntity
  8
0
  6
Continuous
 62
               7
100
AcDbCircle
 10
390.31186412019633
 20
381.96767797115427
 30
0.0
 40
0.5
  0
CIRCLE
  5
1B2
100
AcDbEntity
  8
0
  6
Continuous
 62
               7
100
AcDbCircle
 10
378.10638466814146
 20
384.51048619033219
 30
0.0
 40
0.1
  0
CIRCLE
  5
1B3
100
AcDbEntity
  8
0
  6
Continuous
 62
               7
100
AcDbCircle
 10
378.86922713389492
 20
378.66202728622261
 30
0.0
 40
0.1
  0
CIRCLE
  5
1B4
100
AcDbEntity
  8
0
  6
Continuous
 62
               7
100
AcDbCircle
 10
381.66631617499081
 20
395.44456153279799
 30
0.0
 40
0.1
  0
CIRCLE
  5
1B5
100
AcDbEntity
  8
0
  6
Continuous
 62
               7
100
AcDbCircle
 10
400.91760042156614
 20
381.20483550540081
 30
0.0
 40
1.0
  0
CIRCLE
  5
1B6
100
AcDbEntity
  8
0
  6
Continuous
 62
               7
100
AcDbCircle
 10
395.57770316129222
 20
392.13891084786661
 30
0.0
 40
0.5
  0
CIRCLE
  5
1B7
100
AcDbEntity
  8
0
  6
Continuous
 62
               7
100
AcDbCircle
 10
404.98609357225109
 20
395.44456153279799
 30
0.0
 40
1.0
  0
CIRCLE
  5
1B8
100
AcDbEntity
  8
0
  6
Continuous
 62
               7
100
AcDbCircle
 10
403.71468946266202
 20
388.83326016293501
 30
0.0
 40
0.1
  0
CIRCLE
  5
1B9
100
AcDbEntity
  8
0
  6
Continuous
 62
               7
100
AcDbCircle
 10
407.02034014759352
 20
381.96767797115427
 30
0.0
 40
0.5
  0
CIRCLE
  5
1BA
100
AcDbEntity
  8
0
  6
Continuous
 62
               7
100
AcDbCircle
 10
394.81486069553875
 20
384.51048619033219
 30
0.0
 40
0.1
  0
CIRCLE
  5
1BB
100
AcDbEntity
  8
0
  6
Continuous
 62
               7
100
AcDbCircle
 10
395.57770316129222
 20
378.66202728622261
 30
0.0
 40
0.1
  0
CIRCLE
  5
1BC
100
AcDbEntity
  8
0
  6
Continuous
 62
               7
100
AcDbCircle
 10
398.37479220238811
 20
395.44456153279799
 30
0.0
 40
0.1
  0
CIRCLE
  5
1BD
100
AcDbEntity
  8
0
  6
Continuous
 62
               7
100
AcDbCircle
 10
417.62607644896343
 20
381.20483550540081
 30
0.0
 40
1.0
  0
CIRCLE
  5
1BE
100
AcDbEntity
  8
0
  6
Continuous
 62
               7
100
AcDbCircle
 10
412.2861791886894
 20
392.13891084786661
 30
0.0
 40
0.5
  0
CIRCLE
  5
1BF
100
AcDbEntity
  8
0
  6
Continuous
 62
               7
100
AcDbCircle
 10
421.69456959964839
 20
395.44456153279799
 30
0.0
 40
1.0
  0
CIRCLE
  5
1C0
100
AcDbEntity
  8
0
  6
Continuous
 62
               7
100
AcDbCircle
 10
420.42316549005932
 20
388.83326016293501
 30
0.0
 40
0.1
  0
CIRCLE
  5
1C1
100
AcDbEntity
  8
0
  6
Continuous
 62
               7
100
AcDbCircle
 10
423.72881617499081
 20
381.96767797115427
 30
0.0
 40
0.5
  0
CIRCLE
  5
1C2
100
AcDbEntity
  8
0
  6
Continuous
 62
               7
100
AcDbCircle
 10
411.52333672293605
 20
384.51048619033219
 30
0.0
 40
0.1
  0
CIRCLE
  5
1C3
100
AcDbEntity
  8
0
  6
Continuous
 62
               7
100
AcDbCircle
 10
412.2861791886894
 20
378.66202728622261
 30
0.0
 40
0.1
  0
CIRCLE
  5
1C4
100
AcDbEntity
  8
0
  6
Continuous
 62
               7
100
AcDbCircle
 10
415.08326822978529
 20
395.44456153279799
 30
0.0
 40
0.1
  0
CIRCLE
  5
1C5
100
AcDbEntity
  8
0
  6
Continuous
 62
               7
100
AcDbCircle
 10
434.33455247636073
 20
381.20483550540081
 30
0.0
 40
1.0
  0
CIRCLE
  5
1C6
100
AcDbEntity
  8
0
  6
Continuous
 62
               7
100
AcDbCircle
 10
428.9946552160867
 20
392.13891084786661
 30
0.0
 40
0.5
  0
CIRCLE
  5
1C7
100
AcDbEntity
  8
0
  6
Continuous
 62
               7
100
AcDbCircle
 10
438.40304562704557
 20
395.44456153279799
 30
0.0
 40
1.0
  0
CIRCLE
  5
1C8
100
AcDbEntity
  8
0
  6
Continuous
 62
               7
100
AcDbCircle
 10
437.13164151745661
 20
388.83326016293501
 30
0.0
 40
0.1
  0
CIRCLE
  5
1C9
100
AcDbEntity
  8
0
  6
Continuous
 62
               7
100
AcDbCircle
 10
440.43729220238811
 20
381.96767797115427
 30
0.0
 40
0.5
  0
CIRCLE
  5
1CA
100
AcDbEntity
  8
0
  6
Continuous
 62
               7
100
AcDbCircle
 10
428.23181275033323
 20
384.51048619033219
 30
0.0
 40
0.1
  0
CIRCLE
  5
1CB
100
AcDbEntity
  8
0
  6
Continuous
 62
               7
100
AcDbCircle
 10
428.9946552160867
 20
378.66202728622261
 30
0.0
 40
0.1
  0
CIRCLE
  5
1CC
100
AcDbEntity
  8
0
  6
Continuous
 62
               7
100
AcDbCircle
 10
431.79174425718259
 20
395.44456153279799
 30
0.0
 40
0.1
  0
CIRCLE
  5
1CD
100
AcDbEntity
  8
0
  6
Continuous
 62
               7
100
AcDbCircle
 10
451.04302850375791
 20
381.20483550540081
 30
0.0
 40
1.0
  0
CIRCLE
  5
1CE
100
AcDbEntity
  8
0
  6
Continuous
 62
               7
100
AcDbCircle
 10
445.70313124348399
 20
392.13891084786661
 30
0.0
 40
0.5
  0
CIRCLE
  5
1CF
100
AcDbEntity
  8
0
  6
Continuous
 62
               7
100
AcDbCircle
 10
455.11152165444287
 20
395.44456153279799
 30
0.0
 40
1.0
  0
CIRCLE
  5
1D0
100
AcDbEntity
  8
0
  6
Continuous
 62
               7
100
AcDbCircle
 10
453.8401175448538
 20
388.83326016293501
 30
0.0
 40
0.1
  0
CIRCLE
  5
1D1
100
AcDbEntity
  8
0
  6
Continuous
 62
               7
100
AcDbCircle
 10
457.14576822978518
 20
381.96767797115427
 30
0.0
 40
0.5
  0
CIRCLE
  5
1D2
100
AcDbEntity
  8
0
  6
Continuous
 62
               7
100
AcDbCircle
 10
444.94028877773053
 20
384.51048619033219
 30
0.0
 40
0.1
  0
CIRCLE
  5
1D3
100
AcDbEntity
  8
0
  6
Continuous
 62
               7
100
AcDbCircle
 10
445.70313124348399
 20
378.66202728622261
 30
0.0
 40
0.1
  0
CIRCLE
  5
1D4
100
AcDbEntity
  8
0
  6
Continuous
 62
               7
100
AcDbCircle
 10
448.50022028457988
 20
395.44456153279799
 30
0.0
 40
0.1
  0
CIRCLE
  5
1D5
100
AcDbEntity
  8
0
  6
Continuous
 62
               7
100
AcDbCircle
 10
467.75150453115498
 20
381.20483550540081
 30
0.0
 40
1.0
  0
CIRCLE
  5
1D6
100
AcDbEntity
  8
0
  6
Continuous
 62
               7
100
AcDbCircle
 10
462.41160727088106
 20
392.13891084786661
 30
0.0
 40
0.5
  0
CIRCLE
  5
1D7
100
AcDbEntity
  8
0
  6
Continuous
 62
               7
100
AcDbCircle
 10
471.81999768183994
 20
395.44456153279799
 30
0.0
 40
1.0
  0
CIRCLE
  5
1D8
100
AcDbEntity
  8
0
  6
Continuous
 62
               7
100
AcDbCircle
 10
470.54859357225087
 20
388.83326016293501
 30
0.0
 40
0.1
  0
CIRCLE
  5
1D9
100
AcDbEntity
  8
0
  6
Continuous
 62
               7
100
AcDbCircle
 10
473.85424425718236
 20
381.96767797115427
 30
0.0
 40
0.5
  0
CIRCLE
  5
1DA
100
AcDbEntity
  8
0
  6
Continuous
 62
               7
100
AcDbCircle
 10
461.6487648051276
 20
384.51048619033219
 30
0.0
 40
0.1
  0
CIRCLE
  5
1DB
100
AcDbEntity
  8
0
  6
Continuous
 62
               7
100
AcDbCircle
 10
462.41160727088106
 20
378.66202728622261
 30
0.0
 40
0.1
  0
CIRCLE
  5
1DC
100
AcDbEntity
  8
0
  6
Continuous
 62
               7
100
AcDbCircle
 10
465.20869631197695
 20
395.44456153279799
 30
0.0
 40
0.1
  0
CIRCLE
  5
1DD
100
AcDbEntity
  8
0
  6
Continuous
 62
               7
100
AcDbCircle
 10
484.45998055855227
 20
381.20483550540081
 30
0.0
 40
1.0
  0
CIRCLE
  5
1DE
100
AcDbEntity
  8
0
  6
Continuous
 62
               7
100
AcDbCircle
 10
479.12008329827836
 20
392.13891084786661
 30
0.0
 40
0.5
  0
CIRCLE
  5
1DF
100
AcDbEntity
  8
0
  6
Continuous
 62
               7
100
AcDbCircle
 10
488.52847370923723
 20
395.44456153279799
 30
0.0
 40
1.0
  0
CIRCLE
  5
1E0
100
AcDbEntity
  8
0
  6
Continuous
 62
               7
100
AcDbCircle
 10
487.25706959964816
 20
388.83326016293501
 30
0.0
 40
0.1
  0
CIRCLE
  5
1E1
100
AcDbEntity
  8
0
  6
Continuous
 62
               7
100
AcDbCircle
 10
490.56272028457965
 20
381.96767797115427
 30
0.0
 40
0.5
  0
CIRCLE
  5
1E2
100
AcDbEntity
  8
0
  6
Continuous
 62
               7
100
AcDbCircle
 10
478.35724083252489
 20
384.51048619033219
 30
0.0
 40
0.1
  0
CIRCLE
  5
1E3
100
AcDbEntity
  8
0
  6
Continuous
 62
               7
100
AcDbCircle
 10
479.12008329827836
 20
378.66202728622261
 30
0.0
 40
0.1
  0
CIRCLE
  5
1E4
100
AcDbEntity
  8
0
  6
Continuous
 62
               7
100
AcDbCircle
 10
481.91717233937425
 20
395.44456153279799
 30
0.0
 40
0.1
  0
CIRCLE
  5
1E5
100
AcDbEntity
  8
0
  6
Continuous
 62
               7
100
AcDbCircle
 10
501.16845658594957
 20
381.20483550540081
 30
0.0
 40
1.0
  0
CIRCLE
  5
1E6
100
AcDbEntity
  8
0
  6
Continuous
 62
               7
100
AcDbCircle
 10
495.82855932567554
 20
392.13891084786661
 30
0.0
 40
0.5
  0
CIRCLE
  5
1E7
100
AcDbEntity
  8
0
  6
Continuous
 62
               7
100
AcDbCircle
 10
505.23694973663453
 20
395.44456153279799
 30
0.0
 40
1.0
  0
CIRCLE
  5
1E8
100
AcDbEntity
  8
0
  6
Continuous
 62
               7
100
AcDbCircle
 10
503.96554562704546
 20
388.83326016293501
 30
0.0
 40
0.1
  0
CIRCLE
  5
1E9
100
AcDbEntity
  8
0
  6
Continuous
 62
               7
100
AcDbCircle
 10
507.27119631197695
 20
381.96767797115427
 30
0.0
 40
0.5
  0
CIRCLE
  5
1EA
100
AcDbEntity
  8
0
  6
Continuous
 62
               7
100
AcDbCircle
 10
495.06571685992219
 20
384.51048619033219
 30
0.0
 40
0.1
  0
CIRCLE
  5
1EB
100
AcDbEntity
  8
0
  6
Continuous
 62
               7
100
AcDbCircle
 10
495.82855932567554
 20
378.66202728622261
 30
0.0
 40
0.1
  0
CIRCLE
  5
1EC
100
AcDbEntity
  8
0
  6
Continuous
 62
               7
100
AcDbCircle
 10
498.62564836677143
 20
395.44456153279799
 30
0.0
 40
0.1
  0
CIRCLE
  5
1ED
100
AcDbEntity
  8
0
  6
Continuous
 62
               7
100
AcDbCircle
 10
517.87693261334687
 20
381.20483550540081
 30
0.0
 40
1.0
  0
CIRCLE
  5
1EE
100
AcDbEntity
  8
0
  6
Continuous
 62
               7
100
AcDbCircle
 10
512.53703535307284
 20
392.13891084786661
 30
0.0
 40
0.5
  0
CIRCLE
  5
1EF
100
AcDbEntity
  8
0
  6
Continuous
 62
               7
100
AcDbCircle
 10
521.94542576403171
 20
395.44456153279799
 30
0.0
 40
1.0
  0
CIRCLE
  5
1F0
100
AcDbEntity
  8
0
  6
Continuous
 62
               7
100
AcDbCircle
 10
520.67402165444275
 20
388.83326016293501
 30
0.0
 40
0.1
  0
CIRCLE
  5
1F1
100
AcDbEntity
  8
0
  6
Continuous
 62
               7
100
AcDbCircle
 10
523.97967233937413
 20
381.96767797115427
 30
0.0
 40
0.5
  0
CIRCLE
  5
1F2
100
AcDbEntity
  8
0
  6
Continuous
 62
               7
100
AcDbCircle
 10
511.77419288731937
 20
384.51048619033219
 30
0.0
 40
0.1
  0
CIRCLE
  5
1F3
100
AcDbEntity
  8
0
  6
Continuous
 62
               7
100
AcDbCircle
 10
512.53703535307284
 20
378.66202728622261
 30
0.0
 40
0.1
  0
CIRCLE
  5
1F4
100
AcDbEntity
  8
0
  6
Continuous
 62
               7
100
AcDbCircle
 10
515.33412439416873
 20
395.44456153279799
 30
0.0
 40
0.1
  0
CIRCLE
  5
1F5
100
AcDbEntity
  8
0
  6
Continuous
 62
               7
100
AcDbCircle
 10
600.29046001060669
 20
381.20483550540081
 30
0.0
 40
1.0
  0
CIRCLE
  5
1F6
100
AcDbEntity
  8
0
  6
Continuous
 62
               7
100
AcDbCircle
 10
594.95056275033312
 20
392.13891084786661
 30
0.0
 40
0.5
  0
CIRCLE
  5
1F7
100
AcDbEntity
  8
0
  6
Continuous
 62
               7
100
AcDbCircle
 10
604.35895316129199
 20
395.44456153279799
 30
0.0
 40
1.0
  0
CIRCLE
  5
1F8
100
AcDbEntity
  8
0
  6
Continuous
 62
               7
100
AcDbCircle
 10
603.08754905170281
 20
388.83326016293501
 30
0.0
 40
0.1
  0
CIRCLE
  5
1F9
100
AcDbEntity
  8
0
  6
Continuous
 62
               7
100
AcDbCircle
 10
606.39319973663441
 20
381.96767797115427
 30
0.0
 40
0.5
  0
CIRCLE
  5
1FA
100
AcDbEntity
  8
0
  6
Continuous
 62
               7
100
AcDbCircle
 10
594.18772028457943
 20
384.51048619033219
 30
0.0
 40
0.1
  0
CIRCLE
  5
1FB
100
AcDbEntity
  8
0
  6
Continuous
 62
               7
100
AcDbCircle
 10
594.95056275033312
 20
378.66202728622261
 30
0.0
 40
0.1
  0
CIRCLE
  5
1FC
100
AcDbEntity
  8
0
  6
Continuous
 62
               7
100
AcDbCircle
 10
597.74765179142878
 20
395.44456153279799
 30
0.0
 40
0.1
  0
CIRCLE
  5
1FD
100
AcDbEntity
  8
0
  6
Continuous
 62
               7
100
AcDbCircle
 10
616.9989360380041
 20
381.20483550540081
 30
0.0
 40
1.0
  0
CIRCLE
  5
1FE
100
AcDbEntity
  8
0
  6
Continuous
 62
               7
100
AcDbCircle
 10
611.65903877773007
 20
392.13891084786661
 30
0.0
 40
0.5
  0
CIRCLE
  5
1FF
100
AcDbEntity
  8
0
  6
Continuous
 62
               7
100
AcDbCircle
 10
621.06742918868895
 20
395.44456153279799
 30
0.0
 40
1.0
  0
CIRCLE
  5
200
100
AcDbEntity
  8
0
  6
Continuous
 62
               7
100
AcDbCircle
 10
619.79602507909976
 20
388.83326016293501
 30
0.0
 40
0.1
  0
CIRCLE
  5
201
100
AcDbEntity
  8
0
  6
Continuous
 62
               7
100
AcDbCircle
 10
623.10167576403137
 20
381.96767797115427
 30
0.0
 40
0.5
  0
CIRCLE
  5
202
100
AcDbEntity
  8
0
  6
Continuous
 62
               7
100
AcDbCircle
 10
610.89619631197684
 20
384.51048619033219
 30
0.0
 40
0.1
  0
CIRCLE
  5
203
100
AcDbEntity
  8
0
  6
Continuous
 62
               7
100
AcDbCircle
 10
611.65903877773007
 20
378.66202728622261
 30
0.0
 40
0.1
  0
CIRCLE
  5
204
100
AcDbEntity
  8
0
  6
Continuous
 62
               7
100
AcDbCircle
 10
614.45612781882573
 20
395.44456153279799
 30
0.0
 40
0.1
  0
CIRCLE
  5
205
100
AcDbEntity
  8
0
  6
Continuous
 62
               7
100
AcDbCircle
 10
633.70741206540151
 20
381.20483550540081
 30
0.0
 40
1.0
  0
CIRCLE
  5
206
100
AcDbEntity
  8
0
  6
Continuous
 62
               7
100
AcDbCircle
 10
628.36751480512748
 20
392.13891084786661
 30
0.0
 40
0.5
  0
CIRCLE
  5
207
100
AcDbEntity
  8
0
  6
Continuous
 62
               7
100
AcDbCircle
 10
637.77590521608636
 20
395.44456153279799
 30
0.0
 40
1.0
  0
CIRCLE
  5
208
100
AcDbEntity
  8
0
  6
Continuous
 62
               7
100
AcDbCircle
 10
636.50450110649763
 20
388.83326016293501
 30
0.0
 40
0.1
  0
CIRCLE
  5
209
100
AcDbEntity
  8
0
  6
Continuous
 62
               7
100
AcDbCircle
 10
639.81015179142878
 20
381.96767797115427
 30
0.0
 40
0.5
  0
CIRCLE
  5
20A
100
AcDbEntity
  8
0
  6
Continuous
 62
               7
100
AcDbCircle
 10
627.60467233937379
 20
384.51048619033219
 30
0.0
 40
0.1
  0
CIRCLE
  5
20B
100
AcDbEntity
  8
0
  6
Continuous
 62
               7
100
AcDbCircle
 10
628.36751480512748
 20
378.66202728622261
 30
0.0
 40
0.1
  0
CIRCLE
  5
20C
100
AcDbEntity
  8
0
  6
Continuous
 62
               7
100
AcDbCircle
 10
631.16460384622314
 20
395.44456153279799
 30
0.0
 40
0.1
  0
CIRCLE
  5
20D
100
AcDbEntity
  8
0
  6
Continuous
 62
               7
100
AcDbCircle
 10
645.07599083252489
 20
392.13891084786661
 30
0.0
 40
0.5
  0
CIRCLE
  5
20E
100
AcDbEntity
  8
0
  6
Continuous
 62
               7
100
AcDbCircle
 10
644.3131483667712
 20
384.51048619033219
 30
0.0
 40
0.1
  0
CIRCLE
  5
20F
100
AcDbEntity
  8
0
  6
Continuous
 62
               7
100
AcDbCircle
 10
645.07599083252489
 20
378.66202728622261
 30
0.0
 40
0.1
  0
ARC
  5
210
100
AcDbEntity
  8
0
  6
Continuous
 62
               4
100
AcDbCircle
 10
536.6440559010174
 20
402.05320879307197
 30
0.0
 40
1.0
100
AcDbArc
 50
89.999999999999957
 51
180.0
  0
ARC
  5
211
100
AcDbEntity
  8
0
  6
DASHED
 62
               4
100
AcDbCircle
 10
540.6440559010174
 20
401.05320879307197
 30
0.0
 40
1.0
100
AcDbArc
 50
0.0
 51
89.999999999999957
  0
ARC
  5
212
100
AcDbEntity
  8
0
  6
Continuous
 62
               4
100
AcDbCircle
 10
541.6440559010174
 20
402.05320879307197
 30
0.0
 40
1.0
100
AcDbArc
 50
0.0
 51
89.999999999999957
  0
ARC
  5
213
100
AcDbEntity
  8
0
  6
Continuous
 62
               4
100
AcDbCircle
 10
536.6440559010174
 20
394.05320879307197
 30
0.0
 40
1.0
100
AcDbArc
 50
180.0
 51
269.99999999999994
  0
ARC
  5
214
100
AcDbEntity
  8
0
  6
Continuous
 62
               4
100
AcDbCircle
 10
538.6440559010174
 20
394.05320879307197
 30
0.0
 40
1.0
100
AcDbArc
 50
269.99999999999994
 51
0.0
  0
ARC
  5
215
100
AcDbEntity
  8
0
  6
DASHED
 62
               4
100
AcDbCircle
 10
537.6440559010174
 20
395.05320879307197
 30
0.0
 40
1.0
100
AcDbArc
 50
269.99999999999994
 51
0.0
  0
ARC
  5
216
100
AcDbEntity
  8
0
  6
DASHED
 62
               4
100
AcDbCircle
 10
537.6440559010174
 20
395.05320879307197
 30
0.0
 40
1.0
100
AcDbArc
 50
180.0
 51
269.99999999999994
  0
ARC
  5
217
100
AcDbEntity
  8
0
  6
DASHED
 62
               4
100
AcDbCircle
 10
537.6440559010174
 20
401.05320879307197
 30
0.0
 40
1.0
100
AcDbArc
 50
89.999999999999957
 51
180.0
  0
ARC
  5
218
100
AcDbEntity
  8
0
  6
Continuous
 62
               4
100
AcDbCircle
 10
538.6440559010174
 20
400.05320879307197
 30
0.0
 40
1.0
100
AcDbArc
 50
89.999999999999957
 51
180.0
  0
ARC
  5
219
100
AcDbEntity
  8
0
  6
Continuous
 62
               4
100
AcDbCircle
 10
539.6440559010174
 20
400.05320879307197
 30
0.0
 40
1.0
100
AcDbArc
 50
0.0
 51
89.999999999999957
  0
ARC
  5
21A
100
AcDbEntity
  8
0
  6
Continuous
 62
               4
100
AcDbCircle
 10
543.6440559010174
 20
396.05320879307197
 30
0.0
 40
1.0
100
AcDbArc
 50
180.0
 51
269.99999999999994
  0
ARC
  5
21B
100
AcDbEntity
  8
0
  6
Continuous
 62
               4
100
AcDbCircle
 10
586.64405590101751
 20
402.05320879307197
 30
0.0
 40
1.0
100
AcDbArc
 50
0.0
 51
90.000000000000028
  0
ARC
  5
21C
100
AcDbEntity
  8
0
  6
DASHED
 62
               4
100
AcDbCircle
 10
582.64405590101751
 20
401.05320879307197
 30
0.0
 40
1.0
100
AcDbArc
 50
90.000000000000028
 51
180.0
  0
ARC
  5
21D
100
AcDbEntity
  8
0
  6
Continuous
 62
               4
100
AcDbCircle
 10
581.64405590101751
 20
402.05320879307197
 30
0.0
 40
1.0
100
AcDbArc
 50
90.000000000000028
 51
180.0
  0
ARC
  5
21E
100
AcDbEntity
  8
0
  6
Continuous
 62
               4
100
AcDbCircle
 10
586.64405590101751
 20
394.05320879307197
 30
0.0
 40
1.0
100
AcDbArc
 50
269.99999999999994
 51
0.0
  0
ARC
  5
21F
100
AcDbEntity
  8
0
  6
Continuous
 62
               4
100
AcDbCircle
 10
584.64405590101751
 20
394.05320879307197
 30
0.0
 40
1.0
100
AcDbArc
 50
180.0
 51
269.99999999999994
  0
ARC
  5
220
100
AcDbEntity
  8
0
  6
DASHED
 62
               4
100
AcDbCircle
 10
585.64405590101751
 20
395.05320879307197
 30
0.0
 40
1.0
100
AcDbArc
 50
180.0
 51
269.99999999999994
  0
ARC
  5
221
100
AcDbEntity
  8
0
  6
DASHED
 62
               4
100
AcDbCircle
 10
585.64405590101751
 20
395.05320879307197
 30
0.0
 40
1.0
100
AcDbArc
 50
269.99999999999994
 51
0.0
  0
ARC
  5
222
100
AcDbEntity
  8
0
  6
DASHED
 62
               4
100
AcDbCircle
 10
585.64405590101751
 20
401.05320879307197
 30
0.0
 40
1.0
100
AcDbArc
 50
0.0
 51
90.000000000000028
  0
ARC
  5
223
100
AcDbEntity
  8
0
  6
Continuous
 62
               4
100
AcDbCircle
 10
584.64405590101751
 20
400.05320879307197
 30
0.0
 40
1.0
100
AcDbArc
 50
0.0
 51
90.000000000000028
  0
ARC
  5
224
100
AcDbEntity
  8
0
  6
Continuous
 62
               4
100
AcDbCircle
 10
583.64405590101751
 20
400.05320879307197
 30
0.0
 40
1.0
100
AcDbArc
 50
90.000000000000028
 51
180.0
  0
ARC
  5
225
100
AcDbEntity
  8
0
  6
Continuous
 62
               4
100
AcDbCircle
 10
579.64405590101751
 20
396.05320879307197
 30
0.0
 40
1.0
100
AcDbArc
 50
269.99999999999994
 51
0.0
  0
ARC
  5
226
100
AcDbEntity
  8
0
  6
Continuous
 62
               4
100
AcDbCircle
 10
304.64405590101751
 20
372.05320879307192
 30
0.0
 40
2.0
100
AcDbArc
 50
89.999999999999957
 51
269.99999999999994
  0
ARC
  5
227
100
AcDbEntity
  8
0
  6
Continuous
 62
               4
100
AcDbCircle
 10
297.39405590101751
 20
366.55320879307192
 30
0.0
 40
0.75
100
AcDbArc
 50
180.0
 51
0.0
  0
ARC
  5
228
100
AcDbEntity
  8
0
  6
Continuous
 62
               6
100
AcDbCircle
 10
368.64405590101774
 20
260.05320879307197
 30
0.0
 40
2.0
100
AcDbArc
 50
180.0
 51
269.99999999999994
  0
ARC
  5
229
100
AcDbEntity
  8
0
  6
Continuous
 62
               6
100
AcDbCircle
 10
414.64405590101774
 20
260.05320879307197
 30
0.0
 40
2.0
100
AcDbArc
 50
269.99999999999994
 51
0.0
  0
ARC
  5
22A
100
AcDbEntity
  8
0
  6
Continuous
 62
               6
100
AcDbCircle
 10
368.64405590101774
 20
356.05320879307237
 30
0.0
 40
2.0
100
AcDbArc
 50
89.999999999999957
 51
180.0
  0
ARC
  5
22B
100
AcDbEntity
  8
0
  6
Continuous
 62
               6
100
AcDbCircle
 10
414.64405590101774
 20
356.05320879307237
 30
0.0
 40
2.0
100
AcDbArc
 50
0.0
 51
89.999999999999957
  0
ARC
  5
22C
100
AcDbEntity
  8
0
  6
Continuous
 62
               4
100
AcDbCircle
 10
334.39405590101751
 20
286.55320879307197
 30
0.0
 40
0.75
100
AcDbArc
 50
180.0
 51
0.0
  0
ARC
  5
22D
100
AcDbEntity
  8
0
  6
Continuous
 62
               4
100
AcDbCircle
 10
304.64405590101751
 20
371.30320879307197
 30
0.0
 40
0.75
100
AcDbArc
 50
89.999999999999957
 51
269.99999999999994
  0
ARC
  5
22E
100
AcDbEntity
  8
0
  6
Continuous
 62
               4
100
AcDbCircle
 10
330.39405590101751
 20
330.55320879307197
 30
0.0
 40
0.75
100
AcDbArc
 50
180.0
 51
0.0
  0
ARC
  5
22F
100
AcDbEntity
  8
0
  6
Continuous
 62
               4
100
AcDbCircle
 10
276.64405590101717
 20
417.30320879307197
 30
0.0
 40
0.75
100
AcDbArc
 50
89.999999999999957
 51
269.99999999999994
  0
ARC
  5
230
100
AcDbEntity
  8
0
  6
Continuous
 62
               2
100
AcDbCircle
 10
276.64405590101717
 20
417.05320879307197
 30
0.0
 40
2.0000000000000591
100
AcDbArc
 50
90.000000000000028
 51
270.00000000000244
  0
ARC
  5
231
100
AcDbEntity
  8
0
  6
Continuous
 62
               2
100
AcDbCircle
 10
546.97091070560339
 20
414.76512436966362
 30
0.0
 40
13.241589910331108
100
AcDbArc
 50
95.750894029487426
 51
165.62217941183397
  0
ARC
  5
232
100
AcDbEntity
  8
0
  6
Continuous
 62
               2
100
AcDbCircle
 10
546.31720109643209
 20
414.76512436966362
 30
0.0
 40
13.241589910331108
100
AcDbArc
 50
14.377820588166037
 51
84.249105970512801
  0
ARC
  5
233
100
AcDbEntity
  8
0
  6
Continuous
 62
               2
100
AcDbCircle
 10
544.39405590101762
 20
439.80320879307186
 30
0.0
 40
0.750000000000014
100
AcDbArc
 50
180.0
 51
0.0
  0
ARC
  5
234
100
AcDbEntity
  8
0
  6
Continuous
 62
               2
100
AcDbCircle
 10
545.64405590101762
 20
447.05320879307197
 30
0.0
 40
2.0000000000000142
100
AcDbArc
 50
0.0
 51
180.0
  0
ARC
  5
235
100
AcDbEntity
  8
0
  6
Continuous
 62
               4
100
AcDbCircle
 10
545.39405590101762
 20
447.36494754290521
 30
0.0
 40
1.250000000000014
100
AcDbArc
 50
0.0
 51
180.0
  0
ARC
  5
236
100
AcDbEntity
  8
0
  6
Continuous
 62
               4
100
AcDbCircle
 10
545.14405590101762
 20
447.64557907392447
 30
0.0
 40
0.5
100
AcDbArc
 50
0.0
 51
180.0
  0
TEXT
  5
237
100
AcDbEntity
  8
0
 62
               7
100
AcDbText
 10
673.64405590101796
 20
428.05320879307209
 30
0.0
 40
12.000000000000012
  1
30
 50
90.000000000000028
 41
0.7695
  7
FontTableH_0
 72
               5
 11
673.64405590101796
 21
440.05320879307209
 31
0.0
100
AcDbText
  0
TEXT
  5
238
100
AcDbEntity
  8
0
 62
               7
100
AcDbText
 10
673.64405590101796
 20
403.05320879307197
 30
0.0
 40
12.000000000000012
  1
12
 50
90.000000000000028
 41
0.7695
  7
FontTableH_0
 72
               5
 11
673.64405590101796
 21
415.05320879307197
 31
0.0
100
AcDbText
  0
TEXT
  5
239
100
AcDbEntity
  8
0
 62
               7
100
AcDbText
 10
673.64405590101796
 20
382.05320879307197
 30
0.0
 40
12.000000000000012
  1
30
 50
90.000000000000028
 41
0.7695
  7
FontTableH_0
 72
               5
 11
673.64405590101796
 21
394.05320879307197
 31
0.0
100
AcDbText
  0
TEXT
  5
23A
100
AcDbEntity
  8
0
 62
               7
100
AcDbText
 10
280.6440559010174
 20
455.05320879307197
 30
0.0
 40
12.000000000000012
  1
20
 41
0.7695
  7
FontTableH_0
 72
               5
 11
292.6440559010174
 21
455.05320879307197
 31
0.0
100
AcDbText
  0
TEXT
  5
23B
100
AcDbEntity
  8
0
 62
               7
100
AcDbText
 10
363.64405590101734
 20
482.05320879307197
 30
0.0
 40
12.000000000000012
  1
(割付により調整)
 41
0.7695
  7
FontTableH_0
 72
               5
 11
459.64405590101745
 21
482.05320879307197
 31
0.0
100
AcDbText
  0
TEXT
  5
23C
100
AcDbEntity
  8
0
 62
               7
100
AcDbText
 10
584.64405590101751
 20
482.05320879307197
 30
0.0
 40
12.000000000000012
  1
@385
 41
0.7695
  7
FontTableH_0
 72
               5
 11
608.64405590101751
 21
482.05320879307197
 31
0.0
100
AcDbText
  0
TEXT
  5
23D
100
AcDbEntity
  8
0
 62
               7
100
AcDbText
 10
633.65827085582168
 20
455.27307190072298
 30
0.0
 40
12.000000000000012
  1
断熱材
 41
0.7695
  7
FontTableH_0
 72
               5
 11
669.65827085582168
 21
455.27307190072298
 31
0.0
100
AcDbText
  0
TEXT
  5
23E
100
AcDbEntity
  8
0
 62
               7
100
AcDbText
 10
629.24855637128758
 20
499.35466039842089
 30
0.0
 40
12.000000000000012
  1
遮音材
 41
0.7695
  7
FontTableH_0
 72
               5
 11
665.24855637128758
 21
499.35466039842089
 31
0.0
100
AcDbText
  0
TEXT
  5
23F
100
AcDbEntity
  8
0
 62
               7
100
AcDbText
 10
507.06626703855375
 20
450.92224836649979
 30
0.0
 40
12.000000000000012
  1
吊子
 41
0.7695
  7
FontTableH_0
 72
               5
 11
531.06626703855375
 21
450.92224836649979
 31
0.0
100
AcDbText
  0
TEXT
  5
240
100
AcDbEntity
  8
0
 62
               7
100
AcDbText
 10
288.94399442858128
 20
516.53670261871935
 30
0.0
 40
12.000000000000012
  1
ハーパーズストロングルーフ385
 41
0.7695
  7
FontTableH_0
 72
               5
 11
462.94399442858168
 21
516.53670261871935
 31
0.0
100
AcDbText
  0
TEXT
  5
241
100
AcDbEntity
  8
0
 62
               7
100
AcDbText
 10
249.64405590101717
 20
385.55320879307197
 30
0.0
 40
12.000000000000012
  1
50
 50
90.000000000000028
 41
0.7695
  7
FontTableH_0
 72
               5
 11
249.64405590101717
 21
397.55320879307197
 31
0.0
100
AcDbText
  0
TEXT
  5
242
100
AcDbEntity
  8
0
 62
               7
100
AcDbText
 10
257.02936944714679
 20
136.79062727185573
 30
0.0
 40
12.000000000000012
  1
既存外壁
 41
0.7695
  7
FontTableH_0
 72
               5
 11
305.02936944714685
 21
136.79062727185573
 31
0.0
100
AcDbText
  0
TEXT
  5
243
100
AcDbEntity
  8
0
 62
               7
100
AcDbText
 10
230.46123132406058
 20
322.4207560535811
 30
0.0
 40
12.000000000000012
  1
唐草
 41
0.7695
  7
FontTableH_0
 72
               5
 11
254.46123132406061
 21
322.4207560535811
 31
0.0
100
AcDbText
  0
TEXT
  5
244
100
AcDbEntity
  8
0
 62
               7
100
AcDbText
 10
231.74368882019655
 20
281.46651210716175
 30
0.0
 40
12.000000000000012
  1
破風板
 41
0.7695
  7
FontTableH_0
 72
               5
 11
267.74368882019661
 21
281.46651210716175
 31
0.0
100
AcDbText
  0
TEXT
  5
245
100
AcDbEntity
  8
0
 62
               7
100
AcDbText
 10
589.16046960270251
 20
219.21083559025942
 30
0.0
 40
12.000000000000012
  1
既存瓦棒葺屋根
 41
0.7695
  7
FontTableH_0
 72
               5
 11
673.16046960270262
 21
219.21083559025942
 31
0.0
100
AcDbText
  0
TEXT
  5
246
100
AcDbEntity
  8
0
 62
               7
100
AcDbText
 10
497.51151287936329
 20
188.92683249906901
 30
0.0
 40
12.000000000000012
  1
既存母屋
 41
0.7695
  7
FontTableH_0
 72
               5
 11
545.51151287936329
 21
188.92683249906901
 31
0.0
100
AcDbText
  0
TEXT
  5
247
100
AcDbEntity
  8
0
 62
               7
100
AcDbText
 10
57.642136458195907
 20
601.35786449547766
 30
0.0
 40
8.9999997615814422
  1
ジンクロン瓦棒
 41
0.7695
  7
FontTableH_0
 72
               5
 11
120.64213478926601
 21
601.35786449547766
 31
0.0
100
AcDbText
  0
TEXT
  5
248
100
AcDbEntity
  8
0
 62
               7
100
AcDbText
 10
740.28679787570559
 20
26.71320355480508
 30
0.0
 40
8.9999997615814422
  1
ケラバ詳細図 【S=1/3】
 41
0.7695
  7
FontTableH_0
 72
               5
 11
839.28679525310145
 21
26.71320355480508
 31
0.0
100
AcDbText
  0
ENDSEC
  0
SECTION
  2
OBJECTS
  0
DICTIONARY
  5
19
100
AcDbDictionary
  3
ACAD_GROUP
350
1A
  3
ACAD_MLINESTYLE
350
1B
  3
DWGPROPS
350
249
  0
DICTIONARY
  5
1A
102
{ACAD_REACTORS
330
19
102
}
100
AcDbDictionary
  0
DICTIONARY
  5
1B
102
{ACAD_REACTORS
330
19
102
}
100
AcDbDictionary
  3
STANDARD
350
1C
  0
MLINESTYLE
  5
1C
102
{ACAD_REACTORS
330
1B
102
}
100
AcDbMlineStyle
  2
Standard
 70
               0
  3

 62
               0
 51
90.0
 52
90.0
 71
               2
 49
0.5
 62
             256
  6
ByLayer
 49
-0.5
 62
             256
  6
ByLayer
  0
XRECORD
  5
249
100
AcDbXrecord
  1
DWGPROPS COOKIE
  2

  3

  4

  6

  7

  0
ENDSEC
  0
EOF
