  0
SECTION
  2
HEADER
  9
$ACADVER
  1
AC1014
  9
$ACADMAINTVER
 70
               0
  9
$DWGCODEPAGE
  3
ANSI_932
  9
$INSBASE
 10
0.0
 20
0.0
 30
0.0
  9
$EXTMIN
 10
0.0
 20
0.0
 30
0.0
  9
$EXTMAX
 10
891.00000000000091
 20
630.00000000000068
 30
0.0
  9
$LIMMIN
 10
0.0
 20
0.0
  9
$LIMMAX
 10
891.00000000000091
 20
630.00000000000068
  9
$ORTHOMODE
 70
               0
  9
$REGENMODE
 70
               1
  9
$FILLMODE
 70
               1
  9
$QTEXTMODE
 70
               0
  9
$MIRRTEXT
 70
               1
  9
$DRAGMODE
 70
               2
  9
$LTSCALE
 40
3.0000000000000031
  9
$OSMODE
 70
               0
  9
$ATTMODE
 70
               1
  9
$TEXTSIZE
 40
0.2
  9
$TRACEWID
 40
0.05
  9
$TEXTSTYLE
  7
Standard
  9
$CLAYER
  8
0
  9
$CELTYPE
  6
Continuous
  9
$CECOLOR
 62
             256
  9
$CELTSCALE
 40
1.0
  9
$DELOBJ
 70
               1
  9
$DISPSILH
 70
               0
  9
$DIMSCALE
 40
1.0
  9
$DIMASZ
 40
0.18
  9
$DIMEXO
 40
0.0625
  9
$DIMDLI
 40
0.38
  9
$DIMRND
 40
0.0
  9
$DIMDLE
 40
0.0
  9
$DIMEXE
 40
0.18
  9
$DIMTP
 40
0.0
  9
$DIMTM
 40
0.0
  9
$DIMTXT
 40
0.18
  9
$DIMCEN
 40
0.09
  9
$DIMTSZ
 40
0.0
  9
$DIMTOL
 70
               0
  9
$DIMLIM
 70
               0
  9
$DIMTIH
 70
               1
  9
$DIMTOH
 70
               1
  9
$DIMSE1
 70
               0
  9
$DIMSE2
 70
               0
  9
$DIMTAD
 70
               0
  9
$DIMZIN
 70
               0
  9
$DIMBLK
  1

  9
$DIMASO
 70
               1
  9
$DIMSHO
 70
               1
  9
$DIMPOST
  1

  9
$DIMAPOST
  1

  9
$DIMALT
 70
               0
  9
$DIMALTD
 70
               2
  9
$DIMALTF
 40
25.399999999999999
  9
$DIMLFAC
 40
1.0
  9
$DIMTOFL
 70
               0
  9
$DIMTVP
 40
0.0
  9
$DIMTIX
 70
               0
  9
$DIMSOXD
 70
               0
  9
$DIMSAH
 70
               0
  9
$DIMBLK1
  1

  9
$DIMBLK2
  1

  9
$DIMSTYLE
  2
Standard
  9
$DIMCLRD
 70
               0
  9
$DIMCLRE
 70
               0
  9
$DIMCLRT
 70
               0
  9
$DIMTFAC
 40
1.0
  9
$DIMGAP
 40
0.09
  9
$DIMJUST
 70
               0
  9
$DIMSD1
 70
               0
  9
$DIMSD2
 70
               0
  9
$DIMTOLJ
 70
               1
  9
$DIMTZIN
 70
               0
  9
$DIMALTZ
 70
               0
  9
$DIMALTTZ
 70
               0
  9
$DIMFIT
 70
               3
  9
$DIMUPT
 70
               0
  9
$DIMUNIT
 70
               2
  9
$DIMDEC
 70
               4
  9
$DIMTDEC
 70
               4
  9
$DIMALTU
 70
               2
  9
$DIMALTTD
 70
               2
  9
$DIMTXSTY
  7
Standard
  9
$DIMAUNIT
 70
               0
  9
$LUNITS
 70
               2
  9
$LUPREC
 70
               4
  9
$SKETCHINC
 40
0.1
  9
$FILLETRAD
 40
0.0
  9
$AUNITS
 70
               0
  9
$AUPREC
 70
               0
  9
$MENU
  1
acad
  9
$ELEVATION
 40
0.0
  9
$PELEVATION
 40
0.0
  9
$THICKNESS
 40
0.0
  9
$LIMCHECK
 70
               0
  9
$BLIPMODE
 70
               1
  9
$CHAMFERA
 40
0.0
  9
$CHAMFERB
 40
0.0
  9
$CHAMFERC
 40
0.0
  9
$CHAMFERD
 40
0.0
  9
$SKPOLY
 70
               0
  9
$TDCREATE
 40
0.000000000
  9
$TDUPDATE
 40
0.000000000
  9
$TDINDWG
 40
0.0000000000
  9
$TDUSRTIMER
 40
0.0000000000
  9
$USRTIMER
 70
               1
  9
$ANGBASE
 50
0.0
  9
$ANGDIR
 70
               0
  9
$PDMODE
 70
               0
  9
$PDSIZE
 40
0.0
  9
$PLINEWID
 40
0.0
  9
$COORDS
 70
               0
  9
$SPLFRAME
 70
               0
  9
$SPLINETYPE
 70
               6
  9
$SPLINESEGS
 70
               8
  9
$ATTDIA
 70
               0
  9
$ATTREQ
 70
               1
  9
$HANDLING
 70
               1
  9
$HANDSEED
  5
222
  9
$SURFTAB1
 70
               6
  9
$SURFTAB2
 70
               6
  9
$SURFTYPE
 70
               6
  9
$SURFU
 70
               6
  9
$SURFV
 70
               6
  9
$UCSNAME
  2

  9
$UCSORG
 10
0.0
 20
0.0
 30
0.0
  9
$UCSXDIR
 10
1.0
 20
0.0
 30
0.0
  9
$UCSYDIR
 10
0.0
 20
1.0
 30
0.0
  9
$PUCSNAME
  2

  9
$PUCSORG
 10
0.0
 20
0.0
 30
0.0
  9
$PUCSXDIR
 10
1.0
 20
0.0
 30
0.0
  9
$PUCSYDIR
 10
0.0
 20
1.0
 30
0.0
  9
$USERI1
 70
               0
  9
$USERI2
 70
               0
  9
$USERI3
 70
               0
  9
$USERI4
 70
               0
  9
$USERI5
 70
               0
  9
$USERR1
 40
0.0
  9
$USERR2
 40
0.0
  9
$USERR3
 40
0.0
  9
$USERR4
 40
0.0
  9
$USERR5
 40
0.0
  9
$WORLDVIEW
 70
               1
  9
$SHADEDGE
 70
               3
  9
$SHADEDIF
 70
              70
  9
$TILEMODE
 70
               1
  9
$MAXACTVP
 70
              16
  9
$PINSBASE
 10
0.0
 20
0.0
 30
0.0
  9
$PLIMCHECK
 70
               0
  9
$PEXTMIN
 10
1.0000000000000000E+20
 20
1.0000000000000000E+20
 30
1.0000000000000000E+20
  9
$PEXTMAX
 10
-1.0000000000000000E+20
 20
-1.0000000000000000E+20
 30
-1.0000000000000000E+20
  9
$PLIMMIN
 10
0.0
 20
0.0
  9
$PLIMMAX
 10
12.0
 20
9.0
  9
$UNITMODE
 70
               0
  9
$VISRETAIN
 70
               0
  9
$PLINEGEN
 70
               1
  9
$PSLTSCALE
 70
               0
  9
$TREEDEPTH
 70
            3020
  9
$PICKSTYLE
 70
               1
  9
$CMLSTYLE
  2
Standard
  9
$CMLJUST
 70
               0
  9
$CMLSCALE
 40
1.0
  9
$PROXYGRAPHICS
 70
               0
  9
$MEASUREMENT
 70
               0
  0
ENDSEC
  0
SECTION
  2
CLASSES
  0
CLASS
  1
LWPOLYLINE
  2
AcDbPolyline
  3
"AutoCAD"
 90
        0
280
               0
281
               1
  0
CLASS
  1
IMAGE
  2
AcDbRasterImage
  3
ISM
 90
      127
280
               0
281
               1
  0
CLASS
  1
OLE2FRAME
  2
AcDbOle2Frame
  3
""
 90
        0
280
               0
281
               1
  0
CLASS
  1
HATCH
  2
AcDbHatch
  3
"ACAD_SEDONA"
 90
        0
280
               0
281
               1
  0
CLASS
  1
DICTIONARYVAR
  2
AcDbDictionaryVar
  3
"AutoCAD"
 90
        0
280
               0
281
               0
  0
CLASS
  1
RASTERVARIABLES
  2
AcDbRasterVariables
  3
ISM
 90
        0
280
               0
281
               0
  0
CLASS
  1
IMAGEDEF
  2
AcDbRasterImageDef
  3
ISM
 90
        0
280
               0
281
               0
  0
CLASS
  1
IMAGEDEF_REACTOR
  2
AcDbRasterImageDefReactor
  3
ISM
 90
        1
280
               0
281
               0
  0
CLASS
  1
IDBUFFER
  2
AcDbIdBuffer
  3
"Acad"
 90
        0
280
               0
281
               0
  0
CLASS
  1
SPATIAL_FILTER
  2
AcDbSpatialFilter
  3
"Acad"
 90
        0
280
               0
281
               0
  0
CLASS
  1
XRECORD
  2
AcDbXrecord
  3
"<Built In>"
 90
        0
280
               0
281
               0
  0
CLASS
  1
SORTENTSTABLE
  2
AcDbSortentsTable
  3
"AutoCAD"
 90
        0
280
               0
281
               0
  0
CLASS
  1
LAYER_INDEX
  2
AcDbLayerIndex
  3
"Acad"
 90
        0
280
               0
281
               0
  0
CLASS
  1
SPATIAL_INDEX
  2
AcDbSpatialIndex
  3
"Acad"
 90
        0
280
               0
281
               0
  0
CLASS
  1
OBJECT_PTR
  2
CAseDLPNTableRecord
  3
"ASE-LPNTableRecord"
 90
        1
280
               0
281
               0
  0
CLASS
  1
LAYOUT
  2
AcDbLayout
  3
"AutoCAD 2000"
 90
        0
280
               0
281
               0
  0
CLASS
  1
PLOTSETTINGS
  2
AcDbPlotSettings
  3
"AutoCAD 2000"
 90
        0
280
               0
281
               0
  0
CLASS
  1
ACDBDICTIONARYWDFLT
  2
AcDbDictionaryWithDefault
  3
"AutoCAD 2000"
 90
        0
280
               0
281
               0
  0
CLASS
  1
ACDBPLACEHOLDER
  2
AcDbPlaceHolder
  3
"AutoCAD 2000"
 90
        0
280
               0
281
               0
  0
CLASS
  1
VBA_PROJECT
  2
AcDbVbaProject
  3
"acadvba"
 90
        0
280
               0
281
               0
  0
CLASS
  1
WIPEOUT
  2
AcDbWipeout
  3
WipeOut|AutoCAD Express Tool|expresstools@autodesk.com
 90
      127
280
               0
281
               1
  0
CLASS
  1
WIPEOUTVARIABLES
  2
AcDbWipeoutVariables
  3
WipeOut|AutoCAD Express Tool|expresstools@autodesk.com
 90
        0
280
               0
281
               0
  0
CLASS
  1
RTEXT
  2
RText
  3
RText|AutoCAD Express Tool|expresstools@autodesk.com
 90
        0
280
               0
281
               1
  0
CLASS
  1
ARCALIGNEDTEXT
  2
AcDbArcAlignedText
  3
ATEXT|AutoCAD Express Tool|expresstools@autodesk.com
 90
        0
280
               0
281
               1
  0
ENDSEC
  0
SECTION
  2
TABLES
  0
TABLE
  2
VPORT
  5
7
100
AcDbSymbolTable
 70
               1
  0
VPORT
  5
15
100
AcDbSymbolTableRecord
100
AcDbViewportTableRecord
  2
*ACTIVE
 70
               0
 10
0.0
 20
0.0
 11
1.0
 21
1.0
 12
445.50000000000045
 22
315.00000000000034
 13
0.0
 23
0.0
 14
10.0
 24
10.0
 15
10.0
 25
10.0
 16
0.0
 26
0.0
 36
1.0
 17
0.0
 27
0.0
 37
0.0
 40
630.00000000000068
 41
1.4142857142857141
 42
50.0
 43
0.0
 44
0.0
 50
0.0
 51
0.0
 71
               0
 72
             100
 73
               1
 74
               1
 75
               0
 76
               0
 77
               0
 78
               0
  0
ENDTAB
  0
TABLE
  2
LTYPE
  5
4
100
AcDbSymbolTable
 70
              24
  0
LTYPE
  5
11
100
AcDbSymbolTableRecord
100
AcDbLinetypeTableRecord
  2
ByBlock
 70
              64
  3

 72
              65
 73
               0
 40
0.0
  0
LTYPE
  5
12
100
AcDbSymbolTableRecord
100
AcDbLinetypeTableRecord
  2
ByLayer
 70
              64
  3

 72
              65
 73
               0
 40
0.0
  0
LTYPE
  5
13
100
AcDbSymbolTableRecord
100
AcDbLinetypeTableRecord
  2
Continuous
 70
              64
  3
Solid line
 72
              65
 73
               0
 40
0.0
  0
LTYPE
  5
1D
100
AcDbSymbolTableRecord
100
AcDbLinetypeTableRecord
  2
DOT
 70
              64
  3
Dot . . . . . . . . . . . . . . . . . . . . . .
 72
              65
 73
               2
 40
6.3499999999999996
 49
0.35
 74
               0
 49
-6.0
 74
               0
  0
LTYPE
  5
1E
100
AcDbSymbolTableRecord
100
AcDbLinetypeTableRecord
  2
DASHED
 70
              64
  3
Dashed __ __ __ __ __ __ __ __ __ __ __ __ __ _
 72
              65
 73
               2
 40
12.699999999999999
 49
6.3499999999999996
 74
               0
 49
-6.3499999999999996
 74
               0
  0
LTYPE
  5
1F
100
AcDbSymbolTableRecord
100
AcDbLinetypeTableRecord
  2
DASHDOT
 70
              64
  3
Dash dot __ . __ . __ . __ . __ . __ . __ . __
 72
              65
 73
               4
 40
25.399999999999999
 49
12.699999999999999
 74
               0
 49
-6.0
 74
               0
 49
0.7
 74
               0
 49
-6.0
 74
               0
  0
LTYPE
  5
20
100
AcDbSymbolTableRecord
100
AcDbLinetypeTableRecord
  2
DIVIDE
 70
              64
  3
Divide ____ . . ____ . . ____ . . ____ . . ____
 72
              65
 73
               6
 40
31.75
 49
12.699999999999999
 74
               0
 49
-6.0
 74
               0
 49
0.875
 74
               0
 49
-6.0
 74
               0
 49
0.875
 74
               0
 49
-6.0
 74
               0
  0
LTYPE
  5
21
100
AcDbSymbolTableRecord
100
AcDbLinetypeTableRecord
  2
HIDDEN
 70
              64
  3
Hidden __ __ __ __ __ __ __ __ __ __ __ __ __ _
 72
              65
 73
               2
 40
9.5250000000000004
 49
6.3499999999999996
 74
               0
 49
-3.1749999999999998
 74
               0
  0
LTYPE
  5
22
100
AcDbSymbolTableRecord
100
AcDbLinetypeTableRecord
  2
CENTER
 70
              64
  3
Center ____ _ ____ _ ____ _ ____ _ ____ _ ____
 72
              65
 73
               4
 40
50.799999999999997
 49
31.75
 74
               0
 49
-6.3499999999999996
 74
               0
 49
6.3499999999999996
 74
               0
 49
-6.3499999999999996
 74
               0
  0
LTYPE
  5
23
100
AcDbSymbolTableRecord
100
AcDbLinetypeTableRecord
  2
PHANTOM
 70
              64
  3
Phantom ______  __  __  ______  __  __  ______
 72
              65
 73
               6
 40
63.5
 49
31.75
 74
               0
 49
-6.3499999999999996
 74
               0
 49
6.3499999999999996
 74
               0
 49
-6.3499999999999996
 74
               0
 49
6.3499999999999996
 74
               0
 49
-6.3499999999999996
 74
               0
  0
LTYPE
  5
24
100
AcDbSymbolTableRecord
100
AcDbLinetypeTableRecord
  2
ACAD_ISO02W100
 70
              64
  3
ISO dash __ __ __ __ __ __ __ __ __ __ __ __ __
 72
              65
 73
               2
 40
15.0
 49
12.0
 74
               0
 49
-3.0
 74
               0
  0
LTYPE
  5
25
100
AcDbSymbolTableRecord
100
AcDbLinetypeTableRecord
  2
ACAD_ISO03W100
 70
              64
  3
ISO dash space __ __ __ __ __ __ __ __ __ __ __ __ __ __
 72
              65
 73
               2
 40
30.0
 49
12.0
 74
               0
 49
-18.0
 74
               0
  0
LTYPE
  5
26
100
AcDbSymbolTableRecord
100
AcDbLinetypeTableRecord
  2
ACAD_ISO04W100
 70
              64
  3
ISO long-dash dot ____ . ____ . ____ . ____ . _
 72
              65
 73
               4
 40
30.0
 49
24.0
 74
               0
 49
-3.0
 74
               0
 49
0.0
 74
               0
 49
-3.0
 74
               0
  0
LTYPE
  5
27
100
AcDbSymbolTableRecord
100
AcDbLinetypeTableRecord
  2
ACAD_ISO05W100
 70
              64
  3
ISO long-dash double-dot ____ .. ____ .. ____ .
 72
              65
 73
               6
 40
33.0
 49
24.0
 74
               0
 49
-3.0
 74
               0
 49
0.0
 74
               0
 49
-3.0
 74
               0
 49
0.0
 74
               0
 49
-3.0
 74
               0
  0
LTYPE
  5
28
100
AcDbSymbolTableRecord
100
AcDbLinetypeTableRecord
  2
ACAD_ISO06W100
 70
              64
  3
ISO long-dash triple-dot ____ ... ____ ... ____
 72
              65
 73
               8
 40
36.0
 49
24.0
 74
               0
 49
-3.0
 74
               0
 49
0.0
 74
               0
 49
-3.0
 74
               0
 49
0.0
 74
               0
 49
-3.0
 74
               0
 49
0.0
 74
               0
 49
-3.0
 74
               0
  0
LTYPE
  5
29
100
AcDbSymbolTableRecord
100
AcDbLinetypeTableRecord
  2
ACAD_ISO07W100
 70
              64
  3
ISO dot . . . . . . . . . . . . . . . . . . . .
 72
              65
 73
               2
 40
3.0
 49
0.0
 74
               0
 49
-3.0
 74
               0
  0
LTYPE
  5
2A
100
AcDbSymbolTableRecord
100
AcDbLinetypeTableRecord
  2
ACAD_ISO08W100
 70
              64
  3
ISO long-dash short-dash ____ __ ____ __ ____ _
 72
              65
 73
               4
 40
36.0
 49
24.0
 74
               0
 49
-3.0
 74
               0
 49
6.0
 74
               0
 49
-3.0
 74
               0
  0
LTYPE
  5
2B
100
AcDbSymbolTableRecord
100
AcDbLinetypeTableRecord
  2
ACAD_ISO09W100
 70
              64
  3
ISO long-dash double-short-dash ____ __ __ ____
 72
              65
 73
               6
 40
45.0
 49
24.0
 74
               0
 49
-3.0
 74
               0
 49
6.0
 74
               0
 49
-3.0
 74
               0
 49
6.0
 74
               0
 49
-3.0
 74
               0
  0
LTYPE
  5
2C
100
AcDbSymbolTableRecord
100
AcDbLinetypeTableRecord
  2
ACAD_ISO10W100
 70
              64
  3
ISO dash dot __ . __ . __ . __ . __ . __ . __ .
 72
              65
 73
               4
 40
18.0
 49
12.0
 74
               0
 49
-3.0
 74
               0
 49
0.0
 74
               0
 49
-3.0
 74
               0
  0
LTYPE
  5
2D
100
AcDbSymbolTableRecord
100
AcDbLinetypeTableRecord
  2
ACAD_ISO11W100
 70
              64
  3
ISO double-dash dot __ __ . __ __ . __ __ . __ 
 72
              65
 73
               6
 40
33.0
 49
12.0
 74
               0
 49
-3.0
 74
               0
 49
12.0
 74
               0
 49
-3.0
 74
               0
 49
0.0
 74
               0
 49
-3.0
 74
               0
  0
LTYPE
  5
2E
100
AcDbSymbolTableRecord
100
AcDbLinetypeTableRecord
  2
ACAD_ISO12W100
 70
              64
  3
ISO dash double-dot __ . . __ . . __ . . __ . .
 72
              65
 73
               6
 40
21.0
 49
12.0
 74
               0
 49
-3.0
 74
               0
 49
0.0
 74
               0
 49
-3.0
 74
               0
 49
0.0
 74
               0
 49
-3.0
 74
               0
  0
LTYPE
  5
2F
100
AcDbSymbolTableRecord
100
AcDbLinetypeTableRecord
  2
ACAD_ISO13W100
 70
              64
  3
ISO double-dash double-dot __ __ . . __ __ . . 
 72
              65
 73
               8
 40
36.0
 49
12.0
 74
               0
 49
-3.0
 74
               0
 49
12.0
 74
               0
 49
-3.0
 74
               0
 49
0.0
 74
               0
 49
-3.0
 74
               0
 49
0.0
 74
               0
 49
-3.0
 74
               0
  0
LTYPE
  5
30
100
AcDbSymbolTableRecord
100
AcDbLinetypeTableRecord
  2
ACAD_ISO14W100
 70
              64
  3
ISO dash triple-dot __ . . . __ . . . __ . . . 
 72
              65
 73
               8
 40
24.0
 49
12.0
 74
               0
 49
-3.0
 74
               0
 49
0.0
 74
               0
 49
-3.0
 74
               0
 49
0.0
 74
               0
 49
-3.0
 74
               0
 49
0.0
 74
               0
 49
-3.0
 74
               0
  0
LTYPE
  5
31
100
AcDbSymbolTableRecord
100
AcDbLinetypeTableRecord
  2
ACAD_ISO15W100
 70
              64
  3
ISO double-dash double-dot __ __ . . __ __ . . 
 72
              65
 73
              10
 40
39.0
 49
12.0
 74
               0
 49
-3.0
 74
               0
 49
12.0
 74
               0
 49
-3.0
 74
               0
 49
0.0
 74
               0
 49
-3.0
 74
               0
 49
0.0
 74
               0
 49
-3.0
 74
               0
 49
0.0
 74
               0
 49
-3.0
 74
               0
  0
ENDTAB
  0
TABLE
  2
LAYER
  5
2
100
AcDbSymbolTable
 70
             256
  0
LAYER
  5
14
100
AcDbSymbolTableRecord
100
AcDbLayerTableRecord
  2
0
 70
               0
 62
               7
  6
Continuous
  0
LAYER
  5
35
100
AcDbSymbolTableRecord
100
AcDbLayerTableRecord
  2
Layer00001
 70
               0
 62
              -7
  6
Continuous
  0
LAYER
  5
36
100
AcDbSymbolTableRecord
100
AcDbLayerTableRecord
  2
Layer00002
 70
               0
 62
              -7
  6
Continuous
  0
LAYER
  5
37
100
AcDbSymbolTableRecord
100
AcDbLayerTableRecord
  2
Layer00003
 70
               0
 62
              -7
  6
Continuous
  0
LAYER
  5
38
100
AcDbSymbolTableRecord
100
AcDbLayerTableRecord
  2
Layer00004
 70
               0
 62
              -7
  6
Continuous
  0
LAYER
  5
39
100
AcDbSymbolTableRecord
100
AcDbLayerTableRecord
  2
Layer00005
 70
               0
 62
              -7
  6
Continuous
  0
LAYER
  5
3A
100
AcDbSymbolTableRecord
100
AcDbLayerTableRecord
  2
Layer00006
 70
               0
 62
              -7
  6
Continuous
  0
LAYER
  5
3B
100
AcDbSymbolTableRecord
100
AcDbLayerTableRecord
  2
Layer00007
 70
               0
 62
              -7
  6
Continuous
  0
LAYER
  5
3C
100
AcDbSymbolTableRecord
100
AcDbLayerTableRecord
  2
Layer00008
 70
               0
 62
              -7
  6
Continuous
  0
LAYER
  5
3D
100
AcDbSymbolTableRecord
100
AcDbLayerTableRecord
  2
Layer00009
 70
               0
 62
              -7
  6
Continuous
  0
LAYER
  5
3E
100
AcDbSymbolTableRecord
100
AcDbLayerTableRecord
  2
Layer00010
 70
               0
 62
              -7
  6
Continuous
  0
LAYER
  5
3F
100
AcDbSymbolTableRecord
100
AcDbLayerTableRecord
  2
Layer00011
 70
               0
 62
              -7
  6
Continuous
  0
LAYER
  5
40
100
AcDbSymbolTableRecord
100
AcDbLayerTableRecord
  2
Layer00012
 70
               0
 62
              -7
  6
Continuous
  0
LAYER
  5
41
100
AcDbSymbolTableRecord
100
AcDbLayerTableRecord
  2
Layer00013
 70
               0
 62
              -7
  6
Continuous
  0
LAYER
  5
42
100
AcDbSymbolTableRecord
100
AcDbLayerTableRecord
  2
Layer00014
 70
               0
 62
              -7
  6
Continuous
  0
LAYER
  5
43
100
AcDbSymbolTableRecord
100
AcDbLayerTableRecord
  2
Layer00015
 70
               0
 62
              -7
  6
Continuous
  0
LAYER
  5
44
100
AcDbSymbolTableRecord
100
AcDbLayerTableRecord
  2
Layer00016
 70
               0
 62
               7
  6
Continuous
  0
LAYER
  5
45
100
AcDbSymbolTableRecord
100
AcDbLayerTableRecord
  2
Layer00017
 70
               0
 62
              -7
  6
Continuous
  0
LAYER
  5
46
100
AcDbSymbolTableRecord
100
AcDbLayerTableRecord
  2
Layer00018
 70
               0
 62
              -7
  6
Continuous
  0
LAYER
  5
47
100
AcDbSymbolTableRecord
100
AcDbLayerTableRecord
  2
Layer00019
 70
               0
 62
              -7
  6
Continuous
  0
LAYER
  5
48
100
AcDbSymbolTableRecord
100
AcDbLayerTableRecord
  2
Layer00020
 70
               0
 62
              -7
  6
Continuous
  0
LAYER
  5
49
100
AcDbSymbolTableRecord
100
AcDbLayerTableRecord
  2
Layer00021
 70
               0
 62
              -7
  6
Continuous
  0
LAYER
  5
4A
100
AcDbSymbolTableRecord
100
AcDbLayerTableRecord
  2
Layer00022
 70
               0
 62
              -7
  6
Continuous
  0
LAYER
  5
4B
100
AcDbSymbolTableRecord
100
AcDbLayerTableRecord
  2
Layer00023
 70
               0
 62
              -7
  6
Continuous
  0
LAYER
  5
4C
100
AcDbSymbolTableRecord
100
AcDbLayerTableRecord
  2
Layer00024
 70
               0
 62
              -7
  6
Continuous
  0
LAYER
  5
4D
100
AcDbSymbolTableRecord
100
AcDbLayerTableRecord
  2
Layer00025
 70
               0
 62
              -7
  6
Continuous
  0
LAYER
  5
4E
100
AcDbSymbolTableRecord
100
AcDbLayerTableRecord
  2
Layer00026
 70
               0
 62
              -7
  6
Continuous
  0
LAYER
  5
4F
100
AcDbSymbolTableRecord
100
AcDbLayerTableRecord
  2
Layer00027
 70
               0
 62
              -7
  6
Continuous
  0
LAYER
  5
50
100
AcDbSymbolTableRecord
100
AcDbLayerTableRecord
  2
Layer00028
 70
               0
 62
              -7
  6
Continuous
  0
LAYER
  5
51
100
AcDbSymbolTableRecord
100
AcDbLayerTableRecord
  2
Layer00029
 70
               0
 62
              -7
  6
Continuous
  0
LAYER
  5
52
100
AcDbSymbolTableRecord
100
AcDbLayerTableRecord
  2
Layer00030
 70
               0
 62
              -7
  6
Continuous
  0
LAYER
  5
53
100
AcDbSymbolTableRecord
100
AcDbLayerTableRecord
  2
Layer00031
 70
               0
 62
              -7
  6
Continuous
  0
LAYER
  5
54
100
AcDbSymbolTableRecord
100
AcDbLayerTableRecord
  2
Layer00032
 70
               0
 62
               7
  6
Continuous
  0
LAYER
  5
55
100
AcDbSymbolTableRecord
100
AcDbLayerTableRecord
  2
Layer00033
 70
               0
 62
              -7
  6
Continuous
  0
LAYER
  5
56
100
AcDbSymbolTableRecord
100
AcDbLayerTableRecord
  2
Layer00034
 70
               0
 62
              -7
  6
Continuous
  0
LAYER
  5
57
100
AcDbSymbolTableRecord
100
AcDbLayerTableRecord
  2
Layer00035
 70
               0
 62
              -7
  6
Continuous
  0
LAYER
  5
58
100
AcDbSymbolTableRecord
100
AcDbLayerTableRecord
  2
Layer00036
 70
               0
 62
              -7
  6
Continuous
  0
LAYER
  5
59
100
AcDbSymbolTableRecord
100
AcDbLayerTableRecord
  2
Layer00037
 70
               0
 62
              -7
  6
Continuous
  0
LAYER
  5
5A
100
AcDbSymbolTableRecord
100
AcDbLayerTableRecord
  2
Layer00038
 70
               0
 62
              -7
  6
Continuous
  0
LAYER
  5
5B
100
AcDbSymbolTableRecord
100
AcDbLayerTableRecord
  2
Layer00039
 70
               0
 62
              -7
  6
Continuous
  0
LAYER
  5
5C
100
AcDbSymbolTableRecord
100
AcDbLayerTableRecord
  2
Layer00040
 70
               0
 62
              -7
  6
Continuous
  0
LAYER
  5
5D
100
AcDbSymbolTableRecord
100
AcDbLayerTableRecord
  2
Layer00041
 70
               0
 62
              -7
  6
Continuous
  0
LAYER
  5
5E
100
AcDbSymbolTableRecord
100
AcDbLayerTableRecord
  2
Layer00042
 70
               0
 62
              -7
  6
Continuous
  0
LAYER
  5
5F
100
AcDbSymbolTableRecord
100
AcDbLayerTableRecord
  2
Layer00043
 70
               0
 62
              -7
  6
Continuous
  0
LAYER
  5
60
100
AcDbSymbolTableRecord
100
AcDbLayerTableRecord
  2
Layer00044
 70
               0
 62
              -7
  6
Continuous
  0
LAYER
  5
61
100
AcDbSymbolTableRecord
100
AcDbLayerTableRecord
  2
Layer00045
 70
               0
 62
              -7
  6
Continuous
  0
LAYER
  5
62
100
AcDbSymbolTableRecord
100
AcDbLayerTableRecord
  2
Layer00046
 70
               0
 62
              -7
  6
Continuous
  0
LAYER
  5
63
100
AcDbSymbolTableRecord
100
AcDbLayerTableRecord
  2
Layer00047
 70
               0
 62
              -7
  6
Continuous
  0
LAYER
  5
64
100
AcDbSymbolTableRecord
100
AcDbLayerTableRecord
  2
Layer00048
 70
               0
 62
               7
  6
Continuous
  0
LAYER
  5
65
100
AcDbSymbolTableRecord
100
AcDbLayerTableRecord
  2
Layer00049
 70
               0
 62
              -7
  6
Continuous
  0
LAYER
  5
66
100
AcDbSymbolTableRecord
100
AcDbLayerTableRecord
  2
Layer00050
 70
               0
 62
              -7
  6
Continuous
  0
LAYER
  5
67
100
AcDbSymbolTableRecord
100
AcDbLayerTableRecord
  2
Layer00051
 70
               0
 62
              -7
  6
Continuous
  0
LAYER
  5
68
100
AcDbSymbolTableRecord
100
AcDbLayerTableRecord
  2
Layer00052
 70
               0
 62
              -7
  6
Continuous
  0
LAYER
  5
69
100
AcDbSymbolTableRecord
100
AcDbLayerTableRecord
  2
Layer00053
 70
               0
 62
              -7
  6
Continuous
  0
LAYER
  5
6A
100
AcDbSymbolTableRecord
100
AcDbLayerTableRecord
  2
Layer00054
 70
               0
 62
              -7
  6
Continuous
  0
LAYER
  5
6B
100
AcDbSymbolTableRecord
100
AcDbLayerTableRecord
  2
Layer00055
 70
               0
 62
              -7
  6
Continuous
  0
LAYER
  5
6C
100
AcDbSymbolTableRecord
100
AcDbLayerTableRecord
  2
Layer00056
 70
               0
 62
              -7
  6
Continuous
  0
LAYER
  5
6D
100
AcDbSymbolTableRecord
100
AcDbLayerTableRecord
  2
Layer00057
 70
               0
 62
              -7
  6
Continuous
  0
LAYER
  5
6E
100
AcDbSymbolTableRecord
100
AcDbLayerTableRecord
  2
Layer00058
 70
               0
 62
              -7
  6
Continuous
  0
LAYER
  5
6F
100
AcDbSymbolTableRecord
100
AcDbLayerTableRecord
  2
Layer00059
 70
               0
 62
              -7
  6
Continuous
  0
LAYER
  5
70
100
AcDbSymbolTableRecord
100
AcDbLayerTableRecord
  2
Layer00060
 70
               0
 62
              -7
  6
Continuous
  0
LAYER
  5
71
100
AcDbSymbolTableRecord
100
AcDbLayerTableRecord
  2
Layer00061
 70
               0
 62
              -7
  6
Continuous
  0
LAYER
  5
72
100
AcDbSymbolTableRecord
100
AcDbLayerTableRecord
  2
Layer00062
 70
               0
 62
              -7
  6
Continuous
  0
LAYER
  5
73
100
AcDbSymbolTableRecord
100
AcDbLayerTableRecord
  2
Layer00063
 70
               0
 62
              -7
  6
Continuous
  0
LAYER
  5
74
100
AcDbSymbolTableRecord
100
AcDbLayerTableRecord
  2
Layer00064
 70
               0
 62
               7
  6
Continuous
  0
LAYER
  5
75
100
AcDbSymbolTableRecord
100
AcDbLayerTableRecord
  2
Layer00065
 70
               0
 62
              -7
  6
Continuous
  0
LAYER
  5
76
100
AcDbSymbolTableRecord
100
AcDbLayerTableRecord
  2
Layer00066
 70
               0
 62
              -7
  6
Continuous
  0
LAYER
  5
77
100
AcDbSymbolTableRecord
100
AcDbLayerTableRecord
  2
Layer00067
 70
               0
 62
              -7
  6
Continuous
  0
LAYER
  5
78
100
AcDbSymbolTableRecord
100
AcDbLayerTableRecord
  2
Layer00068
 70
               0
 62
              -7
  6
Continuous
  0
LAYER
  5
79
100
AcDbSymbolTableRecord
100
AcDbLayerTableRecord
  2
Layer00069
 70
               0
 62
              -7
  6
Continuous
  0
LAYER
  5
7A
100
AcDbSymbolTableRecord
100
AcDbLayerTableRecord
  2
Layer00070
 70
               0
 62
              -7
  6
Continuous
  0
LAYER
  5
7B
100
AcDbSymbolTableRecord
100
AcDbLayerTableRecord
  2
Layer00071
 70
               0
 62
              -7
  6
Continuous
  0
LAYER
  5
7C
100
AcDbSymbolTableRecord
100
AcDbLayerTableRecord
  2
Layer00072
 70
               0
 62
              -7
  6
Continuous
  0
LAYER
  5
7D
100
AcDbSymbolTableRecord
100
AcDbLayerTableRecord
  2
Layer00073
 70
               0
 62
              -7
  6
Continuous
  0
LAYER
  5
7E
100
AcDbSymbolTableRecord
100
AcDbLayerTableRecord
  2
Layer00074
 70
               0
 62
              -7
  6
Continuous
  0
LAYER
  5
7F
100
AcDbSymbolTableRecord
100
AcDbLayerTableRecord
  2
Layer00075
 70
               0
 62
              -7
  6
Continuous
  0
LAYER
  5
80
100
AcDbSymbolTableRecord
100
AcDbLayerTableRecord
  2
Layer00076
 70
               0
 62
              -7
  6
Continuous
  0
LAYER
  5
81
100
AcDbSymbolTableRecord
100
AcDbLayerTableRecord
  2
Layer00077
 70
               0
 62
              -7
  6
Continuous
  0
LAYER
  5
82
100
AcDbSymbolTableRecord
100
AcDbLayerTableRecord
  2
Layer00078
 70
               0
 62
              -7
  6
Continuous
  0
LAYER
  5
83
100
AcDbSymbolTableRecord
100
AcDbLayerTableRecord
  2
Layer00079
 70
               0
 62
              -7
  6
Continuous
  0
LAYER
  5
84
100
AcDbSymbolTableRecord
100
AcDbLayerTableRecord
  2
Layer00080
 70
               0
 62
               7
  6
Continuous
  0
LAYER
  5
85
100
AcDbSymbolTableRecord
100
AcDbLayerTableRecord
  2
Layer00081
 70
               0
 62
              -7
  6
Continuous
  0
LAYER
  5
86
100
AcDbSymbolTableRecord
100
AcDbLayerTableRecord
  2
Layer00082
 70
               0
 62
              -7
  6
Continuous
  0
LAYER
  5
87
100
AcDbSymbolTableRecord
100
AcDbLayerTableRecord
  2
Layer00083
 70
               0
 62
              -7
  6
Continuous
  0
LAYER
  5
88
100
AcDbSymbolTableRecord
100
AcDbLayerTableRecord
  2
Layer00084
 70
               0
 62
              -7
  6
Continuous
  0
LAYER
  5
89
100
AcDbSymbolTableRecord
100
AcDbLayerTableRecord
  2
Layer00085
 70
               0
 62
              -7
  6
Continuous
  0
LAYER
  5
8A
100
AcDbSymbolTableRecord
100
AcDbLayerTableRecord
  2
Layer00086
 70
               0
 62
              -7
  6
Continuous
  0
LAYER
  5
8B
100
AcDbSymbolTableRecord
100
AcDbLayerTableRecord
  2
Layer00087
 70
               0
 62
              -7
  6
Continuous
  0
LAYER
  5
8C
100
AcDbSymbolTableRecord
100
AcDbLayerTableRecord
  2
Layer00088
 70
               0
 62
              -7
  6
Continuous
  0
LAYER
  5
8D
100
AcDbSymbolTableRecord
100
AcDbLayerTableRecord
  2
Layer00089
 70
               0
 62
              -7
  6
Continuous
  0
LAYER
  5
8E
100
AcDbSymbolTableRecord
100
AcDbLayerTableRecord
  2
Layer00090
 70
               0
 62
              -7
  6
Continuous
  0
LAYER
  5
8F
100
AcDbSymbolTableRecord
100
AcDbLayerTableRecord
  2
Layer00091
 70
               0
 62
              -7
  6
Continuous
  0
LAYER
  5
90
100
AcDbSymbolTableRecord
100
AcDbLayerTableRecord
  2
Layer00092
 70
               0
 62
              -7
  6
Continuous
  0
LAYER
  5
91
100
AcDbSymbolTableRecord
100
AcDbLayerTableRecord
  2
Layer00093
 70
               0
 62
              -7
  6
Continuous
  0
LAYER
  5
92
100
AcDbSymbolTableRecord
100
AcDbLayerTableRecord
  2
Layer00094
 70
               0
 62
              -7
  6
Continuous
  0
LAYER
  5
93
100
AcDbSymbolTableRecord
100
AcDbLayerTableRecord
  2
Layer00095
 70
               0
 62
              -7
  6
Continuous
  0
LAYER
  5
94
100
AcDbSymbolTableRecord
100
AcDbLayerTableRecord
  2
Layer00096
 70
               0
 62
               7
  6
Continuous
  0
LAYER
  5
95
100
AcDbSymbolTableRecord
100
AcDbLayerTableRecord
  2
Layer00097
 70
               0
 62
              -7
  6
Continuous
  0
LAYER
  5
96
100
AcDbSymbolTableRecord
100
AcDbLayerTableRecord
  2
Layer00098
 70
               0
 62
              -7
  6
Continuous
  0
LAYER
  5
97
100
AcDbSymbolTableRecord
100
AcDbLayerTableRecord
  2
Layer00099
 70
               0
 62
              -7
  6
Continuous
  0
LAYER
  5
98
100
AcDbSymbolTableRecord
100
AcDbLayerTableRecord
  2
Layer00100
 70
               0
 62
              -7
  6
Continuous
  0
LAYER
  5
99
100
AcDbSymbolTableRecord
100
AcDbLayerTableRecord
  2
Layer00101
 70
               0
 62
              -7
  6
Continuous
  0
LAYER
  5
9A
100
AcDbSymbolTableRecord
100
AcDbLayerTableRecord
  2
Layer00102
 70
               0
 62
              -7
  6
Continuous
  0
LAYER
  5
9B
100
AcDbSymbolTableRecord
100
AcDbLayerTableRecord
  2
Layer00103
 70
               0
 62
              -7
  6
Continuous
  0
LAYER
  5
9C
100
AcDbSymbolTableRecord
100
AcDbLayerTableRecord
  2
Layer00104
 70
               0
 62
              -7
  6
Continuous
  0
LAYER
  5
9D
100
AcDbSymbolTableRecord
100
AcDbLayerTableRecord
  2
Layer00105
 70
               0
 62
              -7
  6
Continuous
  0
LAYER
  5
9E
100
AcDbSymbolTableRecord
100
AcDbLayerTableRecord
  2
Layer00106
 70
               0
 62
              -7
  6
Continuous
  0
LAYER
  5
9F
100
AcDbSymbolTableRecord
100
AcDbLayerTableRecord
  2
Layer00107
 70
               0
 62
              -7
  6
Continuous
  0
LAYER
  5
A0
100
AcDbSymbolTableRecord
100
AcDbLayerTableRecord
  2
Layer00108
 70
               0
 62
              -7
  6
Continuous
  0
LAYER
  5
A1
100
AcDbSymbolTableRecord
100
AcDbLayerTableRecord
  2
Layer00109
 70
               0
 62
              -7
  6
Continuous
  0
LAYER
  5
A2
100
AcDbSymbolTableRecord
100
AcDbLayerTableRecord
  2
Layer00110
 70
               0
 62
              -7
  6
Continuous
  0
LAYER
  5
A3
100
AcDbSymbolTableRecord
100
AcDbLayerTableRecord
  2
Layer00111
 70
               0
 62
              -7
  6
Continuous
  0
LAYER
  5
A4
100
AcDbSymbolTableRecord
100
AcDbLayerTableRecord
  2
Layer00112
 70
               0
 62
               7
  6
Continuous
  0
LAYER
  5
A5
100
AcDbSymbolTableRecord
100
AcDbLayerTableRecord
  2
Layer00113
 70
               0
 62
              -7
  6
Continuous
  0
LAYER
  5
A6
100
AcDbSymbolTableRecord
100
AcDbLayerTableRecord
  2
Layer00114
 70
               0
 62
              -7
  6
Continuous
  0
LAYER
  5
A7
100
AcDbSymbolTableRecord
100
AcDbLayerTableRecord
  2
Layer00115
 70
               0
 62
              -7
  6
Continuous
  0
LAYER
  5
A8
100
AcDbSymbolTableRecord
100
AcDbLayerTableRecord
  2
Layer00116
 70
               0
 62
              -7
  6
Continuous
  0
LAYER
  5
A9
100
AcDbSymbolTableRecord
100
AcDbLayerTableRecord
  2
Layer00117
 70
               0
 62
              -7
  6
Continuous
  0
LAYER
  5
AA
100
AcDbSymbolTableRecord
100
AcDbLayerTableRecord
  2
Layer00118
 70
               0
 62
              -7
  6
Continuous
  0
LAYER
  5
AB
100
AcDbSymbolTableRecord
100
AcDbLayerTableRecord
  2
Layer00119
 70
               0
 62
              -7
  6
Continuous
  0
LAYER
  5
AC
100
AcDbSymbolTableRecord
100
AcDbLayerTableRecord
  2
Layer00120
 70
               0
 62
              -7
  6
Continuous
  0
LAYER
  5
AD
100
AcDbSymbolTableRecord
100
AcDbLayerTableRecord
  2
Layer00121
 70
               0
 62
              -7
  6
Continuous
  0
LAYER
  5
AE
100
AcDbSymbolTableRecord
100
AcDbLayerTableRecord
  2
Layer00122
 70
               0
 62
              -7
  6
Continuous
  0
LAYER
  5
AF
100
AcDbSymbolTableRecord
100
AcDbLayerTableRecord
  2
Layer00123
 70
               0
 62
              -7
  6
Continuous
  0
LAYER
  5
B0
100
AcDbSymbolTableRecord
100
AcDbLayerTableRecord
  2
Layer00124
 70
               0
 62
              -7
  6
Continuous
  0
LAYER
  5
B1
100
AcDbSymbolTableRecord
100
AcDbLayerTableRecord
  2
Layer00125
 70
               0
 62
              -7
  6
Continuous
  0
LAYER
  5
B2
100
AcDbSymbolTableRecord
100
AcDbLayerTableRecord
  2
Layer00126
 70
               0
 62
              -7
  6
Continuous
  0
LAYER
  5
B3
100
AcDbSymbolTableRecord
100
AcDbLayerTableRecord
  2
Layer00127
 70
               0
 62
              -7
  6
Continuous
  0
LAYER
  5
B4
100
AcDbSymbolTableRecord
100
AcDbLayerTableRecord
  2
Layer00128
 70
               0
 62
               7
  6
Continuous
  0
LAYER
  5
B5
100
AcDbSymbolTableRecord
100
AcDbLayerTableRecord
  2
Layer00129
 70
               0
 62
              -7
  6
Continuous
  0
LAYER
  5
B6
100
AcDbSymbolTableRecord
100
AcDbLayerTableRecord
  2
Layer00130
 70
               0
 62
              -7
  6
Continuous
  0
LAYER
  5
B7
100
AcDbSymbolTableRecord
100
AcDbLayerTableRecord
  2
Layer00131
 70
               0
 62
              -7
  6
Continuous
  0
LAYER
  5
B8
100
AcDbSymbolTableRecord
100
AcDbLayerTableRecord
  2
Layer00132
 70
               0
 62
              -7
  6
Continuous
  0
LAYER
  5
B9
100
AcDbSymbolTableRecord
100
AcDbLayerTableRecord
  2
Layer00133
 70
               0
 62
              -7
  6
Continuous
  0
LAYER
  5
BA
100
AcDbSymbolTableRecord
100
AcDbLayerTableRecord
  2
Layer00134
 70
               0
 62
              -7
  6
Continuous
  0
LAYER
  5
BB
100
AcDbSymbolTableRecord
100
AcDbLayerTableRecord
  2
Layer00135
 70
               0
 62
              -7
  6
Continuous
  0
LAYER
  5
BC
100
AcDbSymbolTableRecord
100
AcDbLayerTableRecord
  2
Layer00136
 70
               0
 62
              -7
  6
Continuous
  0
LAYER
  5
BD
100
AcDbSymbolTableRecord
100
AcDbLayerTableRecord
  2
Layer00137
 70
               0
 62
              -7
  6
Continuous
  0
LAYER
  5
BE
100
AcDbSymbolTableRecord
100
AcDbLayerTableRecord
  2
Layer00138
 70
               0
 62
              -7
  6
Continuous
  0
LAYER
  5
BF
100
AcDbSymbolTableRecord
100
AcDbLayerTableRecord
  2
Layer00139
 70
               0
 62
              -7
  6
Continuous
  0
LAYER
  5
C0
100
AcDbSymbolTableRecord
100
AcDbLayerTableRecord
  2
Layer00140
 70
               0
 62
              -7
  6
Continuous
  0
LAYER
  5
C1
100
AcDbSymbolTableRecord
100
AcDbLayerTableRecord
  2
Layer00141
 70
               0
 62
              -7
  6
Continuous
  0
LAYER
  5
C2
100
AcDbSymbolTableRecord
100
AcDbLayerTableRecord
  2
Layer00142
 70
               0
 62
              -7
  6
Continuous
  0
LAYER
  5
C3
100
AcDbSymbolTableRecord
100
AcDbLayerTableRecord
  2
Layer00143
 70
               0
 62
              -7
  6
Continuous
  0
LAYER
  5
C4
100
AcDbSymbolTableRecord
100
AcDbLayerTableRecord
  2
Layer00144
 70
               0
 62
               7
  6
Continuous
  0
LAYER
  5
C5
100
AcDbSymbolTableRecord
100
AcDbLayerTableRecord
  2
Layer00145
 70
               0
 62
              -7
  6
Continuous
  0
LAYER
  5
C6
100
AcDbSymbolTableRecord
100
AcDbLayerTableRecord
  2
Layer00146
 70
               0
 62
              -7
  6
Continuous
  0
LAYER
  5
C7
100
AcDbSymbolTableRecord
100
AcDbLayerTableRecord
  2
Layer00147
 70
               0
 62
              -7
  6
Continuous
  0
LAYER
  5
C8
100
AcDbSymbolTableRecord
100
AcDbLayerTableRecord
  2
Layer00148
 70
               0
 62
              -7
  6
Continuous
  0
LAYER
  5
C9
100
AcDbSymbolTableRecord
100
AcDbLayerTableRecord
  2
Layer00149
 70
               0
 62
              -7
  6
Continuous
  0
LAYER
  5
CA
100
AcDbSymbolTableRecord
100
AcDbLayerTableRecord
  2
Layer00150
 70
               0
 62
              -7
  6
Continuous
  0
LAYER
  5
CB
100
AcDbSymbolTableRecord
100
AcDbLayerTableRecord
  2
Layer00151
 70
               0
 62
              -7
  6
Continuous
  0
LAYER
  5
CC
100
AcDbSymbolTableRecord
100
AcDbLayerTableRecord
  2
Layer00152
 70
               0
 62
              -7
  6
Continuous
  0
LAYER
  5
CD
100
AcDbSymbolTableRecord
100
AcDbLayerTableRecord
  2
Layer00153
 70
               0
 62
              -7
  6
Continuous
  0
LAYER
  5
CE
100
AcDbSymbolTableRecord
100
AcDbLayerTableRecord
  2
Layer00154
 70
               0
 62
              -7
  6
Continuous
  0
LAYER
  5
CF
100
AcDbSymbolTableRecord
100
AcDbLayerTableRecord
  2
Layer00155
 70
               0
 62
              -7
  6
Continuous
  0
LAYER
  5
D0
100
AcDbSymbolTableRecord
100
AcDbLayerTableRecord
  2
Layer00156
 70
               0
 62
              -7
  6
Continuous
  0
LAYER
  5
D1
100
AcDbSymbolTableRecord
100
AcDbLayerTableRecord
  2
Layer00157
 70
               0
 62
              -7
  6
Continuous
  0
LAYER
  5
D2
100
AcDbSymbolTableRecord
100
AcDbLayerTableRecord
  2
Layer00158
 70
               0
 62
              -7
  6
Continuous
  0
LAYER
  5
D3
100
AcDbSymbolTableRecord
100
AcDbLayerTableRecord
  2
Layer00159
 70
               0
 62
              -7
  6
Continuous
  0
LAYER
  5
D4
100
AcDbSymbolTableRecord
100
AcDbLayerTableRecord
  2
Layer00160
 70
               0
 62
               7
  6
Continuous
  0
LAYER
  5
D5
100
AcDbSymbolTableRecord
100
AcDbLayerTableRecord
  2
Layer00161
 70
               0
 62
              -7
  6
Continuous
  0
LAYER
  5
D6
100
AcDbSymbolTableRecord
100
AcDbLayerTableRecord
  2
Layer00162
 70
               0
 62
              -7
  6
Continuous
  0
LAYER
  5
D7
100
AcDbSymbolTableRecord
100
AcDbLayerTableRecord
  2
Layer00163
 70
               0
 62
              -7
  6
Continuous
  0
LAYER
  5
D8
100
AcDbSymbolTableRecord
100
AcDbLayerTableRecord
  2
Layer00164
 70
               0
 62
              -7
  6
Continuous
  0
LAYER
  5
D9
100
AcDbSymbolTableRecord
100
AcDbLayerTableRecord
  2
Layer00165
 70
               0
 62
              -7
  6
Continuous
  0
LAYER
  5
DA
100
AcDbSymbolTableRecord
100
AcDbLayerTableRecord
  2
Layer00166
 70
               0
 62
              -7
  6
Continuous
  0
LAYER
  5
DB
100
AcDbSymbolTableRecord
100
AcDbLayerTableRecord
  2
Layer00167
 70
               0
 62
              -7
  6
Continuous
  0
LAYER
  5
DC
100
AcDbSymbolTableRecord
100
AcDbLayerTableRecord
  2
Layer00168
 70
               0
 62
              -7
  6
Continuous
  0
LAYER
  5
DD
100
AcDbSymbolTableRecord
100
AcDbLayerTableRecord
  2
Layer00169
 70
               0
 62
              -7
  6
Continuous
  0
LAYER
  5
DE
100
AcDbSymbolTableRecord
100
AcDbLayerTableRecord
  2
Layer00170
 70
               0
 62
              -7
  6
Continuous
  0
LAYER
  5
DF
100
AcDbSymbolTableRecord
100
AcDbLayerTableRecord
  2
Layer00171
 70
               0
 62
              -7
  6
Continuous
  0
LAYER
  5
E0
100
AcDbSymbolTableRecord
100
AcDbLayerTableRecord
  2
Layer00172
 70
               0
 62
              -7
  6
Continuous
  0
LAYER
  5
E1
100
AcDbSymbolTableRecord
100
AcDbLayerTableRecord
  2
Layer00173
 70
               0
 62
              -7
  6
Continuous
  0
LAYER
  5
E2
100
AcDbSymbolTableRecord
100
AcDbLayerTableRecord
  2
Layer00174
 70
               0
 62
              -7
  6
Continuous
  0
LAYER
  5
E3
100
AcDbSymbolTableRecord
100
AcDbLayerTableRecord
  2
Layer00175
 70
               0
 62
              -7
  6
Continuous
  0
LAYER
  5
E4
100
AcDbSymbolTableRecord
100
AcDbLayerTableRecord
  2
Layer00176
 70
               0
 62
               7
  6
Continuous
  0
LAYER
  5
E5
100
AcDbSymbolTableRecord
100
AcDbLayerTableRecord
  2
Layer00177
 70
               0
 62
              -7
  6
Continuous
  0
LAYER
  5
E6
100
AcDbSymbolTableRecord
100
AcDbLayerTableRecord
  2
Layer00178
 70
               0
 62
              -7
  6
Continuous
  0
LAYER
  5
E7
100
AcDbSymbolTableRecord
100
AcDbLayerTableRecord
  2
Layer00179
 70
               0
 62
              -7
  6
Continuous
  0
LAYER
  5
E8
100
AcDbSymbolTableRecord
100
AcDbLayerTableRecord
  2
Layer00180
 70
               0
 62
              -7
  6
Continuous
  0
LAYER
  5
E9
100
AcDbSymbolTableRecord
100
AcDbLayerTableRecord
  2
Layer00181
 70
               0
 62
              -7
  6
Continuous
  0
LAYER
  5
EA
100
AcDbSymbolTableRecord
100
AcDbLayerTableRecord
  2
Layer00182
 70
               0
 62
              -7
  6
Continuous
  0
LAYER
  5
EB
100
AcDbSymbolTableRecord
100
AcDbLayerTableRecord
  2
Layer00183
 70
               0
 62
              -7
  6
Continuous
  0
LAYER
  5
EC
100
AcDbSymbolTableRecord
100
AcDbLayerTableRecord
  2
Layer00184
 70
               0
 62
              -7
  6
Continuous
  0
LAYER
  5
ED
100
AcDbSymbolTableRecord
100
AcDbLayerTableRecord
  2
Layer00185
 70
               0
 62
              -7
  6
Continuous
  0
LAYER
  5
EE
100
AcDbSymbolTableRecord
100
AcDbLayerTableRecord
  2
Layer00186
 70
               0
 62
              -7
  6
Continuous
  0
LAYER
  5
EF
100
AcDbSymbolTableRecord
100
AcDbLayerTableRecord
  2
Layer00187
 70
               0
 62
              -7
  6
Continuous
  0
LAYER
  5
F0
100
AcDbSymbolTableRecord
100
AcDbLayerTableRecord
  2
Layer00188
 70
               0
 62
              -7
  6
Continuous
  0
LAYER
  5
F1
100
AcDbSymbolTableRecord
100
AcDbLayerTableRecord
  2
Layer00189
 70
               0
 62
              -7
  6
Continuous
  0
LAYER
  5
F2
100
AcDbSymbolTableRecord
100
AcDbLayerTableRecord
  2
Layer00190
 70
               0
 62
              -7
  6
Continuous
  0
LAYER
  5
F3
100
AcDbSymbolTableRecord
100
AcDbLayerTableRecord
  2
Layer00191
 70
               0
 62
              -7
  6
Continuous
  0
LAYER
  5
F4
100
AcDbSymbolTableRecord
100
AcDbLayerTableRecord
  2
Layer00192
 70
               0
 62
               7
  6
Continuous
  0
LAYER
  5
F5
100
AcDbSymbolTableRecord
100
AcDbLayerTableRecord
  2
Layer00193
 70
               0
 62
              -7
  6
Continuous
  0
LAYER
  5
F6
100
AcDbSymbolTableRecord
100
AcDbLayerTableRecord
  2
Layer00194
 70
               0
 62
              -7
  6
Continuous
  0
LAYER
  5
F7
100
AcDbSymbolTableRecord
100
AcDbLayerTableRecord
  2
Layer00195
 70
               0
 62
              -7
  6
Continuous
  0
LAYER
  5
F8
100
AcDbSymbolTableRecord
100
AcDbLayerTableRecord
  2
Layer00196
 70
               0
 62
              -7
  6
Continuous
  0
LAYER
  5
F9
100
AcDbSymbolTableRecord
100
AcDbLayerTableRecord
  2
Layer00197
 70
               0
 62
              -7
  6
Continuous
  0
LAYER
  5
FA
100
AcDbSymbolTableRecord
100
AcDbLayerTableRecord
  2
Layer00198
 70
               0
 62
              -7
  6
Continuous
  0
LAYER
  5
FB
100
AcDbSymbolTableRecord
100
AcDbLayerTableRecord
  2
Layer00199
 70
               0
 62
              -7
  6
Continuous
  0
LAYER
  5
FC
100
AcDbSymbolTableRecord
100
AcDbLayerTableRecord
  2
Layer00200
 70
               0
 62
              -7
  6
Continuous
  0
LAYER
  5
FD
100
AcDbSymbolTableRecord
100
AcDbLayerTableRecord
  2
Layer00201
 70
               0
 62
              -7
  6
Continuous
  0
LAYER
  5
FE
100
AcDbSymbolTableRecord
100
AcDbLayerTableRecord
  2
Layer00202
 70
               0
 62
              -7
  6
Continuous
  0
LAYER
  5
FF
100
AcDbSymbolTableRecord
100
AcDbLayerTableRecord
  2
Layer00203
 70
               0
 62
              -7
  6
Continuous
  0
LAYER
  5
100
100
AcDbSymbolTableRecord
100
AcDbLayerTableRecord
  2
Layer00204
 70
               0
 62
              -7
  6
Continuous
  0
LAYER
  5
101
100
AcDbSymbolTableRecord
100
AcDbLayerTableRecord
  2
Layer00205
 70
               0
 62
              -7
  6
Continuous
  0
LAYER
  5
102
100
AcDbSymbolTableRecord
100
AcDbLayerTableRecord
  2
Layer00206
 70
               0
 62
              -7
  6
Continuous
  0
LAYER
  5
103
100
AcDbSymbolTableRecord
100
AcDbLayerTableRecord
  2
Layer00207
 70
               0
 62
              -7
  6
Continuous
  0
LAYER
  5
104
100
AcDbSymbolTableRecord
100
AcDbLayerTableRecord
  2
Layer00208
 70
               0
 62
               7
  6
Continuous
  0
LAYER
  5
105
100
AcDbSymbolTableRecord
100
AcDbLayerTableRecord
  2
Layer00209
 70
               0
 62
              -7
  6
Continuous
  0
LAYER
  5
106
100
AcDbSymbolTableRecord
100
AcDbLayerTableRecord
  2
Layer00210
 70
               0
 62
              -7
  6
Continuous
  0
LAYER
  5
107
100
AcDbSymbolTableRecord
100
AcDbLayerTableRecord
  2
Layer00211
 70
               0
 62
              -7
  6
Continuous
  0
LAYER
  5
108
100
AcDbSymbolTableRecord
100
AcDbLayerTableRecord
  2
Layer00212
 70
               0
 62
              -7
  6
Continuous
  0
LAYER
  5
109
100
AcDbSymbolTableRecord
100
AcDbLayerTableRecord
  2
Layer00213
 70
               0
 62
              -7
  6
Continuous
  0
LAYER
  5
10A
100
AcDbSymbolTableRecord
100
AcDbLayerTableRecord
  2
Layer00214
 70
               0
 62
              -7
  6
Continuous
  0
LAYER
  5
10B
100
AcDbSymbolTableRecord
100
AcDbLayerTableRecord
  2
Layer00215
 70
               0
 62
              -7
  6
Continuous
  0
LAYER
  5
10C
100
AcDbSymbolTableRecord
100
AcDbLayerTableRecord
  2
Layer00216
 70
               0
 62
              -7
  6
Continuous
  0
LAYER
  5
10D
100
AcDbSymbolTableRecord
100
AcDbLayerTableRecord
  2
Layer00217
 70
               0
 62
              -7
  6
Continuous
  0
LAYER
  5
10E
100
AcDbSymbolTableRecord
100
AcDbLayerTableRecord
  2
Layer00218
 70
               0
 62
              -7
  6
Continuous
  0
LAYER
  5
10F
100
AcDbSymbolTableRecord
100
AcDbLayerTableRecord
  2
Layer00219
 70
               0
 62
              -7
  6
Continuous
  0
LAYER
  5
110
100
AcDbSymbolTableRecord
100
AcDbLayerTableRecord
  2
Layer00220
 70
               0
 62
              -7
  6
Continuous
  0
LAYER
  5
111
100
AcDbSymbolTableRecord
100
AcDbLayerTableRecord
  2
Layer00221
 70
               0
 62
              -7
  6
Continuous
  0
LAYER
  5
112
100
AcDbSymbolTableRecord
100
AcDbLayerTableRecord
  2
Layer00222
 70
               0
 62
              -7
  6
Continuous
  0
LAYER
  5
113
100
AcDbSymbolTableRecord
100
AcDbLayerTableRecord
  2
Layer00223
 70
               0
 62
              -7
  6
Continuous
  0
LAYER
  5
114
100
AcDbSymbolTableRecord
100
AcDbLayerTableRecord
  2
Layer00224
 70
               0
 62
               7
  6
Continuous
  0
LAYER
  5
115
100
AcDbSymbolTableRecord
100
AcDbLayerTableRecord
  2
Layer00225
 70
               0
 62
              -7
  6
Continuous
  0
LAYER
  5
116
100
AcDbSymbolTableRecord
100
AcDbLayerTableRecord
  2
Layer00226
 70
               0
 62
              -7
  6
Continuous
  0
LAYER
  5
117
100
AcDbSymbolTableRecord
100
AcDbLayerTableRecord
  2
Layer00227
 70
               0
 62
              -7
  6
Continuous
  0
LAYER
  5
118
100
AcDbSymbolTableRecord
100
AcDbLayerTableRecord
  2
Layer00228
 70
               0
 62
              -7
  6
Continuous
  0
LAYER
  5
119
100
AcDbSymbolTableRecord
100
AcDbLayerTableRecord
  2
Layer00229
 70
               0
 62
              -7
  6
Continuous
  0
LAYER
  5
11A
100
AcDbSymbolTableRecord
100
AcDbLayerTableRecord
  2
Layer00230
 70
               0
 62
              -7
  6
Continuous
  0
LAYER
  5
11B
100
AcDbSymbolTableRecord
100
AcDbLayerTableRecord
  2
Layer00231
 70
               0
 62
              -7
  6
Continuous
  0
LAYER
  5
11C
100
AcDbSymbolTableRecord
100
AcDbLayerTableRecord
  2
Layer00232
 70
               0
 62
              -7
  6
Continuous
  0
LAYER
  5
11D
100
AcDbSymbolTableRecord
100
AcDbLayerTableRecord
  2
Layer00233
 70
               0
 62
              -7
  6
Continuous
  0
LAYER
  5
11E
100
AcDbSymbolTableRecord
100
AcDbLayerTableRecord
  2
Layer00234
 70
               0
 62
              -7
  6
Continuous
  0
LAYER
  5
11F
100
AcDbSymbolTableRecord
100
AcDbLayerTableRecord
  2
Layer00235
 70
               0
 62
              -7
  6
Continuous
  0
LAYER
  5
120
100
AcDbSymbolTableRecord
100
AcDbLayerTableRecord
  2
Layer00236
 70
               0
 62
              -7
  6
Continuous
  0
LAYER
  5
121
100
AcDbSymbolTableRecord
100
AcDbLayerTableRecord
  2
Layer00237
 70
               0
 62
              -7
  6
Continuous
  0
LAYER
  5
122
100
AcDbSymbolTableRecord
100
AcDbLayerTableRecord
  2
Layer00238
 70
               0
 62
              -7
  6
Continuous
  0
LAYER
  5
123
100
AcDbSymbolTableRecord
100
AcDbLayerTableRecord
  2
Layer00239
 70
               0
 62
              -7
  6
Continuous
  0
LAYER
  5
124
100
AcDbSymbolTableRecord
100
AcDbLayerTableRecord
  2
Layer00240
 70
               0
 62
               7
  6
Continuous
  0
LAYER
  5
125
100
AcDbSymbolTableRecord
100
AcDbLayerTableRecord
  2
Layer00241
 70
               0
 62
              -7
  6
Continuous
  0
LAYER
  5
126
100
AcDbSymbolTableRecord
100
AcDbLayerTableRecord
  2
Layer00242
 70
               0
 62
              -7
  6
Continuous
  0
LAYER
  5
127
100
AcDbSymbolTableRecord
100
AcDbLayerTableRecord
  2
Layer00243
 70
               0
 62
              -7
  6
Continuous
  0
LAYER
  5
128
100
AcDbSymbolTableRecord
100
AcDbLayerTableRecord
  2
Layer00244
 70
               0
 62
              -7
  6
Continuous
  0
LAYER
  5
129
100
AcDbSymbolTableRecord
100
AcDbLayerTableRecord
  2
Layer00245
 70
               0
 62
              -7
  6
Continuous
  0
LAYER
  5
12A
100
AcDbSymbolTableRecord
100
AcDbLayerTableRecord
  2
Layer00246
 70
               0
 62
              -7
  6
Continuous
  0
LAYER
  5
12B
100
AcDbSymbolTableRecord
100
AcDbLayerTableRecord
  2
Layer00247
 70
               0
 62
              -7
  6
Continuous
  0
LAYER
  5
12C
100
AcDbSymbolTableRecord
100
AcDbLayerTableRecord
  2
Layer00248
 70
               0
 62
              -7
  6
Continuous
  0
LAYER
  5
12D
100
AcDbSymbolTableRecord
100
AcDbLayerTableRecord
  2
Layer00249
 70
               0
 62
              -7
  6
Continuous
  0
LAYER
  5
12E
100
AcDbSymbolTableRecord
100
AcDbLayerTableRecord
  2
Layer00250
 70
               0
 62
              -7
  6
Continuous
  0
LAYER
  5
12F
100
AcDbSymbolTableRecord
100
AcDbLayerTableRecord
  2
Layer00251
 70
               0
 62
              -7
  6
Continuous
  0
LAYER
  5
130
100
AcDbSymbolTableRecord
100
AcDbLayerTableRecord
  2
Layer00252
 70
               0
 62
              -7
  6
Continuous
  0
LAYER
  5
131
100
AcDbSymbolTableRecord
100
AcDbLayerTableRecord
  2
Layer00253
 70
               0
 62
              -7
  6
Continuous
  0
LAYER
  5
132
100
AcDbSymbolTableRecord
100
AcDbLayerTableRecord
  2
Layer00254
 70
               0
 62
              -7
  6
Continuous
  0
LAYER
  5
133
100
AcDbSymbolTableRecord
100
AcDbLayerTableRecord
  2
Layer00255
 70
               0
 62
              -7
  6
Continuous
  0
ENDTAB
  0
TABLE
  2
STYLE
  5
3
100
AcDbSymbolTable
 70
               4
  0
STYLE
  5
17
100
AcDbSymbolTableRecord
100
AcDbTextStyleTableRecord
  2
Standard
 70
               0
 40
0.0
 41
1.0
 50
0.0
 71
               0
 42
0.0
  3
txt.shx
  4
bigfont.shx
  0
STYLE
  5
32
100
AcDbSymbolTableRecord
100
AcDbTextStyleTableRecord
  2
STANDARD_T
 70
               4
 40
0.0
 41
1.0
 50
0.0
 71
               0
 42
0.0
  3
txt.shx
  4
bigfont.shx
  0
STYLE
  5
33
100
AcDbSymbolTableRecord
100
AcDbTextStyleTableRecord
  2
FontTableH_0
 70
               0
 40
0.0
 41
1.0
 50
0.0
 71
               0
 42
0.0
  3
MS Gothic.ttf
  4

1001
ACAD
1000
MS Gothic
1071
    32817
  0
STYLE
  5
34
100
AcDbSymbolTableRecord
100
AcDbTextStyleTableRecord
  2
FontTableV_0
 70
               0
 40
0.0
 41
1.0
 50
0.0
 71
               0
 42
0.0
  3
@MS Gothic.ttf
  4

1001
ACAD
1000
@MS Gothic
1071
    32817
  0
ENDTAB
  0
TABLE
  2
VIEW
  5
5
100
AcDbSymbolTable
 70
               0
  0
ENDTAB
  0
TABLE
  2
UCS
  5
6
100
AcDbSymbolTable
 70
               0
  0
ENDTAB
  0
TABLE
  2
APPID
  5
8
100
AcDbSymbolTable
 70
               1
  0
APPID
  5
16
100
AcDbSymbolTableRecord
100
AcDbRegAppTableRecord
  2
ACAD
 70
               0
  0
ENDTAB
  0
TABLE
  2
DIMSTYLE
  5
9
100
AcDbSymbolTable
 70
               1
  0
DIMSTYLE
105
18
100
AcDbSymbolTableRecord
100
AcDbDimStyleTableRecord
  2
Standard
 70
               0
  3

  4

  5

  6

  7

 40
1.0
 41
0.18
 42
0.0625
 43
0.38
 44
0.18
 45
0.0
 46
0.0
 47
0.0
 48
0.0
 71
               0
 72
               0
 73
               1
 74
               1
 75
               0
 76
               0
 77
               0
 78
               0
140
0.18
141
0.09
142
0.0
143
25.399999999999999
144
1.0
145
0.0
146
1.0
147
0.09
170
               0
171
               2
172
               0
173
               0
174
               0
175
               0
176
               0
177
               0
178
               0
270
               2
271
               4
272
               4
273
               2
274
               2
275
               0
280
               0
281
               0
282
               0
283
               1
284
               0
285
               0
286
               0
287
               0
288
               0
340
17
  0
ENDTAB
  0
TABLE
  2
BLOCK_RECORD
  5
1
100
AcDbSymbolTable
 70
               0
  0
BLOCK_RECORD
  5
A
100
AcDbSymbolTableRecord
100
AcDbBlockTableRecord
  2
*MODEL_SPACE
  0
BLOCK_RECORD
  5
B
100
AcDbSymbolTableRecord
100
AcDbBlockTableRecord
  2
*PAPER_SPACE
  0
ENDTAB
  0
ENDSEC
  0
SECTION
  2
BLOCKS
  0
BLOCK
  5
D
100
AcDbEntity
  8
0
100
AcDbBlockBegin
  2
*MODEL_SPACE
 70
               0
 10
0.0
 20
0.0
 30
0.0
  3
*MODEL_SPACE
  1

  0
ENDBLK
  5
E
100
AcDbEntity
  8
0
100
AcDbBlockEnd
  0
BLOCK
  5
F
100
AcDbEntity
 67
               1
  8
0
100
AcDbBlockBegin
  2
*PAPER_SPACE
 70
               0
 10
0.0
 20
0.0
 30
0.0
  3
*PAPER_SPACE
  1

  0
ENDBLK
  5
10
100
AcDbEntity
 67
               1
  8
0
100
AcDbBlockEnd
  0
ENDSEC
  0
SECTION
  2
ENTITIES
  0
LINE
  5
134
100
AcDbEntity
  8
0
  6
Continuous
 62
               4
100
AcDbLine
 10
641.96123212195937
 20
366.64087995884233
 30
0.0
 11
665.95643356147957
 21
366.16097593005156
 31
0.0
  0
LINE
  5
135
100
AcDbEntity
  8
0
  6
Continuous
 62
               4
100
AcDbLine
 10
620.96543086237671
 20
317.05079698383372
 30
0.0
 11
664.95663350149891
 21
316.1709729310507
 31
0.0
  0
LINE
  5
136
100
AcDbEntity
  8
0
  6
Continuous
 62
               4
100
AcDbLine
 10
662.95703338153965
 20
366.22096393365041
 30
0.0
 11
661.95723332155899
 21
316.23096093464954
 31
0.0
  0
LINE
  5
137
100
AcDbEntity
  8
0
  6
Continuous
 62
               4
100
AcDbLine
 10
637.23217783825487
 20
430.24815977477306
 30
0.0
 11
637.71208186704541
 21
454.24336121429315
 31
0.0
  0
LINE
  5
138
100
AcDbEntity
  8
0
  6
Continuous
 62
               4
100
AcDbLine
 10
606.07840796927871
 20
373.35973632191985
 30
0.0
 11
607.70808206704623
 21
454.84344121029312
 31
0.0
  0
LINE
  5
139
100
AcDbEntity
  8
0
  6
Continuous
 62
               4
100
AcDbLine
 10
637.65209386344657
 20
451.24396103435311
 30
0.0
 11
607.64809406344739
 21
451.84404103035308
 31
0.0
  0
LINE
  5
13A
100
AcDbEntity
  8
0
  6
Continuous
 62
               4
100
AcDbLine
 10
506.12839597307646
 20
376.35893654184815
 30
0.0
 11
507.73807406964448
 21
456.84284137024133
 31
0.0
  0
LINE
  5
13B
100
AcDbEntity
  8
0
  6
Continuous
 62
               4
100
AcDbLine
 10
607.64809406344739
 20
451.84404103035308
 30
0.0
 11
507.67808606604569
 21
453.84344119030152
 31
0.0
  0
LINE
  5
13C
100
AcDbEntity
  8
0
  6
Continuous
 62
               4
100
AcDbLine
 10
305.81632225008065
 20
430.87527700649457
 30
0.0
 11
304.71654218410271
 21
375.88627370760287
 31
0.0
  0
LINE
  5
13D
100
AcDbEntity
  8
0
  6
Continuous
 62
               4
100
AcDbLine
 10
304.62656017870461
 20
371.3871734376994
 30
0.0
 11
304.02668014271643
 21
341.39317163829287
 31
0.0
  0
LINE
  5
13E
100
AcDbEntity
  8
0
  6
Continuous
 62
               4
100
AcDbLine
 10
304.00668414151653
 20
340.39337157829937
 30
0.0
 11
302.90690407553836
 21
285.40436827939931
 31
0.0
  0
LINE
  5
13F
100
AcDbEntity
  8
0
  6
Continuous
 62
               4
100
AcDbLine
 10
605.95843196208125
 20
291.1068995542438
 30
0.0
 11
630.58858171929251
 21
248.44622877672361
 31
0.0
  0
LINE
  5
140
100
AcDbEntity
  8
0
  6
Continuous
 62
               4
100
AcDbLine
 10
630.58858171929251
 20
248.44622877672361
 30
0.0
 11
656.64049930079159
 21
248.44622877672361
 31
0.0
  0
LINE
  5
141
100
AcDbEntity
  8
0
  6
Continuous
 62
               4
100
AcDbLine
 10
605.95843196208125
 20
291.1068995542438
 30
0.0
 11
611.74352044926013
 21
284.21249956617294
 31
0.0
  0
LINE
  5
142
100
AcDbEntity
  8
0
  6
Continuous
 62
               4
100
AcDbLine
 10
605.95843196208125
 20
291.1068995542438
 30
0.0
 11
609.03661325201233
 21
282.64966596717062
 31
0.0
  0
LINE
  5
143
100
AcDbEntity
  8
0
  6
Continuous
 62
               4
100
AcDbLine
 10
598.37360374652371
 20
233.22674622906766
 30
0.0
 11
624.25523138329072
 21
188.39845217960863
 31
0.0
  0
LINE
  5
144
100
AcDbEntity
  8
0
  6
Continuous
 62
               4
100
AcDbLine
 10
624.25523138329072
 20
188.39845217960863
 30
0.0
 11
662.04539019680715
 21
188.39845217960863
 31
0.0
  0
LINE
  5
145
100
AcDbEntity
  8
0
  6
Continuous
 62
               4
100
AcDbLine
 10
598.37360374652371
 20
233.22674622906766
 30
0.0
 11
604.1586922337026
 21
226.3323462409968
 31
0.0
  0
LINE
  5
146
100
AcDbEntity
  8
0
  6
Continuous
 62
               4
100
AcDbLine
 10
598.37360374652371
 20
233.22674622906766
 30
0.0
 11
601.45178503645479
 21
224.76951264199448
 31
0.0
  0
LINE
  5
147
100
AcDbEntity
  8
0
  6
Continuous
 62
               4
100
AcDbLine
 10
615.46653053248701
 20
342.1657744905317
 30
0.0
 11
649.25395919586072
 21
283.64423138845962
 31
0.0
  0
LINE
  5
148
100
AcDbEntity
  8
0
  6
Continuous
 62
               4
100
AcDbLine
 10
649.25395919586072
 20
283.64423138845962
 30
0.0
 11
675.33671968916371
 21
283.64423138845962
 31
0.0
  0
LINE
  5
149
100
AcDbEntity
  8
0
  6
Continuous
 62
               4
100
AcDbLine
 10
615.46653053248701
 20
342.1657744905317
 30
0.0
 11
621.2516190196659
 21
335.27137450246073
 31
0.0
  0
LINE
  5
14A
100
AcDbEntity
  8
0
  6
Continuous
 62
               4
100
AcDbLine
 10
615.46653053248701
 20
342.1657744905317
 30
0.0
 11
618.54471182241809
 21
333.70854090345847
 31
0.0
  0
LINE
  5
14B
100
AcDbEntity
  8
0
  6
Continuous
 62
               4
100
AcDbLine
 10
293.04183771475971
 20
241.90105571549719
 30
0.0
 11
255.55147257207074
 21
241.90105571549719
 31
0.0
  0
LINE
  5
14C
100
AcDbEntity
  8
0
  6
Continuous
 62
               4
100
AcDbLine
 10
410.58180880031694
 20
461.40741339519695
 30
0.0
 11
450.28224183840274
 21
461.40741339519695
 31
0.0
  0
LINE
  5
14D
100
AcDbEntity
  8
0
  6
Continuous
 62
               4
100
AcDbLine
 10
330.13437116399439
 20
371.87721719799765
 30
0.0
 11
398.32520546305022
 21
489.98720681447207
 31
0.0
  0
LINE
  5
14E
100
AcDbEntity
  8
0
  6
Continuous
 62
               4
100
AcDbLine
 10
398.32520546305022
 20
489.98720681447207
 30
0.0
 11
473.13924957659793
 21
489.98720681447207
 31
0.0
  0
LINE
  5
14F
100
AcDbEntity
  8
0
  6
Continuous
 62
               4
100
AcDbLine
 10
330.13437116399439
 20
371.87721719799765
 30
0.0
 11
333.21255245392547
 21
380.33445078507066
 31
0.0
  0
LINE
  5
150
100
AcDbEntity
  8
0
  6
Continuous
 62
               4
100
AcDbLine
 10
330.13437116399439
 20
371.87721719799765
 30
0.0
 11
335.91945965117327
 21
378.7716171860684
 31
0.0
  0
LINE
  5
151
100
AcDbEntity
  8
0
  6
Continuous
 62
               4
100
AcDbLine
 10
320.57745529100606
 20
404.16777310332668
 30
0.0
 11
390.07228821461803
 21
524.53635459053271
 31
0.0
  0
LINE
  5
152
100
AcDbEntity
  8
0
  6
Continuous
 62
               4
100
AcDbLine
 10
390.07228821461803
 20
524.53635459053271
 30
0.0
 11
568.22868210708043
 21
524.53635459053271
 31
0.0
  0
LINE
  5
153
100
AcDbEntity
  8
0
  6
Continuous
 62
               4
100
AcDbLine
 10
320.57745529100606
 20
404.16777310332668
 30
0.0
 11
323.65563658093708
 21
412.62500669039969
 31
0.0
  0
LINE
  5
154
100
AcDbEntity
  8
0
  6
Continuous
 62
               4
100
AcDbLine
 10
320.57745529100606
 20
404.16777310332668
 30
0.0
 11
326.36254377818489
 21
411.06217309139743
 31
0.0
  0
LINE
  5
155
100
AcDbEntity
  8
0
  6
Continuous
 62
               4
100
AcDbLine
 10
548.67843572900563
 20
300.9576786020952
 30
0.0
 11
468.31757954817999
 21
161.76859275716981
 31
0.0
  0
LINE
  5
156
100
AcDbEntity
  8
0
  6
Continuous
 62
               4
100
AcDbLine
 10
468.31757954817999
 20
161.76859275716981
 30
0.0
 11
261.73422205048939
 21
161.76859275716987
 31
0.0
  0
LINE
  5
157
100
AcDbEntity
  8
0
  6
Continuous
 62
               4
100
AcDbLine
 10
548.67843572900563
 20
300.9576786020952
 30
0.0
 11
545.60025443907466
 21
292.50044501502202
 31
0.0
  0
LINE
  5
158
100
AcDbEntity
  8
0
  6
Continuous
 62
               4
100
AcDbLine
 10
548.67843572900563
 20
300.9576786020952
 30
0.0
 11
542.89334724182686
 21
294.06327861402434
 31
0.0
  0
LINE
  5
159
100
AcDbEntity
  8
0
  6
Continuous
 62
               3
100
AcDbLine
 10
603.95843196208125
 20
365.40053600205169
 30
0.0
 11
603.35855192609279
 21
335.40653420264312
 31
0.0
  0
LINE
  5
15A
100
AcDbEntity
  8
0
  6
Continuous
 62
               2
100
AcDbLine
 10
636.01242176507935
 20
369.2603561160015
 30
0.0
 11
637.11220183105729
 21
424.24935941489298
 31
0.0
  0
LINE
  5
15B
100
AcDbEntity
  8
0
  6
Continuous
 62
               4
100
AcDbLine
 10
323.87544765936991
 20
280.38407759509005
 30
0.0
 11
323.66748924498688
 21
269.98615687594997
 31
0.0
  0
LINE
  5
15C
100
AcDbEntity
  8
0
  6
Continuous
 62
               4
100
AcDbLine
 10
323.66748924498688
 20
269.98615687594997
 30
0.0
 11
325.96702933526694
 21
269.94016607414437
 31
0.0
  0
LINE
  5
15D
100
AcDbEntity
  8
0
  6
Continuous
 62
               4
100
AcDbLine
 10
325.96702933526694
 20
269.94016607414437
 30
0.0
 11
326.17498774964906
 21
280.33808679328445
 31
0.0
  0
LINE
  5
15E
100
AcDbEntity
  8
0
  6
Continuous
 62
               4
100
AcDbLine
 10
328.52051864173472
 20
282.59163608175891
 30
0.0
 11
364.31336097971553
 21
281.87577923499907
 31
0.0
  0
LINE
  5
15F
100
AcDbEntity
  8
0
  6
Continuous
 62
               4
100
AcDbLine
 10
366.56691026818999
 20
279.53024834291386
 30
0.0
 11
365.25117338544214
 21
213.74340420553267
 31
0.0
  0
LINE
  5
160
100
AcDbEntity
  8
0
  6
Continuous
 62
               4
100
AcDbLine
 10
362.90564249335648
 20
211.48985491705821
 30
0.0
 11
327.11280015537568
 21
212.20571176381804
 31
0.0
  0
LINE
  5
161
100
AcDbEntity
  8
0
  6
Continuous
 62
               4
100
AcDbLine
 10
324.85925086690122
 20
214.55124265590325
 30
0.0
 11
325.06720928128425
 21
224.94916337504378
 31
0.0
  0
LINE
  5
162
100
AcDbEntity
  8
0
  6
Continuous
 62
               4
100
AcDbLine
 10
325.06720928128425
 20
224.94916337504378
 30
0.0
 11
322.76766919100419
 21
224.99515417684938
 31
0.0
  0
LINE
  5
163
100
AcDbEntity
  8
0
  6
Continuous
 62
               4
100
AcDbLine
 10
322.76766919100419
 20
224.99515417684938
 30
0.0
 11
322.55971077662207
 21
214.59723345770885
 31
0.0
  0
LINE
  5
164
100
AcDbEntity
  8
0
  6
Continuous
 62
               4
100
AcDbLine
 10
362.85965169155088
 20
209.1903148267786
 30
0.0
 11
327.06680935357008
 21
209.90617167353798
 31
0.0
  0
LINE
  5
165
100
AcDbEntity
  8
0
  6
Continuous
 62
               4
100
AcDbLine
 10
367.55071347572175
 20
213.69741340372707
 30
0.0
 11
368.86645035846959
 21
279.48425754110826
 31
0.0
  0
LINE
  5
166
100
AcDbEntity
  8
0
  6
Continuous
 62
               4
100
AcDbLine
 10
542.67704938364432
 20
346.84112710723207
 30
0.0
 11
540.71744126608337
 21
348.88071922959102
 31
0.0
  0
LINE
  5
167
100
AcDbEntity
  8
0
  6
Continuous
 62
               4
100
AcDbLine
 10
542.67704938364432
 20
346.84112710723207
 30
0.0
 11
544.7166415060035
 21
348.80073522479347
 31
0.0
  0
LINE
  5
168
100
AcDbEntity
  8
0
  6
Continuous
 62
               4
100
AcDbLine
 10
541.03628887837954
 20
364.82309984449489
 30
0.0
 11
544.98931033159852
 21
362.4341765046363
 31
0.0
  0
LINE
  5
169
100
AcDbEntity
  8
0
  6
Continuous
 62
               4
100
AcDbLine
 10
540.99434539329081
 20
362.72592559004738
 30
0.0
 11
544.94736684650979
 21
360.33700225018833
 31
0.0
  0
LINE
  5
16A
100
AcDbEntity
  8
0
  6
Continuous
 62
               4
100
AcDbLine
 10
540.95240190820209
 20
360.62875133559987
 30
0.0
 11
544.9054233614213
 21
358.23982799574082
 31
0.0
  0
LINE
  5
16B
100
AcDbEntity
  8
0
  6
Continuous
 62
               4
100
AcDbLine
 10
540.91045842311337
 20
358.53157708115236
 30
0.0
 11
544.86347987633258
 21
356.14265374129332
 31
0.0
  0
LINE
  5
16C
100
AcDbEntity
  8
0
  6
Continuous
 62
               4
100
AcDbLine
 10
540.86851493802465
 20
356.43440282670485
 30
0.0
 11
544.82153639124385
 21
354.04547948684581
 31
0.0
  0
LINE
  5
16D
100
AcDbEntity
  8
0
  6
Continuous
 62
               4
100
AcDbLine
 10
540.82657145293615
 20
354.33722857225689
 30
0.0
 11
544.77959290615513
 21
351.9483052323983
 31
0.0
  0
LINE
  5
16E
100
AcDbEntity
  8
0
  6
Continuous
 62
               4
100
AcDbLine
 10
540.78462796784743
 20
352.24005431780938
 30
0.0
 11
544.73764942106664
 21
349.85113097795033
 31
0.0
  0
LINE
  5
16F
100
AcDbEntity
  8
0
  6
Continuous
 62
               4
100
AcDbLine
 10
540.7426844827587
 20
350.14288006336187
 30
0.0
 11
544.03973790876717
 21
348.15037686666415
 31
0.0
  0
LINE
  5
170
100
AcDbEntity
  8
0
  6
Continuous
 62
               4
100
AcDbLine
 10
547.16782852812821
 20
369.78333336568062
 30
0.0
 11
539.10718274780493
 21
369.94454628128619
 31
0.0
  0
LINE
  5
171
100
AcDbEntity
  8
0
  6
Continuous
 62
               4
100
AcDbLine
 10
539.10718274780493
 20
369.94454628128619
 30
0.0
 11
541.09729106260284
 21
367.87320905568072
 31
0.0
  0
LINE
  5
172
100
AcDbEntity
  8
0
  6
Continuous
 62
               4
100
AcDbLine
 10
547.16782852812821
 20
369.78333336568062
 30
0.0
 11
545.09649130252274
 21
367.79322505088317
 31
0.0
  0
LINE
  5
173
100
AcDbEntity
  8
0
  6
Continuous
 62
               4
100
AcDbLine
 10
545.09649130252274
 20
367.79322505088317
 30
0.0
 11
544.7166415060035
 21
348.80073522479347
 31
0.0
  0
LINE
  5
174
100
AcDbEntity
  8
0
  6
Continuous
 62
               4
100
AcDbLine
 10
541.09729106260284
 20
367.87320905568072
 30
0.0
 11
540.71744126608337
 21
348.88071922959102
 31
0.0
  0
LINE
  5
175
100
AcDbEntity
  8
0
  6
Continuous
 62
               4
100
AcDbLine
 10
328.56650944354033
 20
284.89117617203851
 30
0.0
 11
364.35935178152113
 21
284.17531932527913
 31
0.0
  0
LINE
  5
176
100
AcDbEntity
  8
0
  6
Continuous
 62
               2
100
AcDbLine
 10
603.95843196208102
 20
334.3943366219039
 30
0.0
 11
602.85865189610354
 21
279.40533332302562
 31
0.0
  0
LINE
  5
177
100
AcDbEntity
  8
0
  6
Continuous
 62
               6
100
AcDbLine
 10
369.45833199207095
 20
209.05834122076863
 30
0.0
 11
545.45843196208102
 21
205.53833922136823
 31
0.0
  0
LINE
  5
178
100
AcDbEntity
  8
0
  6
Continuous
 62
               6
100
AcDbLine
 10
369.75827201006496
 20
224.05534212046746
 30
0.0
 11
545.45843196208102
 21
220.54133892142795
 31
0.0
  0
LINE
  5
179
100
AcDbEntity
  8
0
  6
Continuous
 62
               6
100
AcDbLine
 10
370.6580920640472
 20
269.0463448195685
 30
0.0
 11
545.45843196208102
 21
265.55033802160801
 31
0.0
  0
LINE
  5
17A
100
AcDbEntity
  8
0
  6
Continuous
 62
               6
100
AcDbLine
 10
369.45833199207095
 20
209.05834122076863
 30
0.0
 11
370.9580320820412
 21
284.04334571926915
 31
0.0
  0
LINE
  5
17B
100
AcDbEntity
  8
0
  6
DOT
 62
               6
100
AcDbLine
 10
369.50432279482993
 20
211.35788135872258
 30
0.0
 11
545.45843196208102
 21
207.83879917537729
 31
0.0
  0
LINE
  5
17C
100
AcDbEntity
  8
0
  6
Continuous
 62
               4
100
AcDbLine
 10
592.45843196208102
 20
204.61333772166768
 30
0.0
 11
547.45843196208102
 21
204.61333772166768
 31
0.0
  0
LINE
  5
17D
100
AcDbEntity
  8
0
  6
Continuous
 62
               4
100
AcDbLine
 10
547.45843196208125
 20
209.21333762630024
 30
0.0
 11
547.45843196208125
 21
219.61333772166768
 31
0.0
  0
LINE
  5
17E
100
AcDbEntity
  8
0
  6
Continuous
 62
               4
100
AcDbLine
 10
547.45843196208125
 20
219.61333772166768
 30
0.0
 11
549.75843191439753
 21
219.61333772166768
 31
0.0
  0
LINE
  5
17F
100
AcDbEntity
  8
0
  6
Continuous
 62
               4
100
AcDbLine
 10
549.75843191439753
 20
219.61333772166768
 30
0.0
 11
549.75843191439753
 21
209.21333762630024
 31
0.0
  0
LINE
  5
180
100
AcDbEntity
  8
0
  6
Continuous
 62
               4
100
AcDbLine
 10
552.05843186671382
 20
206.91333767398396
 30
0.0
 11
587.85843205744868
 21
206.91333767398396
 31
0.0
  0
LINE
  5
181
100
AcDbEntity
  8
0
  6
Continuous
 62
               4
100
AcDbLine
 10
590.15843200976497
 20
209.21333762630024
 30
0.0
 11
590.15843200976497
 21
275.01333781703511
 31
0.0
  0
LINE
  5
182
100
AcDbEntity
  8
0
  6
Continuous
 62
               4
100
AcDbLine
 10
587.85843205744868
 20
277.31333776935139
 30
0.0
 11
552.05843186671382
 21
277.31333776935139
 31
0.0
  0
LINE
  5
183
100
AcDbEntity
  8
0
  6
Continuous
 62
               4
100
AcDbLine
 10
549.75843191439753
 20
275.01333781703511
 30
0.0
 11
549.75843191439753
 21
264.61333772166768
 31
0.0
  0
LINE
  5
184
100
AcDbEntity
  8
0
  6
Continuous
 62
               4
100
AcDbLine
 10
549.75843191439753
 20
264.61333772166768
 30
0.0
 11
547.45843196208125
 21
264.61333772166768
 31
0.0
  0
LINE
  5
185
100
AcDbEntity
  8
0
  6
Continuous
 62
               4
100
AcDbLine
 10
547.45843196208125
 20
264.61333772166768
 30
0.0
 11
547.45843196208125
 21
275.01333781703511
 31
0.0
  0
LINE
  5
186
100
AcDbEntity
  8
0
  6
Continuous
 62
               4
100
AcDbLine
 10
552.05843186671382
 20
279.61333772166768
 30
0.0
 11
587.85843205744868
 21
279.61333772166768
 31
0.0
  0
LINE
  5
187
100
AcDbEntity
  8
0
  6
Continuous
 62
               4
100
AcDbLine
 10
592.45843196208125
 20
275.01333781703511
 30
0.0
 11
592.45843196208125
 21
209.21333762630024
 31
0.0
  0
LINE
  5
188
100
AcDbEntity
  8
0
  6
Continuous
 62
               6
100
AcDbLine
 10
545.45843196208102
 20
280.51333772166777
 30
0.0
 11
545.45843196208102
 21
205.53833922136823
 31
0.0
  0
LINE
  5
189
100
AcDbEntity
  8
0
  6
DOT
 62
               6
100
AcDbLine
 10
370.91204127928199
 20
281.7438055813152
 30
0.0
 11
545.45843196208102
 21
278.25287776765867
 31
0.0
  0
LINE
  5
18A
100
AcDbEntity
  8
0
  6
Continuous
 62
               3
100
AcDbLine
 10
604.45843196208102
 20
277.40533332298742
 30
0.0
 11
592.45843196208102
 21
277.40533332298742
 31
0.0
  0
LINE
  5
18B
100
AcDbEntity
  8
0
  6
Continuous
 62
               2
100
AcDbLine
 10
391.79398767341729
 20
293.62862640748062
 30
0.0
 11
603.05861190809878
 21
289.40333392278603
 31
0.0
  0
LINE
  5
18C
100
AcDbEntity
  8
0
  6
Continuous
 62
               2
100
AcDbLine
 10
400.18733123625668
 20
328.4677588363636
 30
0.0
 11
603.75847195008464
 21
324.39633602208664
 31
0.0
  0
LINE
  5
18D
100
AcDbEntity
  8
0
  6
DOT
 62
               4
100
AcDbLine
 10
603.36854992669259
 20
304.90023485247798
 30
0.0
 11
394.76007547641348
 21
309.07240434148366
 31
0.0
  0
LINE
  5
18E
100
AcDbEntity
  8
0
  6
Continuous
 62
               3
100
AcDbLine
 10
604.45843196208125
 20
101.31780494381587
 30
0.0
 11
604.45843196208102
 21
277.40533332298742
 31
0.0
  0
LINE
  5
18F
100
AcDbEntity
  8
0
  6
Continuous
 62
               3
100
AcDbLine
 10
592.45843196208125
 20
101.31780494381587
 30
0.0
 11
592.45843196208102
 21
277.40533332298742
 31
0.0
  0
LINE
  5
190
100
AcDbEntity
  8
0
  6
Continuous
 62
               6
100
AcDbLine
 10
547.45843196208102
 20
101.3178049438161
 30
0.0
 11
547.45843196208102
 21
204.61333772166768
 31
0.0
  0
LINE
  5
191
100
AcDbEntity
  8
0
  6
DOT
 62
               6
100
AcDbLine
 10
549.7584319620812
 20
101.3178049438161
 30
0.0
 11
549.7584319620812
 21
204.61333772166768
 31
0.0
  0
LINE
  5
192
100
AcDbEntity
  8
0
  6
DOT
 62
               6
100
AcDbLine
 10
590.15843196208129
 20
101.3178049438161
 30
0.0
 11
590.15843196208107
 21
204.61333772166768
 31
0.0
  0
LINE
  5
193
100
AcDbEntity
  8
0
  6
Continuous
 62
               3
100
AcDbLine
 10
277.03207852325636
 20
341.93306367068203
 30
0.0
 11
603.35855192609233
 21
335.40653420262493
 31
0.0
  0
LINE
  5
194
100
AcDbEntity
  8
0
  6
Continuous
 62
               2
100
AcDbLine
 10
277.01208252205652
 20
340.93326361068853
 30
0.0
 11
603.95843196208079
 21
334.39433662188799
 31
0.0
  0
LINE
  5
195
100
AcDbEntity
  8
0
  6
Continuous
 62
               3
100
AcDbLine
 10
276.42220048666832
 20
311.43916184127897
 30
0.0
 11
394.76007547641348
 21
309.07240434148366
 31
0.0
  0
LINE
  5
196
100
AcDbEntity
  8
0
  6
Continuous
 62
               2
100
AcDbLine
 10
275.91230245607846
 20
285.94426031178864
 30
0.0
 11
602.85865189610263
 21
279.40533332298742
 31
0.0
  0
LINE
  5
197
100
AcDbEntity
  8
0
  6
Continuous
 62
               3
100
AcDbLine
 10
277.33201854125059
 20
356.93006457038882
 30
0.0
 11
603.65849194408679
 21
350.40353510233149
 31
0.0
  0
LINE
  5
198
100
AcDbEntity
  8
0
  6
Continuous
 62
               3
100
AcDbLine
 10
277.63195855924448
 20
371.92706547008856
 30
0.0
 11
603.95843196208079
 21
365.40053600203169
 31
0.0
  0
LINE
  5
199
100
AcDbEntity
  8
0
  6
Continuous
 62
               2
100
AcDbLine
 10
277.72194056464252
 20
376.42616573999203
 30
0.0
 11
636.01242176507913
 21
369.26035611598286
 31
0.0
  0
LINE
  5
19A
100
AcDbEntity
  8
0
  6
Continuous
 62
               2
100
AcDbLine
 10
278.82172063062046
 20
431.41516903888373
 30
0.0
 11
637.11220183105706
 21
424.24935941487433
 31
0.0
  0
LINE
  5
19B
100
AcDbEntity
  8
0
  6
Continuous
 62
               2
100
AcDbLine
 10
278.52178061262646
 20
416.41816813918308
 30
0.0
 11
636.81226181306306
 21
409.25235851517368
 31
0.0
  0
LINE
  5
19C
100
AcDbEntity
  8
0
  6
Continuous
 62
               2
100
AcDbLine
 10
277.92190057663856
 20
386.42416633979246
 30
0.0
 11
636.21238177707505
 21
379.25835671578329
 31
0.0
  0
LINE
  5
19D
100
AcDbEntity
  8
0
  6
DASHED
 62
               6
100
AcDbLine
 10
277.6519545604441
 20
372.92686553006865
 30
0.0
 11
603.97842796328041
 21
366.40033606201177
 31
0.0
  0
LINE
  5
19E
100
AcDbEntity
  8
0
  6
Continuous
 62
               2
100
AcDbLine
 10
605.95843196208102
 20
367.36093596203978
 30
0.0
 11
605.95843196208102
 21
101.3178049438161
 31
0.0
  0
LINE
  5
19F
100
AcDbEntity
  8
0
  6
Continuous
 62
               4
100
AcDbLine
 10
506.00841996587883
 20
370.36013618196807
 30
0.0
 11
635.98242776327879
 21
367.76065602601966
 31
0.0
  0
LINE
  5
1A0
100
AcDbEntity
  8
0
  6
Continuous
 62
               4
100
AcDbLine
 10
505.97842596408037
 20
369.36053608199995
 30
0.0
 11
605.95843196208102
 21
367.36093596203978
 31
0.0
  0
LINE
  5
1A1
100
AcDbEntity
  8
0
  6
Continuous
 62
               4
100
AcDbLine
 10
581.86451793225615
 20
321.6844886571356
 30
0.0
 11
579.9049098146952
 21
323.72408077949456
 31
0.0
  0
LINE
  5
1A2
100
AcDbEntity
  8
0
  6
Continuous
 62
               4
100
AcDbLine
 10
581.86451793225615
 20
321.6844886571356
 30
0.0
 11
583.9041100546151
 21
323.644096774697
 31
0.0
  0
LINE
  5
1A3
100
AcDbEntity
  8
0
  6
Continuous
 62
               4
100
AcDbLine
 10
580.22375742699114
 20
339.66646139439899
 30
0.0
 11
584.17677888021012
 21
337.27753805453995
 31
0.0
  0
LINE
  5
1A4
100
AcDbEntity
  8
0
  6
Continuous
 62
               4
100
AcDbLine
 10
580.18181394190242
 20
337.56928713995148
 30
0.0
 11
584.13483539512163
 21
335.18036380009244
 31
0.0
  0
LINE
  5
1A5
100
AcDbEntity
  8
0
  6
Continuous
 62
               4
100
AcDbLine
 10
580.1398704568137
 20
335.47211288550352
 30
0.0
 11
584.0928919100329
 21
333.08318954564493
 31
0.0
  0
LINE
  5
1A6
100
AcDbEntity
  8
0
  6
Continuous
 62
               4
100
AcDbLine
 10
580.0979269717252
 20
333.37493863105601
 30
0.0
 11
584.05094842494418
 21
330.98601529119742
 31
0.0
  0
LINE
  5
1A7
100
AcDbEntity
  8
0
  6
Continuous
 62
               4
100
AcDbLine
 10
580.05598348663648
 20
331.2777643766085
 30
0.0
 11
584.00900493985546
 21
328.88884103674934
 31
0.0
  0
LINE
  5
1A8
100
AcDbEntity
  8
0
  6
Continuous
 62
               4
100
AcDbLine
 10
580.01404000154776
 20
329.18059012216088
 30
0.0
 11
583.96706145476696
 21
326.79166678230183
 31
0.0
  0
LINE
  5
1A9
100
AcDbEntity
  8
0
  6
Continuous
 62
               4
100
AcDbLine
 10
579.97209651645903
 20
327.08341586771337
 30
0.0
 11
583.92511796967824
 21
324.69449252785432
 31
0.0
  0
LINE
  5
1AA
100
AcDbEntity
  8
0
  6
Continuous
 62
               4
100
AcDbLine
 10
579.93015303137031
 20
324.98624161326541
 30
0.0
 11
583.227206457379
 21
322.99373841656768
 31
0.0
  0
LINE
  5
1AB
100
AcDbEntity
  8
0
  6
Continuous
 62
               4
100
AcDbLine
 10
586.79466087639389
 20
366.59488489843352
 30
0.0
 11
578.73401509607061
 21
366.75609781403909
 31
0.0
  0
LINE
  5
1AC
100
AcDbEntity
  8
0
  6
Continuous
 62
               4
100
AcDbLine
 10
578.73401509607061
 20
366.75609781403909
 30
0.0
 11
580.72412341086851
 21
364.68476058843362
 31
0.0
  0
LINE
  5
1AD
100
AcDbEntity
  8
0
  6
Continuous
 62
               4
100
AcDbLine
 10
586.79466087639389
 20
366.59488489843352
 30
0.0
 11
584.72332365078842
 21
364.60477658363561
 31
0.0
  0
LINE
  5
1AE
100
AcDbEntity
  8
0
  6
Continuous
 62
               4
100
AcDbLine
 10
584.72332365078842
 20
364.60477658363561
 30
0.0
 11
583.9041100546151
 21
323.644096774697
 31
0.0
  0
LINE
  5
1AF
100
AcDbEntity
  8
0
  6
Continuous
 62
               4
100
AcDbLine
 10
580.72412341086851
 20
364.68476058843362
 30
0.0
 11
579.9049098146952
 21
323.72408077949456
 31
0.0
  0
LINE
  5
1B0
100
AcDbEntity
  8
0
  6
Continuous
 62
               4
100
AcDbLine
 10
580.26570091207986
 20
341.7636356488465
 30
0.0
 11
584.21872236529885
 21
339.37471230898745
 31
0.0
  0
LINE
  5
1B1
100
AcDbEntity
  8
0
  6
Continuous
 62
               4
100
AcDbLine
 10
580.30764439716836
 20
343.86080990329401
 30
0.0
 11
584.26066585038757
 21
341.47188656343496
 31
0.0
  0
LINE
  5
1B2
100
AcDbEntity
  8
0
  6
Continuous
 62
               4
100
AcDbLine
 10
580.34958788225708
 20
345.95798415774152
 30
0.0
 11
584.30260933547629
 21
343.56906081788247
 31
0.0
  0
LINE
  5
1B3
100
AcDbEntity
  8
0
  6
Continuous
 62
               4
100
AcDbLine
 10
580.39153136734581
 20
348.05515841218903
 30
0.0
 11
584.34455282056479
 21
345.66623507232998
 31
0.0
  0
LINE
  5
1B4
100
AcDbEntity
  8
0
  6
Continuous
 62
               4
100
AcDbLine
 10
580.43347485243453
 20
350.15233266663654
 30
0.0
 11
584.38649630565351
 21
347.76340932677749
 31
0.0
  0
LINE
  5
1B5
100
AcDbEntity
  8
0
  6
Continuous
 62
               4
100
AcDbLine
 10
580.47541833752302
 20
352.24950692108405
 30
0.0
 11
584.42843979074223
 21
349.860583581225
 31
0.0
  0
LINE
  5
1B6
100
AcDbEntity
  8
0
  6
Continuous
 62
               4
100
AcDbLine
 10
580.51736182261175
 20
354.34668117553156
 30
0.0
 11
584.47038327583095
 21
351.95775783567251
 31
0.0
  0
LINE
  5
1B7
100
AcDbEntity
  8
0
  6
Continuous
 62
               4
100
AcDbLine
 10
580.55930530770047
 20
356.44385542997907
 30
0.0
 11
584.51232676091945
 21
354.05493209012047
 31
0.0
  0
LINE
  5
1B8
100
AcDbEntity
  8
0
  6
Continuous
 62
               4
100
AcDbLine
 10
580.60124879278919
 20
358.54102968442658
 30
0.0
 11
584.55427024600817
 21
356.15210634456798
 31
0.0
  0
LINE
  5
1B9
100
AcDbEntity
  8
0
  6
Continuous
 62
               4
100
AcDbLine
 10
580.64319227787769
 20
360.63820393887408
 30
0.0
 11
584.5962137310969
 21
358.24928059901549
 31
0.0
  0
LINE
  5
1BA
100
AcDbEntity
  8
0
  6
Continuous
 62
               4
100
AcDbLine
 10
580.68513576296641
 20
362.73537819332159
 30
0.0
 11
584.63815721618562
 21
360.346454853463
 31
0.0
  0
LINE
  5
1BB
100
AcDbEntity
  8
0
  6
Continuous
 62
               4
100
AcDbLine
 10
615.9664305624774
 20
367.16077599003188
 30
0.0
 11
635.96243176207929
 21
366.76085596604003
 31
0.0
  0
LINE
  5
1BC
100
AcDbEntity
  8
0
  6
Continuous
 62
               2
100
AcDbLine
 10
617.94382622185083
 20
365.98478489739796
 30
0.0
 11
635.94243576087968
 21
365.76105590606016
 31
0.0
  0
LINE
  5
1BD
100
AcDbEntity
  8
0
  6
Continuous
 62
               4
100
AcDbLine
 10
614.96663050249674
 20
317.17077299103141
 30
0.0
 11
615.9664305624774
 21
367.16077599003188
 31
0.0
  0
LINE
  5
1BE
100
AcDbEntity
  8
0
  6
Continuous
 62
               4
100
AcDbLine
 10
613.46693041252604
 20
317.20076699282674
 30
0.0
 11
610.23531376213634
 21
326.66420473103801
 31
0.0
  0
LINE
  5
1BF
100
AcDbEntity
  8
0
  6
Continuous
 62
               4
100
AcDbLine
 10
340.9620593907386
 20
324.90131436825607
 30
0.0
 11
293.04183771475971
 21
241.90105571549719
 31
0.0
  0
LINE
  5
1C0
100
AcDbEntity
  8
0
  6
Continuous
 62
               4
100
AcDbLine
 10
345.14772208047964
 20
348.07225064957061
 30
0.0
 11
410.58180880031694
 21
461.40741339519695
 31
0.0
  0
LINE
  5
1C1
100
AcDbEntity
  8
0
  6
Continuous
 62
               4
100
AcDbLine
 10
714.78679656440374
 20
21.213203435595801
 30
0.0
 11
714.78679656440374
 21
41.213203435595801
 31
0.0
  0
LINE
  5
1C2
100
AcDbEntity
  8
0
  6
Continuous
 62
               4
100
AcDbLine
 10
864.78679656440374
 20
21.213203435595801
 30
0.0
 11
714.78679656440374
 21
21.213203435595801
 31
0.0
  0
LINE
  5
1C3
100
AcDbEntity
  8
0
  6
Continuous
 62
               4
100
AcDbLine
 10
864.78679656440374
 20
41.213203435595801
 30
0.0
 11
864.78679656440374
 21
21.213203435595801
 31
0.0
  0
LINE
  5
1C4
100
AcDbEntity
  8
0
  6
Continuous
 62
               4
100
AcDbLine
 10
864.78679656440374
 20
41.213203435595801
 30
0.0
 11
714.78679656440374
 21
41.213203435595801
 31
0.0
  0
LINE
  5
1C5
100
AcDbEntity
  8
0
  6
Continuous
 62
               4
100
AcDbLine
 10
14.142135623730949
 20
595.85786437626837
 30
0.0
 11
14.142135623730949
 21
615.85786437626837
 31
0.0
  0
LINE
  5
1C6
100
AcDbEntity
  8
0
  6
Continuous
 62
               4
100
AcDbLine
 10
164.14213562373095
 20
595.85786437626837
 30
0.0
 11
14.142135623730949
 21
595.85786437626837
 31
0.0
  0
LINE
  5
1C7
100
AcDbEntity
  8
0
  6
Continuous
 62
               4
100
AcDbLine
 10
164.14213562373095
 20
615.85786437626837
 30
0.0
 11
164.14213562373095
 21
595.85786437626837
 31
0.0
  0
LINE
  5
1C8
100
AcDbEntity
  8
0
  6
Continuous
 62
               4
100
AcDbLine
 10
164.14213562373095
 20
615.85786437626837
 30
0.0
 11
14.142135623730949
 21
615.85786437626837
 31
0.0
  0
CIRCLE
  5
1C9
100
AcDbEntity
  8
0
  6
Continuous
 62
               4
100
AcDbCircle
 10
662.95703338153965
 20
366.22096393365041
 30
0.0
 40
1.5
  0
CIRCLE
  5
1CA
100
AcDbEntity
  8
0
  6
Continuous
 62
               4
100
AcDbCircle
 10
661.95723332155899
 20
316.23096093464954
 30
0.0
 40
1.5
  0
CIRCLE
  5
1CB
100
AcDbEntity
  8
0
  6
Continuous
 62
               4
100
AcDbCircle
 10
637.65209386344657
 20
451.24396103435311
 30
0.0
 40
1.5
  0
CIRCLE
  5
1CC
100
AcDbEntity
  8
0
  6
Continuous
 62
               4
100
AcDbCircle
 10
607.64809406344739
 20
451.84404103035308
 30
0.0
 40
1.5
  0
CIRCLE
  5
1CD
100
AcDbEntity
  8
0
  6
Continuous
 62
               4
100
AcDbCircle
 10
607.64809406344739
 20
451.84404103035308
 30
0.0
 40
1.5
  0
CIRCLE
  5
1CE
100
AcDbEntity
  8
0
  6
Continuous
 62
               4
100
AcDbCircle
 10
507.67808606604569
 20
453.84344119030152
 30
0.0
 40
1.5
  0
CIRCLE
  5
1CF
100
AcDbEntity
  8
0
  6
Continuous
 62
               4
100
AcDbCircle
 10
305.81632225008065
 20
430.87527700649457
 30
0.0
 40
1.5
  0
CIRCLE
  5
1D0
100
AcDbEntity
  8
0
  6
Continuous
 62
               4
100
AcDbCircle
 10
304.71654218410271
 20
375.88627370760287
 30
0.0
 40
1.5
  0
CIRCLE
  5
1D1
100
AcDbEntity
  8
0
  6
Continuous
 62
               4
100
AcDbCircle
 10
304.62656017870461
 20
371.3871734376994
 30
0.0
 40
1.5
  0
CIRCLE
  5
1D2
100
AcDbEntity
  8
0
  6
Continuous
 62
               4
100
AcDbCircle
 10
304.02668014271643
 20
341.39317163829287
 30
0.0
 40
1.5
  0
CIRCLE
  5
1D3
100
AcDbEntity
  8
0
  6
Continuous
 62
               4
100
AcDbCircle
 10
304.00668414151653
 20
340.39337157829937
 30
0.0
 40
1.5
  0
CIRCLE
  5
1D4
100
AcDbEntity
  8
0
  6
Continuous
 62
               4
100
AcDbCircle
 10
302.90690407553836
 20
285.40436827939931
 30
0.0
 40
1.5
  0
CIRCLE
  5
1D5
100
AcDbEntity
  8
0
  6
Continuous
 62
               6
100
AcDbCircle
 10
387.66755613167516
 20
331.25084943155593
 30
0.0
 40
1.0
  0
CIRCLE
  5
1D6
100
AcDbEntity
  8
0
  6
Continuous
 62
               6
100
AcDbCircle
 10
390.10865202208606
 20
316.6042740890905
 30
0.0
 40
1.0
  0
CIRCLE
  5
1D7
100
AcDbEntity
  8
0
  6
Continuous
 62
               6
100
AcDbCircle
 10
375.4620766796204
 20
315.38372614388504
 30
0.0
 40
1.0
  0
CIRCLE
  5
1D8
100
AcDbEntity
  8
0
  6
Continuous
 62
               6
100
AcDbCircle
 10
376.68262462482585
 20
330.03030148635048
 30
0.0
 40
1.0
  0
CIRCLE
  5
1D9
100
AcDbEntity
  8
0
  6
Continuous
 62
               6
100
AcDbCircle
 10
385.22646024126425
 20
303.17824669183005
 30
0.0
 40
1.0
  0
CIRCLE
  5
1DA
100
AcDbEntity
  8
0
  6
Continuous
 62
               6
100
AcDbCircle
 10
387.66755613167516
 20
288.53167134936416
 30
0.0
 40
1.0
  0
CIRCLE
  5
1DB
100
AcDbEntity
  8
0
  6
Continuous
 62
               6
100
AcDbCircle
 10
371.80043284400381
 20
300.73715080141915
 30
0.0
 40
1.0
  0
CIRCLE
  5
1DC
100
AcDbEntity
  8
0
  6
Continuous
 62
               6
100
AcDbCircle
 10
361.05274394699563
 20
331.7831456752499
 30
0.0
 40
1.0
  0
CIRCLE
  5
1DD
100
AcDbEntity
  8
0
  6
Continuous
 62
               6
100
AcDbCircle
 10
363.49383983740654
 20
317.136570332784
 30
0.0
 40
1.0
  0
CIRCLE
  5
1DE
100
AcDbEntity
  8
0
  6
Continuous
 62
               6
100
AcDbCircle
 10
348.84726449494065
 20
315.91602238757855
 30
0.0
 40
1.0
  0
CIRCLE
  5
1DF
100
AcDbEntity
  8
0
  6
Continuous
 62
               6
100
AcDbCircle
 10
350.06781244014633
 20
330.56259773004444
 30
0.0
 40
1.0
  0
CIRCLE
  5
1E0
100
AcDbEntity
  8
0
  6
Continuous
 62
               6
100
AcDbCircle
 10
358.6116480565845
 20
303.71054293552356
 30
0.0
 40
1.0
  0
CIRCLE
  5
1E1
100
AcDbEntity
  8
0
  6
Continuous
 62
               6
100
AcDbCircle
 10
361.05274394699563
 20
289.06396759305812
 30
0.0
 40
1.0
  0
CIRCLE
  5
1E2
100
AcDbEntity
  8
0
  6
Continuous
 62
               6
100
AcDbCircle
 10
345.18562065932429
 20
301.26944704511266
 30
0.0
 40
1.0
  0
CIRCLE
  5
1E3
100
AcDbEntity
  8
0
  6
Continuous
 62
               6
100
AcDbCircle
 10
351.28836038535178
 20
287.84341964785267
 30
0.0
 40
1.0
  0
CIRCLE
  5
1E4
100
AcDbEntity
  8
0
  6
Continuous
 62
               6
100
AcDbCircle
 10
334.43793176231588
 20
332.31544191894341
 30
0.0
 40
1.0
  0
CIRCLE
  5
1E5
100
AcDbEntity
  8
0
  6
Continuous
 62
               6
100
AcDbCircle
 10
336.87902765272702
 20
317.66886657647751
 30
0.0
 40
1.0
  0
CIRCLE
  5
1E6
100
AcDbEntity
  8
0
  6
Continuous
 62
               6
100
AcDbCircle
 10
322.23245231026112
 20
316.44831863127206
 30
0.0
 40
1.0
  0
CIRCLE
  5
1E7
100
AcDbEntity
  8
0
  6
Continuous
 62
               6
100
AcDbCircle
 10
323.45300025546658
 20
331.09489397373795
 30
0.0
 40
1.0
  0
CIRCLE
  5
1E8
100
AcDbEntity
  8
0
  6
Continuous
 62
               6
100
AcDbCircle
 10
331.99683587190498
 20
304.24283917921753
 30
0.0
 40
1.0
  0
CIRCLE
  5
1E9
100
AcDbEntity
  8
0
  6
Continuous
 62
               6
100
AcDbCircle
 10
334.43793176231588
 20
289.59626383675163
 30
0.0
 40
1.0
  0
CIRCLE
  5
1EA
100
AcDbEntity
  8
0
  6
Continuous
 62
               6
100
AcDbCircle
 10
318.57080847464476
 20
301.80174328880662
 30
0.0
 40
1.0
  0
CIRCLE
  5
1EB
100
AcDbEntity
  8
0
  6
Continuous
 62
               6
100
AcDbCircle
 10
324.67354820067203
 20
288.37571589154618
 30
0.0
 40
1.0
  0
CIRCLE
  5
1EC
100
AcDbEntity
  8
0
  6
Continuous
 62
               6
100
AcDbCircle
 10
307.82311957763636
 20
332.84773816263692
 30
0.0
 40
1.0
  0
CIRCLE
  5
1ED
100
AcDbEntity
  8
0
  6
Continuous
 62
               6
100
AcDbCircle
 10
310.26421546804727
 20
318.20116282017148
 30
0.0
 40
1.0
  0
CIRCLE
  5
1EE
100
AcDbEntity
  8
0
  6
Continuous
 62
               6
100
AcDbCircle
 10
295.6176401255816
 20
316.98061487496602
 30
0.0
 40
1.0
  0
CIRCLE
  5
1EF
100
AcDbEntity
  8
0
  6
Continuous
 62
               6
100
AcDbCircle
 10
296.83818807078706
 20
331.62719021743146
 30
0.0
 40
1.0
  0
CIRCLE
  5
1F0
100
AcDbEntity
  8
0
  6
Continuous
 62
               6
100
AcDbCircle
 10
305.38202368722546
 20
304.77513542291103
 30
0.0
 40
1.0
  0
CIRCLE
  5
1F1
100
AcDbEntity
  8
0
  6
Continuous
 62
               6
100
AcDbCircle
 10
307.82311957763636
 20
290.12856008044514
 30
0.0
 40
1.0
  0
CIRCLE
  5
1F2
100
AcDbEntity
  8
0
  6
Continuous
 62
               6
100
AcDbCircle
 10
291.95599628996524
 20
302.33403953250013
 30
0.0
 40
1.0
  0
CIRCLE
  5
1F3
100
AcDbEntity
  8
0
  6
Continuous
 62
               6
100
AcDbCircle
 10
298.05873601599251
 20
288.90801213523969
 30
0.0
 40
1.0
  0
CIRCLE
  5
1F4
100
AcDbEntity
  8
0
  6
Continuous
 62
               6
100
AcDbCircle
 10
281.20830739295684
 20
333.38003440633088
 30
0.0
 40
1.0
  0
CIRCLE
  5
1F5
100
AcDbEntity
  8
0
  6
Continuous
 62
               6
100
AcDbCircle
 10
283.64940328336775
 20
318.73345906386498
 30
0.0
 40
1.0
  0
CIRCLE
  5
1F6
100
AcDbEntity
  8
0
  6
Continuous
 62
               6
100
AcDbCircle
 10
278.76721150254593
 20
305.30743166660454
 30
0.0
 40
1.0
  0
CIRCLE
  5
1F7
100
AcDbEntity
  8
0
  6
Continuous
 62
               6
100
AcDbCircle
 10
281.20830739295684
 20
290.6608563241391
 30
0.0
 40
1.0
  0
CIRCLE
  5
1F8
100
AcDbEntity
  8
0
  6
Continuous
 62
               4
100
AcDbCircle
 10
325.26302867126077
 20
297.70979553253579
 30
0.0
 40
1.5
  0
CIRCLE
  5
1F9
100
AcDbEntity
  8
0
  6
Continuous
 62
               4
100
AcDbCircle
 10
340.96205939073866
 20
324.90131436825607
 30
0.0
 40
1.5
  0
CIRCLE
  5
1FA
100
AcDbEntity
  8
0
  6
Continuous
 62
               4
100
AcDbCircle
 10
345.14772208047941
 20
348.07225064957083
 30
0.0
 40
1.5
  0
CIRCLE
  5
1FB
100
AcDbEntity
  8
0
  6
Continuous
 62
               4
100
AcDbCircle
 10
353.71082974565104
 20
362.9039881963306
 30
0.0
 40
1.5
  0
ARC
  5
1FC
100
AcDbEntity
  8
0
  6
Continuous
 62
               4
100
AcDbCircle
 10
364.26737017790992
 20
279.57623914471947
 30
0.0
 40
2.2999999523162842
100
AcDbArc
 50
358.8542371618247
 51
88.854237161824898
  0
ARC
  5
1FD
100
AcDbEntity
  8
0
  6
Continuous
 62
               4
100
AcDbCircle
 10
364.26737017790992
 20
279.57623914471947
 30
0.0
 40
4.5999999046325684
100
AcDbArc
 50
358.8542371618247
 51
88.854237161824898
  0
ARC
  5
1FE
100
AcDbEntity
  8
0
  6
Continuous
 62
               4
100
AcDbCircle
 10
328.47452783992912
 20
280.29209599147885
 30
0.0
 40
2.2999999523162842
100
AcDbArc
 50
88.854237161824898
 51
178.85423716182476
  0
ARC
  5
1FF
100
AcDbEntity
  8
0
  6
Continuous
 62
               4
100
AcDbCircle
 10
328.47452783992912
 20
280.29209599147885
 30
0.0
 40
4.5999999046325684
100
AcDbArc
 50
88.854237161824898
 51
178.85423716182476
  0
ARC
  5
200
100
AcDbEntity
  8
0
  6
Continuous
 62
               4
100
AcDbCircle
 10
327.15879095718128
 20
214.50525185409765
 30
0.0
 40
4.5999999046325684
100
AcDbArc
 50
178.85423716182476
 51
268.8542371618247
  0
ARC
  5
201
100
AcDbEntity
  8
0
  6
Continuous
 62
               4
100
AcDbCircle
 10
327.15879095718128
 20
214.50525185409765
 30
0.0
 40
2.2999999523162842
100
AcDbArc
 50
178.85423716182476
 51
268.8542371618247
  0
ARC
  5
202
100
AcDbEntity
  8
0
  6
Continuous
 62
               4
100
AcDbCircle
 10
362.95163329516208
 20
213.78939500733827
 30
0.0
 40
2.2999999523162842
100
AcDbArc
 50
268.8542371618247
 51
358.8542371618247
  0
ARC
  5
203
100
AcDbEntity
  8
0
  6
Continuous
 62
               4
100
AcDbCircle
 10
362.95163329516208
 20
213.78939500733827
 30
0.0
 40
4.5999999046325684
100
AcDbArc
 50
268.8542371618247
 51
358.8542371618247
  0
ARC
  5
204
100
AcDbEntity
  8
0
  6
Continuous
 62
               4
100
AcDbCircle
 10
587.85843205744868
 20
209.21333762630024
 30
0.0
 40
2.2999999523162842
100
AcDbArc
 50
269.99999999999994
 51
0.0
  0
ARC
  5
205
100
AcDbEntity
  8
0
  6
Continuous
 62
               4
100
AcDbCircle
 10
587.85843205744868
 20
209.21333762630024
 30
0.0
 40
4.5999999046325684
100
AcDbArc
 50
269.99999999999994
 51
0.0
  0
ARC
  5
206
100
AcDbEntity
  8
0
  6
Continuous
 62
               4
100
AcDbCircle
 10
552.05843186671382
 20
209.21333762630024
 30
0.0
 40
2.2999999523162842
100
AcDbArc
 50
180.0
 51
269.99999999999994
  0
ARC
  5
207
100
AcDbEntity
  8
0
  6
Continuous
 62
               4
100
AcDbCircle
 10
552.05843186671382
 20
209.21333762630024
 30
0.0
 40
4.5999999046325684
100
AcDbArc
 50
180.0
 51
269.99999999999994
  0
ARC
  5
208
100
AcDbEntity
  8
0
  6
Continuous
 62
               4
100
AcDbCircle
 10
552.05843186671382
 20
275.01333781703511
 30
0.0
 40
4.5999999046325684
100
AcDbArc
 50
90.000000000000028
 51
180.0
  0
ARC
  5
209
100
AcDbEntity
  8
0
  6
Continuous
 62
               4
100
AcDbCircle
 10
552.05843186671382
 20
275.01333781703511
 30
0.0
 40
2.2999999523162842
100
AcDbArc
 50
90.000000000000028
 51
180.0
  0
ARC
  5
20A
100
AcDbEntity
  8
0
  6
Continuous
 62
               4
100
AcDbCircle
 10
587.85843205744868
 20
275.01333781703511
 30
0.0
 40
2.2999999523162842
100
AcDbArc
 50
0.0
 51
90.000000000000028
  0
ARC
  5
20B
100
AcDbEntity
  8
0
  6
Continuous
 62
               4
100
AcDbCircle
 10
587.85843205744868
 20
275.01333781703511
 30
0.0
 40
4.5999999046325684
100
AcDbArc
 50
0.0
 51
90.000000000000028
  0
ARC
  5
20C
100
AcDbEntity
  8
0
  6
Continuous
 62
               2
100
AcDbCircle
 10
416.5297716054697
 20
296.88466065385524
 30
0.0
 40
24.949163628201667
100
AcDbArc
 50
145.41030691215667
 51
212.29816741149298
  0
ARC
  5
20D
100
AcDbEntity
  8
0
  6
Continuous
 62
               2
100
AcDbCircle
 10
375.45154730420268
 20
325.21172458999058
 30
0.0
 40
24.949163628201667
100
AcDbArc
 50
325.41030691215667
 51
32.298167411492969
  0
ARC
  5
20E
100
AcDbEntity
  8
0
  6
Continuous
 62
               4
100
AcDbCircle
 10
635.9724297626791
 20
367.26075599602996
 30
0.0
 40
0.499999999999843
100
AcDbArc
 50
268.85423716182038
 51
88.854237161829985
  0
ARC
  5
20F
100
AcDbEntity
  8
0
  6
Continuous
 62
               2
100
AcDbCircle
 10
635.9774287629798
 20
367.51070601102151
 30
0.0
 40
1.749999999996334
100
AcDbArc
 50
268.85423716179747
 51
88.85423716181981
  0
ARC
  5
210
100
AcDbEntity
  8
0
  6
Continuous
 62
               4
100
AcDbCircle
 10
614.21678045751162
 20
317.18576999192931
 30
0.0
 40
0.7500000000000731
100
AcDbArc
 50
178.85423716199784
 51
358.85423716196311
  0
TEXT
  5
211
100
AcDbEntity
  8
0
 62
               7
100
AcDbText
 10
662.33715734435157
 20
335.22716207426998
 30
0.0
 40
11.999999999999977
  1
50
 50
88.854237161824031
 41
0.7695
  7
FontTableH_0
 72
               5
 11
662.57710935874695
 21
347.22476279403003
 31
0.0
100
AcDbText
  0
TEXT
  5
212
100
AcDbEntity
  8
0
 62
               7
100
AcDbText
 10
616.65129360356696
 20
451.66397703955073
 30
0.0
 40
12.000000000000314
  1
30
 50
358.85423716182567
 41
0.7695
  7
FontTableH_0
 72
               5
 11
628.648894323327
 21
451.42402502515569
 31
0.0
100
AcDbText
  0
TEXT
  5
213
100
AcDbEntity
  8
0
 62
               7
100
AcDbText
 10
548.66488952492648
 20
453.02370512112367
 30
0.0
 40
11.99999999999997
  1
100
 50
358.8542371618251
 41
0.7695
  7
FontTableH_0
 72
               5
 11
566.66129060456672
 21
452.66377709953093
 31
0.0
100
AcDbText
  0
TEXT
  5
214
100
AcDbEntity
  8
0
 62
               7
100
AcDbText
 10
305.14645620989404
 20
397.38197499716858
 30
0.0
 40
11.999999999999973
  1
55
 50
88.854237161824827
 41
0.7695
  7
FontTableH_0
 72
               5
 11
305.38640822428926
 21
409.37957571692863
 31
0.0
100
AcDbText
  0
TEXT
  5
215
100
AcDbEntity
  8
0
 62
               7
100
AcDbText
 10
304.20664415351285
 20
350.391372178116
 30
0.0
 40
11.999999999999973
  1
30
 50
88.854237161824827
 41
0.7695
  7
FontTableH_0
 72
               5
 11
304.44659616790807
 21
362.38897289787604
 31
0.0
100
AcDbText
  0
TEXT
  5
216
100
AcDbEntity
  8
0
 62
               7
100
AcDbText
 10
303.33681810132981
 20
306.90006956896923
 30
0.0
 40
11.999999999999973
  1
55
 50
88.854237161824827
 41
0.7695
  7
FontTableH_0
 72
               5
 11
303.57677011572503
 21
318.89767028872927
 31
0.0
100
AcDbText
  0
TEXT
  5
217
100
AcDbEntity
  8
0
 62
               7
100
AcDbText
 10
632.64049930079159
 20
248.44622877672361
 30
0.0
 40
12.000000000000012
  1
幕板
 41
0.7695
  7
FontTableH_0
 72
               5
 11
656.64049930079159
 21
248.44622877672361
 31
0.0
100
AcDbText
  0
TEXT
  5
218
100
AcDbEntity
  8
0
 62
               7
100
AcDbText
 10
626.04539019680715
 20
188.39845217960863
 30
0.0
 40
11.99999999999967
  1
下地材
 41
0.7695
  7
FontTableH_0
 72
               5
 11
662.04539019680715
 21
188.39845217960863
 31
0.0
100
AcDbText
  0
TEXT
  5
219
100
AcDbEntity
  8
0
 62
               7
100
AcDbText
 10
651.33671968916371
 20
283.64423138845962
 30
0.0
 40
12.000000000000012
  1
唐草
 41
0.7695
  7
FontTableH_0
 72
               5
 11
675.33671968916371
 21
283.64423138845962
 31
0.0
100
AcDbText
  0
TEXT
  5
21A
100
AcDbEntity
  8
0
 62
               7
100
AcDbText
 10
255.55147257207074
 20
241.90105571549719
 30
0.0
 40
12.000000000000098
  1
断熱材
 41
0.7695
  7
FontTableH_0
 72
               5
 11
291.55147257207079
 21
241.90105571549719
 31
0.0
100
AcDbText
  0
TEXT
  5
21B
100
AcDbEntity
  8
0
 62
               7
100
AcDbText
 10
414.28224183840274
 20
461.40741339519695
 30
0.0
 40
12.000000000000012
  1
遮音材
 41
0.7695
  7
FontTableH_0
 72
               5
 11
450.2822418384028
 21
461.40741339519695
 31
0.0
100
AcDbText
  0
TEXT
  5
21C
100
AcDbEntity
  8
0
 62
               7
100
AcDbText
 10
401.13924957659788
 20
489.98720681447207
 30
0.0
 40
12.000000000000012
  1
ルーフィング
 41
0.7695
  7
FontTableH_0
 72
               5
 11
473.13924957659793
 21
489.98720681447207
 31
0.0
100
AcDbText
  0
TEXT
  5
21D
100
AcDbEntity
  8
0
 62
               7
100
AcDbText
 10
394.22868210708043
 20
524.53635459053271
 30
0.0
 40
12.000000000000012
  1
ハーパーズストロングルーフ300
 41
0.7695
  7
FontTableH_0
 72
               5
 11
568.22868210708077
 21
524.53635459053271
 31
0.0
100
AcDbText
  0
TEXT
  5
21E
100
AcDbEntity
  8
0
 62
               7
100
AcDbText
 10
261.73422205048939
 20
161.76859275716987
 30
0.0
 40
12.000000000000012
  1
ハーパーズストロングルーフ300 t1.0
 41
0.7695
  7
FontTableH_0
 72
               5
 11
465.73422205048985
 21
161.76859275716987
 31
0.0
100
AcDbText
  0
TEXT
  5
21F
100
AcDbEntity
  8
0
 62
               7
100
AcDbText
 10
744.7867977564963
 20
26.71320355480508
 30
0.0
 40
8.9999997615814422
  1
軒先詳細図 【S=1/3】
 41
0.7695
  7
FontTableH_0
 72
               5
 11
834.78679537231073
 21
26.71320355480508
 31
0.0
100
AcDbText
  0
TEXT
  5
220
100
AcDbEntity
  8
0
 62
               7
100
AcDbText
 10
57.642136458195907
 20
601.35786449547766
 30
0.0
 40
8.9999997615814422
  1
ジンクロン新築
 41
0.7695
  7
FontTableH_0
 72
               5
 11
120.64213478926601
 21
601.35786449547766
 31
0.0
100
AcDbText
  0
ENDSEC
  0
SECTION
  2
OBJECTS
  0
DICTIONARY
  5
19
100
AcDbDictionary
  3
ACAD_GROUP
350
1A
  3
ACAD_MLINESTYLE
350
1B
  3
DWGPROPS
350
221
  0
DICTIONARY
  5
1A
102
{ACAD_REACTORS
330
19
102
}
100
AcDbDictionary
  0
DICTIONARY
  5
1B
102
{ACAD_REACTORS
330
19
102
}
100
AcDbDictionary
  3
STANDARD
350
1C
  0
MLINESTYLE
  5
1C
102
{ACAD_REACTORS
330
1B
102
}
100
AcDbMlineStyle
  2
Standard
 70
               0
  3

 62
               0
 51
90.0
 52
90.0
 71
               2
 49
0.5
 62
             256
  6
ByLayer
 49
-0.5
 62
             256
  6
ByLayer
  0
XRECORD
  5
221
100
AcDbXrecord
  1
DWGPROPS COOKIE
  2

  3

  4

  6

  7

  0
ENDSEC
  0
EOF
