  0
SECTION
  2
HEADER
  9
$ACADVER
  1
AC1014
  9
$ACADMAINTVER
 70
               0
  9
$DWGCODEPAGE
  3
ANSI_932
  9
$INSBASE
 10
0.0
 20
0.0
 30
0.0
  9
$EXTMIN
 10
0.0
 20
0.0
 30
0.0
  9
$EXTMAX
 10
4076.484848484848
 20
2534.8324164974993
 30
0.0
  9
$LIMMIN
 10
0.0
 20
0.0
  9
$LIMMAX
 10
4076.484848484848
 20
2534.8324164974993
  9
$ORTHOMODE
 70
               0
  9
$REGENMODE
 70
               1
  9
$FILLMODE
 70
               1
  9
$QTEXTMODE
 70
               0
  9
$MIRRTEXT
 70
               1
  9
$DRAGMODE
 70
               2
  9
$LTSCALE
 40
1.0
  9
$OSMODE
 70
               0
  9
$ATTMODE
 70
               1
  9
$TEXTSIZE
 40
0.2
  9
$TRACEWID
 40
0.05
  9
$TEXTSTYLE
  7
Standard
  9
$CLAYER
  8
0
  9
$CELTYPE
  6
Continuous
  9
$CECOLOR
 62
             256
  9
$CELTSCALE
 40
1.0
  9
$DELOBJ
 70
               1
  9
$DISPSILH
 70
               0
  9
$DIMSCALE
 40
1.0
  9
$DIMASZ
 40
0.18
  9
$DIMEXO
 40
0.0625
  9
$DIMDLI
 40
0.38
  9
$DIMRND
 40
0.0
  9
$DIMDLE
 40
0.0
  9
$DIMEXE
 40
0.18
  9
$DIMTP
 40
0.0
  9
$DIMTM
 40
0.0
  9
$DIMTXT
 40
0.18
  9
$DIMCEN
 40
0.09
  9
$DIMTSZ
 40
0.0
  9
$DIMTOL
 70
               0
  9
$DIMLIM
 70
               0
  9
$DIMTIH
 70
               1
  9
$DIMTOH
 70
               1
  9
$DIMSE1
 70
               0
  9
$DIMSE2
 70
               0
  9
$DIMTAD
 70
               0
  9
$DIMZIN
 70
               0
  9
$DIMBLK
  1

  9
$DIMASO
 70
               1
  9
$DIMSHO
 70
               1
  9
$DIMPOST
  1

  9
$DIMAPOST
  1

  9
$DIMALT
 70
               0
  9
$DIMALTD
 70
               2
  9
$DIMALTF
 40
25.399999999999999
  9
$DIMLFAC
 40
1.0
  9
$DIMTOFL
 70
               0
  9
$DIMTVP
 40
0.0
  9
$DIMTIX
 70
               0
  9
$DIMSOXD
 70
               0
  9
$DIMSAH
 70
               0
  9
$DIMBLK1
  1

  9
$DIMBLK2
  1

  9
$DIMSTYLE
  2
Standard
  9
$DIMCLRD
 70
               0
  9
$DIMCLRE
 70
               0
  9
$DIMCLRT
 70
               0
  9
$DIMTFAC
 40
1.0
  9
$DIMGAP
 40
0.09
  9
$DIMJUST
 70
               0
  9
$DIMSD1
 70
               0
  9
$DIMSD2
 70
               0
  9
$DIMTOLJ
 70
               1
  9
$DIMTZIN
 70
               0
  9
$DIMALTZ
 70
               0
  9
$DIMALTTZ
 70
               0
  9
$DIMFIT
 70
               3
  9
$DIMUPT
 70
               0
  9
$DIMUNIT
 70
               2
  9
$DIMDEC
 70
               4
  9
$DIMTDEC
 70
               4
  9
$DIMALTU
 70
               2
  9
$DIMALTTD
 70
               2
  9
$DIMTXSTY
  7
Standard
  9
$DIMAUNIT
 70
               0
  9
$LUNITS
 70
               2
  9
$LUPREC
 70
               4
  9
$SKETCHINC
 40
0.1
  9
$FILLETRAD
 40
0.0
  9
$AUNITS
 70
               0
  9
$AUPREC
 70
               0
  9
$MENU
  1
acad
  9
$ELEVATION
 40
0.0
  9
$PELEVATION
 40
0.0
  9
$THICKNESS
 40
0.0
  9
$LIMCHECK
 70
               0
  9
$BLIPMODE
 70
               1
  9
$CHAMFERA
 40
0.0
  9
$CHAMFERB
 40
0.0
  9
$CHAMFERC
 40
0.0
  9
$CHAMFERD
 40
0.0
  9
$SKPOLY
 70
               0
  9
$TDCREATE
 40
0.000000000
  9
$TDUPDATE
 40
0.000000000
  9
$TDINDWG
 40
0.0000000000
  9
$TDUSRTIMER
 40
0.0000000000
  9
$USRTIMER
 70
               1
  9
$ANGBASE
 50
0.0
  9
$ANGDIR
 70
               0
  9
$PDMODE
 70
               0
  9
$PDSIZE
 40
0.0
  9
$PLINEWID
 40
0.0
  9
$COORDS
 70
               0
  9
$SPLFRAME
 70
               0
  9
$SPLINETYPE
 70
               6
  9
$SPLINESEGS
 70
               8
  9
$ATTDIA
 70
               0
  9
$ATTREQ
 70
               1
  9
$HANDLING
 70
               1
  9
$HANDSEED
  5
629
  9
$SURFTAB1
 70
               6
  9
$SURFTAB2
 70
               6
  9
$SURFTYPE
 70
               6
  9
$SURFU
 70
               6
  9
$SURFV
 70
               6
  9
$UCSNAME
  2

  9
$UCSORG
 10
0.0
 20
0.0
 30
0.0
  9
$UCSXDIR
 10
1.0
 20
0.0
 30
0.0
  9
$UCSYDIR
 10
0.0
 20
1.0
 30
0.0
  9
$PUCSNAME
  2

  9
$PUCSORG
 10
0.0
 20
0.0
 30
0.0
  9
$PUCSXDIR
 10
1.0
 20
0.0
 30
0.0
  9
$PUCSYDIR
 10
0.0
 20
1.0
 30
0.0
  9
$USERI1
 70
               0
  9
$USERI2
 70
               0
  9
$USERI3
 70
               0
  9
$USERI4
 70
               0
  9
$USERI5
 70
               0
  9
$USERR1
 40
0.0
  9
$USERR2
 40
0.0
  9
$USERR3
 40
0.0
  9
$USERR4
 40
0.0
  9
$USERR5
 40
0.0
  9
$WORLDVIEW
 70
               1
  9
$SHADEDGE
 70
               3
  9
$SHADEDIF
 70
              70
  9
$TILEMODE
 70
               1
  9
$MAXACTVP
 70
              16
  9
$PINSBASE
 10
0.0
 20
0.0
 30
0.0
  9
$PLIMCHECK
 70
               0
  9
$PEXTMIN
 10
1.0000000000000000E+20
 20
1.0000000000000000E+20
 30
1.0000000000000000E+20
  9
$PEXTMAX
 10
-1.0000000000000000E+20
 20
-1.0000000000000000E+20
 30
-1.0000000000000000E+20
  9
$PLIMMIN
 10
0.0
 20
0.0
  9
$PLIMMAX
 10
12.0
 20
9.0
  9
$UNITMODE
 70
               0
  9
$VISRETAIN
 70
               0
  9
$PLINEGEN
 70
               1
  9
$PSLTSCALE
 70
               0
  9
$TREEDEPTH
 70
            3020
  9
$PICKSTYLE
 70
               1
  9
$CMLSTYLE
  2
Standard
  9
$CMLJUST
 70
               0
  9
$CMLSCALE
 40
1.0
  9
$PROXYGRAPHICS
 70
               0
  9
$MEASUREMENT
 70
               0
  0
ENDSEC
  0
SECTION
  2
CLASSES
  0
CLASS
  1
LWPOLYLINE
  2
AcDbPolyline
  3
"AutoCAD"
 90
        0
280
               0
281
               1
  0
CLASS
  1
IMAGE
  2
AcDbRasterImage
  3
ISM
 90
      127
280
               0
281
               1
  0
CLASS
  1
OLE2FRAME
  2
AcDbOle2Frame
  3
""
 90
        0
280
               0
281
               1
  0
CLASS
  1
HATCH
  2
AcDbHatch
  3
"ACAD_SEDONA"
 90
        0
280
               0
281
               1
  0
CLASS
  1
DICTIONARYVAR
  2
AcDbDictionaryVar
  3
"AutoCAD"
 90
        0
280
               0
281
               0
  0
CLASS
  1
RASTERVARIABLES
  2
AcDbRasterVariables
  3
ISM
 90
        0
280
               0
281
               0
  0
CLASS
  1
IMAGEDEF
  2
AcDbRasterImageDef
  3
ISM
 90
        0
280
               0
281
               0
  0
CLASS
  1
IMAGEDEF_REACTOR
  2
AcDbRasterImageDefReactor
  3
ISM
 90
        1
280
               0
281
               0
  0
CLASS
  1
IDBUFFER
  2
AcDbIdBuffer
  3
"Acad"
 90
        0
280
               0
281
               0
  0
CLASS
  1
SPATIAL_FILTER
  2
AcDbSpatialFilter
  3
"Acad"
 90
        0
280
               0
281
               0
  0
CLASS
  1
XRECORD
  2
AcDbXrecord
  3
"<Built In>"
 90
        0
280
               0
281
               0
  0
CLASS
  1
SORTENTSTABLE
  2
AcDbSortentsTable
  3
"AutoCAD"
 90
        0
280
               0
281
               0
  0
CLASS
  1
LAYER_INDEX
  2
AcDbLayerIndex
  3
"Acad"
 90
        0
280
               0
281
               0
  0
CLASS
  1
SPATIAL_INDEX
  2
AcDbSpatialIndex
  3
"Acad"
 90
        0
280
               0
281
               0
  0
CLASS
  1
OBJECT_PTR
  2
CAseDLPNTableRecord
  3
"ASE-LPNTableRecord"
 90
        1
280
               0
281
               0
  0
CLASS
  1
LAYOUT
  2
AcDbLayout
  3
"AutoCAD 2000"
 90
        0
280
               0
281
               0
  0
CLASS
  1
PLOTSETTINGS
  2
AcDbPlotSettings
  3
"AutoCAD 2000"
 90
        0
280
               0
281
               0
  0
CLASS
  1
ACDBDICTIONARYWDFLT
  2
AcDbDictionaryWithDefault
  3
"AutoCAD 2000"
 90
        0
280
               0
281
               0
  0
CLASS
  1
ACDBPLACEHOLDER
  2
AcDbPlaceHolder
  3
"AutoCAD 2000"
 90
        0
280
               0
281
               0
  0
CLASS
  1
VBA_PROJECT
  2
AcDbVbaProject
  3
"acadvba"
 90
        0
280
               0
281
               0
  0
CLASS
  1
WIPEOUT
  2
AcDbWipeout
  3
WipeOut|AutoCAD Express Tool|expresstools@autodesk.com
 90
      127
280
               0
281
               1
  0
CLASS
  1
WIPEOUTVARIABLES
  2
AcDbWipeoutVariables
  3
WipeOut|AutoCAD Express Tool|expresstools@autodesk.com
 90
        0
280
               0
281
               0
  0
CLASS
  1
RTEXT
  2
RText
  3
RText|AutoCAD Express Tool|expresstools@autodesk.com
 90
        0
280
               0
281
               1
  0
CLASS
  1
ARCALIGNEDTEXT
  2
AcDbArcAlignedText
  3
ATEXT|AutoCAD Express Tool|expresstools@autodesk.com
 90
        0
280
               0
281
               1
  0
ENDSEC
  0
SECTION
  2
TABLES
  0
TABLE
  2
VPORT
  5
7
100
AcDbSymbolTable
 70
               1
  0
VPORT
  5
15
100
AcDbSymbolTableRecord
100
AcDbViewportTableRecord
  2
*ACTIVE
 70
               0
 10
0.0
 20
0.0
 11
1.0
 21
1.0
 12
2038.242424242424
 22
1267.4162082487496
 13
0.0
 23
0.0
 14
10.0
 24
10.0
 15
10.0
 25
10.0
 16
0.0
 26
0.0
 36
1.0
 17
0.0
 27
0.0
 37
0.0
 40
2534.8324164974993
 41
1.6081871219390214
 42
50.0
 43
0.0
 44
0.0
 50
0.0
 51
0.0
 71
               0
 72
             100
 73
               1
 74
               1
 75
               0
 76
               0
 77
               0
 78
               0
  0
ENDTAB
  0
TABLE
  2
LTYPE
  5
4
100
AcDbSymbolTable
 70
              24
  0
LTYPE
  5
11
100
AcDbSymbolTableRecord
100
AcDbLinetypeTableRecord
  2
ByBlock
 70
              64
  3

 72
              65
 73
               0
 40
0.0
  0
LTYPE
  5
12
100
AcDbSymbolTableRecord
100
AcDbLinetypeTableRecord
  2
ByLayer
 70
              64
  3

 72
              65
 73
               0
 40
0.0
  0
LTYPE
  5
13
100
AcDbSymbolTableRecord
100
AcDbLinetypeTableRecord
  2
Continuous
 70
              64
  3
Solid line
 72
              65
 73
               0
 40
0.0
  0
LTYPE
  5
1D
100
AcDbSymbolTableRecord
100
AcDbLinetypeTableRecord
  2
DOT
 70
              64
  3
Dot . . . . . . . . . . . . . . . . . . . . . .
 72
              65
 73
               2
 40
6.3499999999999996
 49
0.35
 74
               0
 49
-6.0
 74
               0
  0
LTYPE
  5
1E
100
AcDbSymbolTableRecord
100
AcDbLinetypeTableRecord
  2
DASHED
 70
              64
  3
Dashed __ __ __ __ __ __ __ __ __ __ __ __ __ _
 72
              65
 73
               2
 40
12.699999999999999
 49
6.3499999999999996
 74
               0
 49
-6.3499999999999996
 74
               0
  0
LTYPE
  5
1F
100
AcDbSymbolTableRecord
100
AcDbLinetypeTableRecord
  2
DASHDOT
 70
              64
  3
Dash dot __ . __ . __ . __ . __ . __ . __ . __
 72
              65
 73
               4
 40
25.399999999999999
 49
12.699999999999999
 74
               0
 49
-6.0
 74
               0
 49
0.7
 74
               0
 49
-6.0
 74
               0
  0
LTYPE
  5
20
100
AcDbSymbolTableRecord
100
AcDbLinetypeTableRecord
  2
DIVIDE
 70
              64
  3
Divide ____ . . ____ . . ____ . . ____ . . ____
 72
              65
 73
               6
 40
31.75
 49
12.699999999999999
 74
               0
 49
-6.0
 74
               0
 49
0.875
 74
               0
 49
-6.0
 74
               0
 49
0.875
 74
               0
 49
-6.0
 74
               0
  0
LTYPE
  5
21
100
AcDbSymbolTableRecord
100
AcDbLinetypeTableRecord
  2
HIDDEN
 70
              64
  3
Hidden __ __ __ __ __ __ __ __ __ __ __ __ __ _
 72
              65
 73
               2
 40
9.5250000000000004
 49
6.3499999999999996
 74
               0
 49
-3.1749999999999998
 74
               0
  0
LTYPE
  5
22
100
AcDbSymbolTableRecord
100
AcDbLinetypeTableRecord
  2
CENTER
 70
              64
  3
Center ____ _ ____ _ ____ _ ____ _ ____ _ ____
 72
              65
 73
               4
 40
50.799999999999997
 49
31.75
 74
               0
 49
-6.3499999999999996
 74
               0
 49
6.3499999999999996
 74
               0
 49
-6.3499999999999996
 74
               0
  0
LTYPE
  5
23
100
AcDbSymbolTableRecord
100
AcDbLinetypeTableRecord
  2
PHANTOM
 70
              64
  3
Phantom ______  __  __  ______  __  __  ______
 72
              65
 73
               6
 40
63.5
 49
31.75
 74
               0
 49
-6.3499999999999996
 74
               0
 49
6.3499999999999996
 74
               0
 49
-6.3499999999999996
 74
               0
 49
6.3499999999999996
 74
               0
 49
-6.3499999999999996
 74
               0
  0
LTYPE
  5
24
100
AcDbSymbolTableRecord
100
AcDbLinetypeTableRecord
  2
ACAD_ISO02W100
 70
              64
  3
ISO dash __ __ __ __ __ __ __ __ __ __ __ __ __
 72
              65
 73
               2
 40
15.0
 49
12.0
 74
               0
 49
-3.0
 74
               0
  0
LTYPE
  5
25
100
AcDbSymbolTableRecord
100
AcDbLinetypeTableRecord
  2
ACAD_ISO03W100
 70
              64
  3
ISO dash space __ __ __ __ __ __ __ __ __ __ __ __ __ __
 72
              65
 73
               2
 40
30.0
 49
12.0
 74
               0
 49
-18.0
 74
               0
  0
LTYPE
  5
26
100
AcDbSymbolTableRecord
100
AcDbLinetypeTableRecord
  2
ACAD_ISO04W100
 70
              64
  3
ISO long-dash dot ____ . ____ . ____ . ____ . _
 72
              65
 73
               4
 40
30.0
 49
24.0
 74
               0
 49
-3.0
 74
               0
 49
0.0
 74
               0
 49
-3.0
 74
               0
  0
LTYPE
  5
27
100
AcDbSymbolTableRecord
100
AcDbLinetypeTableRecord
  2
ACAD_ISO05W100
 70
              64
  3
ISO long-dash double-dot ____ .. ____ .. ____ .
 72
              65
 73
               6
 40
33.0
 49
24.0
 74
               0
 49
-3.0
 74
               0
 49
0.0
 74
               0
 49
-3.0
 74
               0
 49
0.0
 74
               0
 49
-3.0
 74
               0
  0
LTYPE
  5
28
100
AcDbSymbolTableRecord
100
AcDbLinetypeTableRecord
  2
ACAD_ISO06W100
 70
              64
  3
ISO long-dash triple-dot ____ ... ____ ... ____
 72
              65
 73
               8
 40
36.0
 49
24.0
 74
               0
 49
-3.0
 74
               0
 49
0.0
 74
               0
 49
-3.0
 74
               0
 49
0.0
 74
               0
 49
-3.0
 74
               0
 49
0.0
 74
               0
 49
-3.0
 74
               0
  0
LTYPE
  5
29
100
AcDbSymbolTableRecord
100
AcDbLinetypeTableRecord
  2
ACAD_ISO07W100
 70
              64
  3
ISO dot . . . . . . . . . . . . . . . . . . . .
 72
              65
 73
               2
 40
3.0
 49
0.0
 74
               0
 49
-3.0
 74
               0
  0
LTYPE
  5
2A
100
AcDbSymbolTableRecord
100
AcDbLinetypeTableRecord
  2
ACAD_ISO08W100
 70
              64
  3
ISO long-dash short-dash ____ __ ____ __ ____ _
 72
              65
 73
               4
 40
36.0
 49
24.0
 74
               0
 49
-3.0
 74
               0
 49
6.0
 74
               0
 49
-3.0
 74
               0
  0
LTYPE
  5
2B
100
AcDbSymbolTableRecord
100
AcDbLinetypeTableRecord
  2
ACAD_ISO09W100
 70
              64
  3
ISO long-dash double-short-dash ____ __ __ ____
 72
              65
 73
               6
 40
45.0
 49
24.0
 74
               0
 49
-3.0
 74
               0
 49
6.0
 74
               0
 49
-3.0
 74
               0
 49
6.0
 74
               0
 49
-3.0
 74
               0
  0
LTYPE
  5
2C
100
AcDbSymbolTableRecord
100
AcDbLinetypeTableRecord
  2
ACAD_ISO10W100
 70
              64
  3
ISO dash dot __ . __ . __ . __ . __ . __ . __ .
 72
              65
 73
               4
 40
18.0
 49
12.0
 74
               0
 49
-3.0
 74
               0
 49
0.0
 74
               0
 49
-3.0
 74
               0
  0
LTYPE
  5
2D
100
AcDbSymbolTableRecord
100
AcDbLinetypeTableRecord
  2
ACAD_ISO11W100
 70
              64
  3
ISO double-dash dot __ __ . __ __ . __ __ . __ 
 72
              65
 73
               6
 40
33.0
 49
12.0
 74
               0
 49
-3.0
 74
               0
 49
12.0
 74
               0
 49
-3.0
 74
               0
 49
0.0
 74
               0
 49
-3.0
 74
               0
  0
LTYPE
  5
2E
100
AcDbSymbolTableRecord
100
AcDbLinetypeTableRecord
  2
ACAD_ISO12W100
 70
              64
  3
ISO dash double-dot __ . . __ . . __ . . __ . .
 72
              65
 73
               6
 40
21.0
 49
12.0
 74
               0
 49
-3.0
 74
               0
 49
0.0
 74
               0
 49
-3.0
 74
               0
 49
0.0
 74
               0
 49
-3.0
 74
               0
  0
LTYPE
  5
2F
100
AcDbSymbolTableRecord
100
AcDbLinetypeTableRecord
  2
ACAD_ISO13W100
 70
              64
  3
ISO double-dash double-dot __ __ . . __ __ . . 
 72
              65
 73
               8
 40
36.0
 49
12.0
 74
               0
 49
-3.0
 74
               0
 49
12.0
 74
               0
 49
-3.0
 74
               0
 49
0.0
 74
               0
 49
-3.0
 74
               0
 49
0.0
 74
               0
 49
-3.0
 74
               0
  0
LTYPE
  5
30
100
AcDbSymbolTableRecord
100
AcDbLinetypeTableRecord
  2
ACAD_ISO14W100
 70
              64
  3
ISO dash triple-dot __ . . . __ . . . __ . . . 
 72
              65
 73
               8
 40
24.0
 49
12.0
 74
               0
 49
-3.0
 74
               0
 49
0.0
 74
               0
 49
-3.0
 74
               0
 49
0.0
 74
               0
 49
-3.0
 74
               0
 49
0.0
 74
               0
 49
-3.0
 74
               0
  0
LTYPE
  5
31
100
AcDbSymbolTableRecord
100
AcDbLinetypeTableRecord
  2
ACAD_ISO15W100
 70
              64
  3
ISO double-dash double-dot __ __ . . __ __ . . 
 72
              65
 73
              10
 40
39.0
 49
12.0
 74
               0
 49
-3.0
 74
               0
 49
12.0
 74
               0
 49
-3.0
 74
               0
 49
0.0
 74
               0
 49
-3.0
 74
               0
 49
0.0
 74
               0
 49
-3.0
 74
               0
 49
0.0
 74
               0
 49
-3.0
 74
               0
  0
ENDTAB
  0
TABLE
  2
LAYER
  5
2
100
AcDbSymbolTable
 70
              16
  0
LAYER
  5
14
100
AcDbSymbolTableRecord
100
AcDbLayerTableRecord
  2
0
 70
               0
 62
               7
  6
Continuous
  0
LAYER
  5
35
100
AcDbSymbolTableRecord
100
AcDbLayerTableRecord
  2
Layer00001
 70
               0
 62
               7
  6
Continuous
  0
LAYER
  5
36
100
AcDbSymbolTableRecord
100
AcDbLayerTableRecord
  2
Layer00002
 70
               0
 62
               7
  6
Continuous
  0
LAYER
  5
37
100
AcDbSymbolTableRecord
100
AcDbLayerTableRecord
  2
Layer00003
 70
               0
 62
               7
  6
Continuous
  0
LAYER
  5
38
100
AcDbSymbolTableRecord
100
AcDbLayerTableRecord
  2
Layer00004
 70
               0
 62
               7
  6
Continuous
  0
LAYER
  5
39
100
AcDbSymbolTableRecord
100
AcDbLayerTableRecord
  2
Layer00005
 70
               0
 62
               7
  6
Continuous
  0
LAYER
  5
3A
100
AcDbSymbolTableRecord
100
AcDbLayerTableRecord
  2
Layer00006
 70
               0
 62
               7
  6
Continuous
  0
LAYER
  5
3B
100
AcDbSymbolTableRecord
100
AcDbLayerTableRecord
  2
Layer00007
 70
               0
 62
               7
  6
Continuous
  0
LAYER
  5
3C
100
AcDbSymbolTableRecord
100
AcDbLayerTableRecord
  2
Layer00008
 70
               0
 62
               7
  6
Continuous
  0
LAYER
  5
3D
100
AcDbSymbolTableRecord
100
AcDbLayerTableRecord
  2
Layer00009
 70
               0
 62
               7
  6
Continuous
  0
LAYER
  5
3E
100
AcDbSymbolTableRecord
100
AcDbLayerTableRecord
  2
Layer00010
 70
               0
 62
               7
  6
Continuous
  0
LAYER
  5
3F
100
AcDbSymbolTableRecord
100
AcDbLayerTableRecord
  2
Layer00011
 70
               0
 62
               7
  6
Continuous
  0
LAYER
  5
40
100
AcDbSymbolTableRecord
100
AcDbLayerTableRecord
  2
Layer00012
 70
               0
 62
               7
  6
Continuous
  0
LAYER
  5
41
100
AcDbSymbolTableRecord
100
AcDbLayerTableRecord
  2
Layer00013
 70
               0
 62
               7
  6
Continuous
  0
LAYER
  5
42
100
AcDbSymbolTableRecord
100
AcDbLayerTableRecord
  2
Layer00014
 70
               0
 62
               7
  6
Continuous
  0
LAYER
  5
43
100
AcDbSymbolTableRecord
100
AcDbLayerTableRecord
  2
Layer00015
 70
               0
 62
               7
  6
Continuous
  0
ENDTAB
  0
TABLE
  2
STYLE
  5
3
100
AcDbSymbolTable
 70
               4
  0
STYLE
  5
17
100
AcDbSymbolTableRecord
100
AcDbTextStyleTableRecord
  2
Standard
 70
               0
 40
0.0
 41
1.0
 50
0.0
 71
               0
 42
0.0
  3
txt.shx
  4
bigfont.shx
  0
STYLE
  5
32
100
AcDbSymbolTableRecord
100
AcDbTextStyleTableRecord
  2
STANDARD_T
 70
               4
 40
0.0
 41
1.0
 50
0.0
 71
               0
 42
0.0
  3
txt.shx
  4
bigfont.shx
  0
STYLE
  5
33
100
AcDbSymbolTableRecord
100
AcDbTextStyleTableRecord
  2
FontTableH_0
 70
               0
 40
0.0
 41
1.0
 50
0.0
 71
               0
 42
0.0
  3
MS Gothic.ttf
  4

1001
ACAD
1000
MS Gothic
1071
    32817
  0
STYLE
  5
34
100
AcDbSymbolTableRecord
100
AcDbTextStyleTableRecord
  2
FontTableV_0
 70
               0
 40
0.0
 41
1.0
 50
0.0
 71
               0
 42
0.0
  3
@MS Gothic.ttf
  4

1001
ACAD
1000
@MS Gothic
1071
    32817
  0
ENDTAB
  0
TABLE
  2
VIEW
  5
5
100
AcDbSymbolTable
 70
               0
  0
ENDTAB
  0
TABLE
  2
UCS
  5
6
100
AcDbSymbolTable
 70
               0
  0
ENDTAB
  0
TABLE
  2
APPID
  5
8
100
AcDbSymbolTable
 70
               1
  0
APPID
  5
16
100
AcDbSymbolTableRecord
100
AcDbRegAppTableRecord
  2
ACAD
 70
               0
  0
ENDTAB
  0
TABLE
  2
DIMSTYLE
  5
9
100
AcDbSymbolTable
 70
               1
  0
DIMSTYLE
105
18
100
AcDbSymbolTableRecord
100
AcDbDimStyleTableRecord
  2
Standard
 70
               0
  3

  4

  5

  6

  7

 40
1.0
 41
0.18
 42
0.0625
 43
0.38
 44
0.18
 45
0.0
 46
0.0
 47
0.0
 48
0.0
 71
               0
 72
               0
 73
               1
 74
               1
 75
               0
 76
               0
 77
               0
 78
               0
140
0.18
141
0.09
142
0.0
143
25.399999999999999
144
1.0
145
0.0
146
1.0
147
0.09
170
               0
171
               2
172
               0
173
               0
174
               0
175
               0
176
               0
177
               0
178
               0
270
               2
271
               4
272
               4
273
               2
274
               2
275
               0
280
               0
281
               0
282
               0
283
               1
284
               0
285
               0
286
               0
287
               0
288
               0
340
17
  0
ENDTAB
  0
TABLE
  2
BLOCK_RECORD
  5
1
100
AcDbSymbolTable
 70
               0
  0
BLOCK_RECORD
  5
A
100
AcDbSymbolTableRecord
100
AcDbBlockTableRecord
  2
*MODEL_SPACE
  0
BLOCK_RECORD
  5
B
100
AcDbSymbolTableRecord
100
AcDbBlockTableRecord
  2
*PAPER_SPACE
  0
ENDTAB
  0
ENDSEC
  0
SECTION
  2
BLOCKS
  0
BLOCK
  5
D
100
AcDbEntity
  8
0
100
AcDbBlockBegin
  2
*MODEL_SPACE
 70
               0
 10
0.0
 20
0.0
 30
0.0
  3
*MODEL_SPACE
  1

  0
ENDBLK
  5
E
100
AcDbEntity
  8
0
100
AcDbBlockEnd
  0
BLOCK
  5
F
100
AcDbEntity
 67
               1
  8
0
100
AcDbBlockBegin
  2
*PAPER_SPACE
 70
               0
 10
0.0
 20
0.0
 30
0.0
  3
*PAPER_SPACE
  1

  0
ENDBLK
  5
10
100
AcDbEntity
 67
               1
  8
0
100
AcDbBlockEnd
  0
ENDSEC
  0
SECTION
  2
ENTITIES
  0
LINE
  5
44
100
AcDbEntity
  8
0
  6
Continuous
 62
               2
100
AcDbLine
 10
1743.2424242424322
 20
1677.357436399257
 30
0.0
 11
1757.7424242424322
 21
1677.357436399257
 31
0.0
  0
LINE
  5
45
100
AcDbEntity
  8
0
  6
Continuous
 62
               2
100
AcDbLine
 10
1769.2374678534113
 20
1677.5000493239181
 30
0.0
 11
1765.7424242424322
 21
1665.7554592722008
 31
0.0
  0
LINE
  5
46
100
AcDbEntity
  8
0
  6
Continuous
 62
               2
100
AcDbLine
 10
1765.2529340325634
 20
1665.357436399257
 30
0.0
 11
1743.7424242424322
 21
1665.357436399257
 31
0.0
  0
LINE
  5
47
100
AcDbEntity
  8
0
  6
Continuous
 62
               2
100
AcDbLine
 10
1729.4082671061587
 20
1676.9594135263133
 30
0.0
 11
1732.7424242424322
 21
1665.7554592722008
 31
0.0
  0
LINE
  5
48
100
AcDbEntity
  8
0
  6
Continuous
 62
               2
100
AcDbLine
 10
1742.7424242424322
 20
1676.857436399257
 30
0.0
 11
1742.7424242424322
 21
1665.857436399257
 31
0.0
  0
LINE
  5
49
100
AcDbEntity
  8
0
  6
Continuous
 62
               2
100
AcDbLine
 10
1742.2424242424322
 20
1665.357436399257
 30
0.0
 11
1733.231914452301
 21
1665.357436399257
 31
0.0
  0
LINE
  5
4A
100
AcDbEntity
  8
0
  6
Continuous
 62
               2
100
AcDbLine
 10
1743.2424242424322
 20
1676.357436399257
 30
0.0
 11
1743.2424242424322
 21
1665.857436399257
 31
0.0
  0
LINE
  5
4B
100
AcDbEntity
  8
0
  6
Continuous
 62
               2
100
AcDbLine
 10
1743.7424242424322
 20
1676.857436399257
 30
0.0
 11
1757.7424242424322
 21
1676.857436399257
 31
0.0
  0
LINE
  5
4C
100
AcDbEntity
  8
0
  6
Continuous
 62
               2
100
AcDbLine
 10
1728.9187768962902
 20
1677.357436399257
 30
0.0
 11
1714.3253456742955
 21
1677.357436399257
 31
0.0
  0
LINE
  5
4D
100
AcDbEntity
  8
0
  6
Continuous
 62
               2
100
AcDbLine
 10
1469.7166980211998
 20
1677.8574363992648
 30
0.0
 11
1757.7424242424322
 21
1677.8574363992625
 31
0.0
  0
LINE
  5
4E
100
AcDbEntity
  8
0
  6
Continuous
 62
               2
100
AcDbLine
 10
1758.2424242424322
 20
1677.3574363992625
 30
0.0
 11
1758.2424242424308
 21
1666.1110262377483
 31
0.0
  0
LINE
  5
4F
100
AcDbEntity
  8
0
  6
Continuous
 62
               2
100
AcDbLine
 10
1757.6826166212954
 20
1665.9610262377487
 30
0.0
 11
1753.2424242424322
 21
1675.9314499703519
 31
0.0
  0
LINE
  5
50
100
AcDbEntity
  8
0
  6
Continuous
 62
               2
100
AcDbLine
 10
1753.2424242424322
 20
1675.9314499703519
 30
0.0
 11
1751.2424242424322
 21
1675.9314499703523
 31
0.0
  0
LINE
  5
51
100
AcDbEntity
  8
0
  6
Continuous
 62
               3
100
AcDbLine
 10
1773.9187768962911
 20
1673.8574363992643
 30
0.0
 11
1938.2424242424418
 21
1673.8574363992648
 31
0.0
  0
LINE
  5
52
100
AcDbEntity
  8
0
  6
Continuous
 62
               3
100
AcDbLine
 10
1723.918785423547
 20
1673.8574363867178
 30
0.0
 11
1473.9187768962877
 21
1673.8574343032496
 31
0.0
  0
LINE
  5
53
100
AcDbEntity
  8
0
  6
Continuous
 62
               3
100
AcDbLine
 10
1723.918785423547
 20
1673.8574368225827
 30
0.0
 11
1723.9187768962902
 21
1648.8574363992648
 31
0.0
  0
LINE
  5
54
100
AcDbEntity
  8
0
  6
Continuous
 62
               2
100
AcDbLine
 10
1769.7166980212032
 20
1677.8574363992648
 30
0.0
 11
1938.2424242424418
 21
1677.8574363992648
 31
0.0
  0
LINE
  5
55
100
AcDbEntity
  8
0
  6
DASHED
 62
               6
100
AcDbLine
 10
1773.9187768962911
 20
1674.8574362097156
 30
0.0
 11
1938.2424242424418
 21
1674.8574362097156
 31
0.0
  0
LINE
  5
56
100
AcDbEntity
  8
0
  6
DASHED
 62
               6
100
AcDbLine
 10
1727.9187768962902
 20
1662.5574362097154
 30
0.0
 11
1769.4187768962902
 21
1662.5574362097154
 31
0.0
  0
LINE
  5
57
100
AcDbEntity
  8
0
  6
DASHED
 62
               6
100
AcDbLine
 10
1723.9187768964182
 20
1674.8574362097174
 30
0.0
 11
1473.9187768962877
 21
1674.8574362097156
 31
0.0
  0
LINE
  5
58
100
AcDbEntity
  8
0
  6
DASHED
 62
               6
100
AcDbLine
 10
1771.7166980212035
 20
1664.5574362097154
 30
0.0
 11
1771.7166980212032
 21
1672.8574362097156
 31
0.0
  0
LINE
  5
59
100
AcDbEntity
  8
0
  6
DASHED
 62
               6
100
AcDbLine
 10
1725.91877689629
 20
1672.8574362097174
 30
0.0
 11
1725.91877689629
 21
1664.5574362097154
 31
0.0
  0
LINE
  5
5A
100
AcDbEntity
  8
0
  6
Continuous
 62
               3
100
AcDbLine
 10
1773.9187768962911
 20
1673.8574363992648
 30
0.0
 11
1773.9187768962911
 21
1648.8574363992648
 31
0.0
  0
LINE
  5
5B
100
AcDbEntity
  8
0
  6
Continuous
 62
               3
100
AcDbLine
 10
1773.9187768962911
 20
1648.8574363992643
 30
0.0
 11
1938.2424242424418
 21
1648.8574363992643
 31
0.0
  0
LINE
  5
5C
100
AcDbEntity
  8
0
  6
Continuous
 62
               3
100
AcDbLine
 10
1723.9187768962902
 20
1648.8574363271132
 30
0.0
 11
1473.9187768962877
 21
1648.8574364024748
 31
0.0
  0
LINE
  5
5D
100
AcDbEntity
  8
0
  6
Continuous
 62
               7
100
AcDbLine
 10
1928.018882592527
 20
1673.8574363992648
 30
0.0
 11
1903.0188825925266
 21
1648.8574363992643
 31
0.0
  0
LINE
  5
5E
100
AcDbEntity
  8
0
  6
Continuous
 62
               7
100
AcDbLine
 10
1913.4187741675864
 20
1673.3994635980548
 30
0.0
 11
1888.8767469687959
 21
1648.8574363992643
 31
0.0
  0
LINE
  5
5F
100
AcDbEntity
  8
0
  6
Continuous
 62
               7
100
AcDbLine
 10
1899.7346113450649
 20
1673.8574363992643
 30
0.0
 11
1874.7346113450649
 21
1648.8574363992643
 31
0.0
  0
LINE
  5
60
100
AcDbEntity
  8
0
  6
Continuous
 62
               7
100
AcDbLine
 10
1885.5924757213338
 20
1673.8574363992643
 30
0.0
 11
1860.5924757213338
 21
1648.8574363992643
 31
0.0
  0
LINE
  5
61
100
AcDbEntity
  8
0
  6
Continuous
 62
               7
100
AcDbLine
 10
1871.4503400976027
 20
1673.8574363992643
 30
0.0
 11
1846.4503400976027
 21
1648.8574363992643
 31
0.0
  0
LINE
  5
62
100
AcDbEntity
  8
0
  6
Continuous
 62
               7
100
AcDbLine
 10
1857.3082044738721
 20
1673.8574363992643
 30
0.0
 11
1832.3082044738717
 21
1648.8574363992643
 31
0.0
  0
LINE
  5
63
100
AcDbEntity
  8
0
  6
Continuous
 62
               7
100
AcDbLine
 10
1843.1660688501411
 20
1673.8574363992643
 30
0.0
 11
1818.1660688501411
 21
1648.8574363992643
 31
0.0
  0
LINE
  5
64
100
AcDbEntity
  8
0
  6
Continuous
 62
               7
100
AcDbLine
 10
1829.02393322641
 20
1673.8574363992643
 30
0.0
 11
1804.02393322641
 21
1648.8574363992643
 31
0.0
  0
LINE
  5
65
100
AcDbEntity
  8
0
  6
Continuous
 62
               7
100
AcDbLine
 10
1723.9187785156705
 20
1653.6050954142943
 30
0.0
 11
1719.1711194840238
 21
1648.8574363992643
 31
0.0
  0
LINE
  5
66
100
AcDbEntity
  8
0
  6
Continuous
 62
               7
100
AcDbLine
 10
1723.9187833394169
 20
1667.7472358623877
 30
0.0
 11
1705.0289838602926
 21
1648.8574363992643
 31
0.0
  0
LINE
  5
67
100
AcDbEntity
  8
0
  6
Continuous
 62
               7
100
AcDbLine
 10
1715.8868481729069
 20
1673.8574363356097
 30
0.0
 11
1690.8868482365601
 21
1648.8574363992643
 31
0.0
  0
LINE
  5
68
100
AcDbEntity
  8
0
  6
Continuous
 62
               7
100
AcDbLine
 10
1701.7447124305027
 20
1673.8574362169361
 30
0.0
 11
1676.7447126128291
 21
1648.8574363992643
 31
0.0
  0
LINE
  5
69
100
AcDbEntity
  8
0
  6
Continuous
 62
               7
100
AcDbLine
 10
1687.6025766880969
 20
1673.857436098263
 30
0.0
 11
1662.602576989098
 21
1648.8574363992643
 31
0.0
  0
LINE
  5
6A
100
AcDbEntity
  8
0
  6
Continuous
 62
               7
100
AcDbLine
 10
1673.4604409456927
 20
1673.8574359795898
 30
0.0
 11
1648.4604413653669
 21
1648.8574363992643
 31
0.0
  0
LINE
  5
6B
100
AcDbEntity
  8
0
  6
Continuous
 62
               7
100
AcDbLine
 10
1659.3183052032882
 20
1673.8574358609167
 30
0.0
 11
1634.3183057416354
 21
1648.8574363992643
 31
0.0
  0
LINE
  5
6C
100
AcDbEntity
  8
0
  6
Continuous
 62
               7
100
AcDbLine
 10
1645.1761694608838
 20
1673.8574357422435
 30
0.0
 11
1620.1761701179043
 21
1648.8574363992643
 31
0.0
  0
LINE
  5
6D
100
AcDbEntity
  8
0
  6
Continuous
 62
               7
100
AcDbLine
 10
1631.0340337184793
 20
1673.8574356235704
 30
0.0
 11
1606.0340344941735
 21
1648.8574363992643
 31
0.0
  0
LINE
  5
6E
100
AcDbEntity
  8
0
  6
Continuous
 62
               7
100
AcDbLine
 10
1616.8918979760751
 20
1673.8574355048968
 30
0.0
 11
1591.8918988704422
 21
1648.8574363992643
 31
0.0
  0
LINE
  5
6F
100
AcDbEntity
  8
0
  6
Continuous
 62
               7
100
AcDbLine
 10
1602.7497622336709
 20
1673.8574353862236
 30
0.0
 11
1577.7497632467116
 21
1648.8574363992643
 31
0.0
  0
LINE
  5
70
100
AcDbEntity
  8
0
  6
Continuous
 62
               7
100
AcDbLine
 10
1588.6076264912665
 20
1673.8574352675505
 30
0.0
 11
1563.6076276229805
 21
1648.8574363992643
 31
0.0
  0
LINE
  5
71
100
AcDbEntity
  8
0
  6
Continuous
 62
               7
100
AcDbLine
 10
1574.4654907488623
 20
1673.8574351488774
 30
0.0
 11
1549.4654919992495
 21
1648.8574363992643
 31
0.0
  0
LINE
  5
72
100
AcDbEntity
  8
0
  6
Continuous
 62
               7
100
AcDbLine
 10
1560.3233550064583
 20
1673.8574350302042
 30
0.0
 11
1535.3233563755184
 21
1648.8574363992643
 31
0.0
  0
LINE
  5
73
100
AcDbEntity
  8
0
  6
Continuous
 62
               7
100
AcDbLine
 10
1546.1812192640539
 20
1673.8574349115311
 30
0.0
 11
1521.1812207517874
 21
1648.8574363992643
 31
0.0
  0
LINE
  5
74
100
AcDbEntity
  8
0
  6
Continuous
 62
               7
100
AcDbLine
 10
1532.0390835216499
 20
1673.8574347928575
 30
0.0
 11
1507.0390851280567
 21
1648.8574363992643
 31
0.0
  0
LINE
  5
75
100
AcDbEntity
  8
0
  6
Continuous
 62
               6
100
AcDbLine
 10
1938.2424242424418
 20
1646.7574363992485
 30
0.0
 11
1038.2424242424163
 21
1646.757436399263
 31
0.0
  0
LINE
  5
76
100
AcDbEntity
  8
0
  6
Continuous
 62
               6
100
AcDbLine
 10
1938.2424242424418
 20
1647.9574363992483
 30
0.0
 11
1038.2424242424163
 21
1647.9574363992629
 31
0.0
  0
LINE
  5
77
100
AcDbEntity
  8
0
  6
Continuous
 62
               2
100
AcDbLine
 10
1443.2424242424286
 20
1677.357436399257
 30
0.0
 11
1457.7424242424286
 21
1677.357436399257
 31
0.0
  0
LINE
  5
78
100
AcDbEntity
  8
0
  6
Continuous
 62
               2
100
AcDbLine
 10
1469.2374678534079
 20
1677.5000493239181
 30
0.0
 11
1465.7424242424286
 21
1665.7554592722008
 31
0.0
  0
LINE
  5
79
100
AcDbEntity
  8
0
  6
Continuous
 62
               2
100
AcDbLine
 10
1465.2529340325598
 20
1665.357436399257
 30
0.0
 11
1443.7424242424286
 21
1665.357436399257
 31
0.0
  0
LINE
  5
7A
100
AcDbEntity
  8
0
  6
Continuous
 62
               2
100
AcDbLine
 10
1429.4082671061553
 20
1676.9594135263133
 30
0.0
 11
1432.7424242424286
 21
1665.7554592722008
 31
0.0
  0
LINE
  5
7B
100
AcDbEntity
  8
0
  6
Continuous
 62
               2
100
AcDbLine
 10
1442.7424242424286
 20
1676.857436399257
 30
0.0
 11
1442.7424242424286
 21
1665.857436399257
 31
0.0
  0
LINE
  5
7C
100
AcDbEntity
  8
0
  6
Continuous
 62
               2
100
AcDbLine
 10
1442.2424242424286
 20
1665.357436399257
 30
0.0
 11
1433.2319144522974
 21
1665.357436399257
 31
0.0
  0
LINE
  5
7D
100
AcDbEntity
  8
0
  6
Continuous
 62
               2
100
AcDbLine
 10
1443.2424242424286
 20
1676.357436399257
 30
0.0
 11
1443.2424242424286
 21
1665.857436399257
 31
0.0
  0
LINE
  5
7E
100
AcDbEntity
  8
0
  6
Continuous
 62
               2
100
AcDbLine
 10
1443.7424242424286
 20
1676.857436399257
 30
0.0
 11
1457.7424242424286
 21
1676.857436399257
 31
0.0
  0
LINE
  5
7F
100
AcDbEntity
  8
0
  6
Continuous
 62
               2
100
AcDbLine
 10
1428.9187768962865
 20
1677.357436399257
 30
0.0
 11
1414.3253456742918
 21
1677.357436399257
 31
0.0
  0
LINE
  5
80
100
AcDbEntity
  8
0
  6
Continuous
 62
               2
100
AcDbLine
 10
1457.7424242424286
 20
1677.8574363992625
 30
0.0
 11
1169.7166980211996
 21
1677.8574363992648
 31
0.0
  0
LINE
  5
81
100
AcDbEntity
  8
0
  6
Continuous
 62
               2
100
AcDbLine
 10
1458.2424242424286
 20
1677.3574363992625
 30
0.0
 11
1458.2424242424272
 21
1666.1110262377483
 31
0.0
  0
LINE
  5
82
100
AcDbEntity
  8
0
  6
Continuous
 62
               2
100
AcDbLine
 10
1457.6826166212918
 20
1665.9610262377487
 30
0.0
 11
1453.2424242424286
 21
1675.9314499703519
 31
0.0
  0
LINE
  5
83
100
AcDbEntity
  8
0
  6
Continuous
 62
               2
100
AcDbLine
 10
1453.2424242424286
 20
1675.9314499703519
 30
0.0
 11
1451.2424242424286
 21
1675.9314499703523
 31
0.0
  0
LINE
  5
84
100
AcDbEntity
  8
0
  6
Continuous
 62
               3
100
AcDbLine
 10
1423.9187854235433
 20
1673.8574364165202
 30
0.0
 11
1173.9187768962875
 21
1673.8574342922357
 31
0.0
  0
LINE
  5
85
100
AcDbEntity
  8
0
  6
Continuous
 62
               3
100
AcDbLine
 10
1423.9187854235436
 20
1673.8574368225827
 30
0.0
 11
1423.9187768962865
 21
1648.8574363992648
 31
0.0
  0
LINE
  5
86
100
AcDbEntity
  8
0
  6
DASHED
 62
               6
100
AcDbLine
 10
1427.9187768962865
 20
1662.5574362097154
 30
0.0
 11
1469.4187768962865
 21
1662.5574362097154
 31
0.0
  0
LINE
  5
87
100
AcDbEntity
  8
0
  6
DASHED
 62
               6
100
AcDbLine
 10
1423.9187768965612
 20
1674.8574362097174
 30
0.0
 11
1173.7166980211996
 21
1674.8574362097156
 31
0.0
  0
LINE
  5
88
100
AcDbEntity
  8
0
  6
DASHED
 62
               6
100
AcDbLine
 10
1471.7166980212
 20
1664.5574362097154
 30
0.0
 11
1471.7166980211998
 21
1672.8574362097156
 31
0.0
  0
LINE
  5
89
100
AcDbEntity
  8
0
  6
DASHED
 62
               6
100
AcDbLine
 10
1425.9187768962865
 20
1672.8574362097174
 30
0.0
 11
1425.9187768962865
 21
1664.5574362097154
 31
0.0
  0
LINE
  5
8A
100
AcDbEntity
  8
0
  6
Continuous
 62
               3
100
AcDbLine
 10
1473.9187768962877
 20
1673.8574363992648
 30
0.0
 11
1473.9187768962875
 21
1648.8574363992648
 31
0.0
  0
LINE
  5
8B
100
AcDbEntity
  8
0
  6
Continuous
 62
               3
100
AcDbLine
 10
1423.9187768962865
 20
1648.8574362973109
 30
0.0
 11
1173.9187768962875
 21
1648.8574364925603
 31
0.0
  0
LINE
  5
8C
100
AcDbEntity
  8
0
  6
Continuous
 62
               7
100
AcDbLine
 10
1423.9187785156669
 20
1653.6050954142943
 30
0.0
 11
1419.1711194840209
 21
1648.8574363992643
 31
0.0
  0
LINE
  5
8D
100
AcDbEntity
  8
0
  6
Continuous
 62
               7
100
AcDbLine
 10
1423.9187833394135
 20
1667.7472358623877
 30
0.0
 11
1405.0289838602898
 21
1648.8574363992643
 31
0.0
  0
LINE
  5
8E
100
AcDbEntity
  8
0
  6
Continuous
 62
               7
100
AcDbLine
 10
1415.8868481729039
 20
1673.8574363356097
 30
0.0
 11
1390.8868482365588
 21
1648.8574363992643
 31
0.0
  0
LINE
  5
8F
100
AcDbEntity
  8
0
  6
Continuous
 62
               7
100
AcDbLine
 10
1401.7447124304997
 20
1673.8574362169361
 30
0.0
 11
1376.7447126128279
 21
1648.8574363992643
 31
0.0
  0
LINE
  5
90
100
AcDbEntity
  8
0
  6
Continuous
 62
               7
100
AcDbLine
 10
1387.6025766880957
 20
1673.857436098263
 30
0.0
 11
1362.6025769890971
 21
1648.8574363992643
 31
0.0
  0
LINE
  5
91
100
AcDbEntity
  8
0
  6
Continuous
 62
               7
100
AcDbLine
 10
1373.4604409456915
 20
1673.8574359795898
 30
0.0
 11
1348.460441365366
 21
1648.8574363992643
 31
0.0
  0
LINE
  5
92
100
AcDbEntity
  8
0
  6
Continuous
 62
               7
100
AcDbLine
 10
1359.3183052032873
 20
1673.8574358609167
 30
0.0
 11
1334.3183053856155
 21
1648.8574360432449
 31
0.0
  0
LINE
  5
93
100
AcDbEntity
  8
0
  6
Continuous
 62
               7
100
AcDbLine
 10
1345.1761694608831
 20
1673.8574357422435
 30
0.0
 11
1320.1761697618845
 21
1648.8574360432449
 31
0.0
  0
LINE
  5
94
100
AcDbEntity
  8
0
  6
Continuous
 62
               7
100
AcDbLine
 10
1331.0340337184789
 20
1673.8574356235704
 30
0.0
 11
1306.0340344988849
 21
1648.8574364039764
 31
0.0
  0
LINE
  5
95
100
AcDbEntity
  8
0
  6
Continuous
 62
               7
100
AcDbLine
 10
1316.8918979760747
 20
1673.8574355048968
 30
0.0
 11
1291.8918988841774
 21
1648.8574364129995
 31
0.0
  0
LINE
  5
96
100
AcDbEntity
  8
0
  6
Continuous
 62
               4
100
AcDbLine
 10
1758.2424242424322
 20
1683.3574363992625
 30
0.0
 11
1758.2424242424322
 21
1779.857436399293
 31
0.0
  0
LINE
  5
97
100
AcDbEntity
  8
0
  6
Continuous
 62
               4
100
AcDbLine
 10
1458.2424242424286
 20
1683.3574363992625
 30
0.0
 11
1458.2424242424286
 21
1779.857436399293
 31
0.0
  0
LINE
  5
98
100
AcDbEntity
  8
0
  6
Continuous
 62
               4
100
AcDbLine
 10
1758.2424242424322
 20
1776.857436399293
 30
0.0
 11
1938.2424242424418
 21
1776.857436399293
 31
0.0
  0
LINE
  5
99
100
AcDbEntity
  8
0
  6
Continuous
 62
               4
100
AcDbLine
 10
1938.2424242424418
 20
1776.857436399293
 30
0.0
 11
1929.3791544653318
 21
1775.2946028002907
 31
0.0
  0
LINE
  5
9A
100
AcDbEntity
  8
0
  6
Continuous
 62
               4
100
AcDbLine
 10
1938.2424242424418
 20
1776.857436399293
 30
0.0
 11
1929.3791544653318
 21
1778.4202699982957
 31
0.0
  0
LINE
  5
9B
100
AcDbEntity
  8
0
  6
Continuous
 62
               4
100
AcDbLine
 10
1158.2424242424283
 20
1776.857436399293
 30
0.0
 11
1038.2424242424163
 21
1776.857436399293
 31
0.0
  0
LINE
  5
9C
100
AcDbEntity
  8
0
  6
Continuous
 62
               4
100
AcDbLine
 10
1038.2424242424163
 20
1776.857436399293
 30
0.0
 11
1047.1056940195263
 21
1775.2946028002907
 31
0.0
  0
LINE
  5
9D
100
AcDbEntity
  8
0
  6
Continuous
 62
               4
100
AcDbLine
 10
1038.2424242424163
 20
1776.857436399293
 30
0.0
 11
1047.1056940195263
 21
1778.4202699982957
 31
0.0
  0
LINE
  5
9E
100
AcDbEntity
  8
0
  6
DASHDOT
 62
               4
100
AcDbLine
 10
1488.2424242424381
 20
1656.357436399267
 30
0.0
 11
1488.2424242424283
 21
1501.3574363992921
 31
0.0
  0
LINE
  5
9F
100
AcDbEntity
  8
0
  6
Continuous
 62
               2
100
AcDbLine
 10
1486.7424242424308
 20
1590.857436399268
 30
0.0
 11
1189.7424242424272
 21
1590.857436399268
 31
0.0
  0
LINE
  5
A0
100
AcDbEntity
  8
0
  6
Continuous
 62
               2
100
AcDbLine
 10
1786.742424242434
 20
1590.8574363992411
 30
0.0
 11
1489.7424242424293
 21
1590.8574363992707
 31
0.0
  0
LINE
  5
A1
100
AcDbEntity
  8
0
  6
Continuous
 62
               2
100
AcDbLine
 10
1470.7424242424349
 20
1644.8574363992698
 30
0.0
 11
1470.7424242424336
 21
1631.8574363992693
 31
0.0
  0
LINE
  5
A2
100
AcDbEntity
  8
0
  6
Continuous
 62
               2
100
AcDbLine
 10
1487.7424242424308
 20
1591.857436399268
 30
0.0
 11
1487.7424242424308
 21
1644.857436399268
 31
0.0
  0
LINE
  5
A3
100
AcDbEntity
  8
0
  6
Continuous
 62
               2
100
AcDbLine
 10
1488.7424242424295
 20
1591.8574363992707
 30
0.0
 11
1488.7424242424295
 21
1645.857436399268
 31
0.0
  0
LINE
  5
A4
100
AcDbEntity
  8
0
  6
Continuous
 62
               2
100
AcDbLine
 10
1487.7424242424354
 20
1644.857436399268
 30
0.0
 11
1470.7424242424349
 21
1644.8574363992698
 31
0.0
  0
LINE
  5
A5
100
AcDbEntity
  8
0
  6
DASHDOT
 62
               4
100
AcDbLine
 10
1788.2424242424413
 20
1656.3574363992411
 30
0.0
 11
1788.2424242424318
 21
1501.3574363992921
 31
0.0
  0
LINE
  5
A6
100
AcDbEntity
  8
0
  6
Continuous
 62
               2
100
AcDbLine
 10
1789.7424242424327
 20
1590.857436399267
 30
0.0
 11
1938.2424242424413
 21
1590.8574363992543
 31
0.0
  0
LINE
  5
A7
100
AcDbEntity
  8
0
  6
Continuous
 62
               2
100
AcDbLine
 10
1770.7424242424383
 20
1644.8574363992698
 30
0.0
 11
1770.7424242424368
 21
1631.8574363992693
 31
0.0
  0
LINE
  5
A8
100
AcDbEntity
  8
0
  6
Continuous
 62
               2
100
AcDbLine
 10
1787.742424242434
 20
1591.8574363992411
 30
0.0
 11
1787.742424242434
 21
1644.857436399268
 31
0.0
  0
LINE
  5
A9
100
AcDbEntity
  8
0
  6
Continuous
 62
               2
100
AcDbLine
 10
1788.7424242424327
 20
1591.857436399267
 30
0.0
 11
1788.7424242424327
 21
1645.857436399268
 31
0.0
  0
LINE
  5
AA
100
AcDbEntity
  8
0
  6
Continuous
 62
               2
100
AcDbLine
 10
1787.742424242439
 20
1644.857436399268
 30
0.0
 11
1770.7424242424383
 21
1644.8574363992698
 31
0.0
  0
LINE
  5
AB
100
AcDbEntity
  8
0
  6
Continuous
 62
               4
100
AcDbLine
 10
1798.7424242424327
 20
1640.8574363992666
 30
0.0
 11
1938.2424242424413
 21
1640.8574363992548
 31
0.0
  0
LINE
  5
AC
100
AcDbEntity
  8
0
  6
Continuous
 62
               4
100
AcDbLine
 10
1798.7424242424327
 20
1590.8574363992661
 30
0.0
 11
1798.7424242424327
 21
1640.8574363992666
 31
0.0
  0
LINE
  5
AD
100
AcDbEntity
  8
0
  6
Continuous
 62
               4
100
AcDbLine
 10
1498.7424242424293
 20
1640.8574363992666
 30
0.0
 11
1767.7424242424358
 21
1640.8574363992434
 31
0.0
  0
LINE
  5
AE
100
AcDbEntity
  8
0
  6
Continuous
 62
               4
100
AcDbLine
 10
1498.7424242424293
 20
1590.8574363992661
 30
0.0
 11
1498.7424242424293
 21
1640.8574363992666
 31
0.0
  0
LINE
  5
AF
100
AcDbEntity
  8
0
  6
Continuous
 62
               4
100
AcDbLine
 10
1767.7424242424358
 20
1640.8574363992434
 30
0.0
 11
1767.7424242424358
 21
1590.8574363992429
 31
0.0
  0
LINE
  5
B0
100
AcDbEntity
  8
0
  6
Continuous
 62
               4
100
AcDbLine
 10
1467.7424242424327
 20
1640.8574363992693
 30
0.0
 11
1198.742424242427
 21
1640.8574363992693
 31
0.0
  0
LINE
  5
B1
100
AcDbEntity
  8
0
  6
Continuous
 62
               4
100
AcDbLine
 10
1467.7424242424327
 20
1640.8574363992693
 30
0.0
 11
1467.7424242424327
 21
1590.8574363992689
 31
0.0
  0
LINE
  5
B2
100
AcDbEntity
  8
0
  6
Continuous
 62
               4
100
AcDbLine
 10
1488.2424242424283
 20
1504.3574363992921
 30
0.0
 11
1788.2424242424318
 21
1504.3574363992921
 31
0.0
  0
LINE
  5
B3
100
AcDbEntity
  8
0
  6
Continuous
 62
               4
100
AcDbLine
 10
1788.2424242424318
 20
1504.3574363992921
 30
0.0
 11
1938.2424242424413
 21
1504.3574363992921
 31
0.0
  0
LINE
  5
B4
100
AcDbEntity
  8
0
  6
Continuous
 62
               4
100
AcDbLine
 10
1938.2424242424413
 20
1504.3574363992921
 30
0.0
 11
1929.3791544653318
 21
1502.7946028002898
 31
0.0
  0
LINE
  5
B5
100
AcDbEntity
  8
0
  6
Continuous
 62
               4
100
AcDbLine
 10
1938.2424242424413
 20
1504.3574363992921
 30
0.0
 11
1929.3791544653318
 21
1505.9202699982943
 31
0.0
  0
LINE
  5
B6
100
AcDbEntity
  8
0
  6
Continuous
 62
               7
100
AcDbLine
 10
1517.8969478979191
 20
1673.8574347928575
 30
0.0
 11
1492.8969495055053
 21
1648.8574364004439
 31
0.0
  0
LINE
  5
B7
100
AcDbEntity
  8
0
  6
DASHDOT
 62
               4
100
AcDbLine
 10
2288.2424242424095
 20
1501.3574363992429
 30
0.0
 11
2288.2424242424167
 21
1656.357436399242
 31
0.0
  0
LINE
  5
B8
100
AcDbEntity
  8
0
  6
Continuous
 62
               2
100
AcDbLine
 10
2286.7424242424095
 20
1590.857436399242
 30
0.0
 11
2138.2424242424167
 21
1590.8574363992548
 31
0.0
  0
LINE
  5
B9
100
AcDbEntity
  8
0
  6
Continuous
 62
               2
100
AcDbLine
 10
2586.7424242424095
 20
1590.8574363992161
 30
0.0
 11
2289.7424242424081
 21
1590.857436399242
 31
0.0
  0
LINE
  5
BA
100
AcDbEntity
  8
0
  6
Continuous
 62
               2
100
AcDbLine
 10
2268.7424242424131
 20
1645.8574363992448
 30
0.0
 11
2268.7424242424117
 21
1631.8574363992443
 31
0.0
  0
LINE
  5
BB
100
AcDbEntity
  8
0
  6
Continuous
 62
               2
100
AcDbLine
 10
2270.742424242414
 20
1644.8574363992443
 30
0.0
 11
2270.7424242424127
 21
1631.8574363992443
 31
0.0
  0
LINE
  5
BC
100
AcDbEntity
  8
0
  6
Continuous
 62
               2
100
AcDbLine
 10
2287.7424242424095
 20
1591.857436399242
 30
0.0
 11
2287.7424242424095
 21
1644.8574363992429
 31
0.0
  0
LINE
  5
BD
100
AcDbEntity
  8
0
  6
Continuous
 62
               2
100
AcDbLine
 10
2288.7424242424081
 20
1591.857436399242
 30
0.0
 11
2288.7424242424081
 21
1645.8574363992429
 31
0.0
  0
LINE
  5
BE
100
AcDbEntity
  8
0
  6
Continuous
 62
               2
100
AcDbLine
 10
2288.7424242424131
 20
1645.8574363992429
 30
0.0
 11
2268.7424242424131
 21
1645.8574363992448
 31
0.0
  0
LINE
  5
BF
100
AcDbEntity
  8
0
  6
Continuous
 62
               2
100
AcDbLine
 10
2287.7424242424145
 20
1644.8574363992429
 30
0.0
 11
2270.742424242414
 21
1644.8574363992443
 31
0.0
  0
LINE
  5
C0
100
AcDbEntity
  8
0
  6
DASHDOT
 62
               4
100
AcDbLine
 10
2588.2424242424072
 20
1501.3574363992411
 30
0.0
 11
2588.2424242424167
 21
1656.3574363992161
 31
0.0
  0
LINE
  5
C1
100
AcDbEntity
  8
0
  6
Continuous
 62
               2
100
AcDbLine
 10
2886.7424242424104
 20
1590.8574363992161
 30
0.0
 11
2589.7424242424081
 21
1590.857436399242
 31
0.0
  0
LINE
  5
C2
100
AcDbEntity
  8
0
  6
Continuous
 62
               2
100
AcDbLine
 10
2568.7424242424131
 20
1645.8574363992448
 30
0.0
 11
2568.7424242424117
 21
1631.8574363992443
 31
0.0
  0
LINE
  5
C3
100
AcDbEntity
  8
0
  6
Continuous
 62
               2
100
AcDbLine
 10
2570.742424242414
 20
1644.8574363992443
 30
0.0
 11
2570.7424242424127
 21
1631.8574363992443
 31
0.0
  0
LINE
  5
C4
100
AcDbEntity
  8
0
  6
Continuous
 62
               2
100
AcDbLine
 10
2587.7424242424095
 20
1591.8574363992161
 30
0.0
 11
2587.7424242424095
 21
1644.8574363992429
 31
0.0
  0
LINE
  5
C5
100
AcDbEntity
  8
0
  6
Continuous
 62
               2
100
AcDbLine
 10
2588.7424242424081
 20
1591.857436399242
 30
0.0
 11
2588.7424242424081
 21
1645.8574363992429
 31
0.0
  0
LINE
  5
C6
100
AcDbEntity
  8
0
  6
Continuous
 62
               2
100
AcDbLine
 10
2588.7424242424131
 20
1645.8574363992429
 30
0.0
 11
2568.7424242424131
 21
1645.8574363992448
 31
0.0
  0
LINE
  5
C7
100
AcDbEntity
  8
0
  6
Continuous
 62
               2
100
AcDbLine
 10
2587.7424242424145
 20
1644.8574363992429
 30
0.0
 11
2570.742424242414
 21
1644.8574363992443
 31
0.0
  0
LINE
  5
C8
100
AcDbEntity
  8
0
  6
DASHDOT
 62
               4
100
AcDbLine
 10
2888.2424242424081
 20
1501.3574363992411
 30
0.0
 11
2888.2424242424177
 21
1656.3574363991902
 31
0.0
  0
LINE
  5
C9
100
AcDbEntity
  8
0
  6
Continuous
 62
               2
100
AcDbLine
 10
2889.742424242409
 20
1590.857436399242
 30
0.0
 11
3038.2424242424177
 21
1590.8574363992288
 31
0.0
  0
LINE
  5
CA
100
AcDbEntity
  8
0
  6
Continuous
 62
               2
100
AcDbLine
 10
2868.7424242424136
 20
1645.8574363992448
 30
0.0
 11
2868.7424242424122
 21
1631.8574363992443
 31
0.0
  0
LINE
  5
CB
100
AcDbEntity
  8
0
  6
Continuous
 62
               2
100
AcDbLine
 10
2870.7424242424145
 20
1644.8574363992443
 30
0.0
 11
2870.7424242424131
 21
1631.8574363992443
 31
0.0
  0
LINE
  5
CC
100
AcDbEntity
  8
0
  6
Continuous
 62
               2
100
AcDbLine
 10
2887.7424242424104
 20
1591.8574363992161
 30
0.0
 11
2887.7424242424104
 21
1644.8574363992429
 31
0.0
  0
LINE
  5
CD
100
AcDbEntity
  8
0
  6
Continuous
 62
               2
100
AcDbLine
 10
2888.742424242409
 20
1591.857436399242
 30
0.0
 11
2888.742424242409
 21
1645.8574363992429
 31
0.0
  0
LINE
  5
CE
100
AcDbEntity
  8
0
  6
Continuous
 62
               2
100
AcDbLine
 10
2888.7424242424136
 20
1645.8574363992429
 30
0.0
 11
2868.7424242424136
 21
1645.8574363992448
 31
0.0
  0
LINE
  5
CF
100
AcDbEntity
  8
0
  6
Continuous
 62
               2
100
AcDbLine
 10
2887.7424242424149
 20
1644.8574363992429
 30
0.0
 11
2870.7424242424145
 21
1644.8574363992443
 31
0.0
  0
LINE
  5
D0
100
AcDbEntity
  8
0
  6
Continuous
 62
               3
100
AcDbLine
 10
2138.2424242424167
 20
1656.8574363992548
 30
0.0
 11
3038.2424242424227
 21
1656.857436399177
 31
0.0
  0
LINE
  5
D1
100
AcDbEntity
  8
0
  6
Continuous
 62
               3
100
AcDbLine
 10
2138.2424242424167
 20
1681.8574363992525
 30
0.0
 11
3038.2424242424249
 21
1681.8574363991747
 31
0.0
  0
LINE
  5
D2
100
AcDbEntity
  8
0
  6
DASHED
 62
               6
100
AcDbLine
 10
2138.2424242424167
 20
1682.8574363992525
 30
0.0
 11
3038.2424242424249
 21
1682.8574363991747
 31
0.0
  0
LINE
  5
D3
100
AcDbEntity
  8
0
  6
Continuous
 62
               4
100
AcDbLine
 10
2898.742424242409
 20
1640.8574363992411
 30
0.0
 11
3038.2424242424177
 21
1640.8574363992293
 31
0.0
  0
LINE
  5
D4
100
AcDbEntity
  8
0
  6
Continuous
 62
               4
100
AcDbLine
 10
2598.7424242424081
 20
1640.8574363992416
 30
0.0
 11
2867.7424242424122
 21
1640.8574363992184
 31
0.0
  0
LINE
  5
D5
100
AcDbEntity
  8
0
  6
Continuous
 62
               4
100
AcDbLine
 10
2598.7424242424081
 20
1590.8574363992411
 30
0.0
 11
2598.7424242424081
 21
1640.8574363992416
 31
0.0
  0
LINE
  5
D6
100
AcDbEntity
  8
0
  6
Continuous
 62
               4
100
AcDbLine
 10
2867.7424242424122
 20
1640.8574363992184
 30
0.0
 11
2867.7424242424122
 21
1590.8574363992179
 31
0.0
  0
LINE
  5
D7
100
AcDbEntity
  8
0
  6
Continuous
 62
               4
100
AcDbLine
 10
2898.742424242409
 20
1640.8574363992411
 30
0.0
 11
2898.742424242409
 21
1590.8574363992411
 31
0.0
  0
LINE
  5
D8
100
AcDbEntity
  8
0
  6
Continuous
 62
               7
100
AcDbLine
 10
2994.663780479656
 20
1656.8574363991784
 30
0.0
 11
3019.6637804796537
 21
1681.8574363991761
 31
0.0
  0
LINE
  5
D9
100
AcDbEntity
  8
0
  6
Continuous
 62
               7
100
AcDbLine
 10
3005.521644855924
 20
1681.8574363991775
 30
0.0
 11
2980.5216448559263
 21
1656.8574363991797
 31
0.0
  0
LINE
  5
DA
100
AcDbEntity
  8
0
  6
Continuous
 62
               7
100
AcDbLine
 10
2991.3795092321943
 20
1681.8574363991788
 30
0.0
 11
2966.3795092321966
 21
1656.8574363991806
 31
0.0
  0
LINE
  5
DB
100
AcDbEntity
  8
0
  6
Continuous
 62
               7
100
AcDbLine
 10
2977.2373736084646
 20
1681.8574363991797
 30
0.0
 11
2952.2373736084669
 21
1656.857436399182
 31
0.0
  0
LINE
  5
DC
100
AcDbEntity
  8
0
  6
Continuous
 62
               7
100
AcDbLine
 10
2963.0952379847349
 20
1681.8574363991811
 30
0.0
 11
2938.0952379847372
 21
1656.8574363991834
 31
0.0
  0
LINE
  5
DD
100
AcDbEntity
  8
0
  6
Continuous
 62
               7
100
AcDbLine
 10
2948.9531023610052
 20
1681.8574363991825
 30
0.0
 11
2923.9531023610075
 21
1656.8574363991843
 31
0.0
  0
LINE
  5
DE
100
AcDbEntity
  8
0
  6
Continuous
 62
               7
100
AcDbLine
 10
2934.8109667372755
 20
1681.8574363991834
 30
0.0
 11
2909.8109667372778
 21
1656.8574363991856
 31
0.0
  0
LINE
  5
DF
100
AcDbEntity
  8
0
  6
Continuous
 62
               7
100
AcDbLine
 10
2920.6688311135458
 20
1681.8574363991847
 30
0.0
 11
2895.6688311135476
 21
1656.857436399187
 31
0.0
  0
LINE
  5
E0
100
AcDbEntity
  8
0
  6
Continuous
 62
               7
100
AcDbLine
 10
2906.5266954898161
 20
1681.8574363991861
 30
0.0
 11
2881.5266954898179
 21
1656.8574363991879
 31
0.0
  0
LINE
  5
E1
100
AcDbEntity
  8
0
  6
Continuous
 62
               7
100
AcDbLine
 10
2892.3845598660864
 20
1681.857436399187
 30
0.0
 11
2867.3845598660882
 21
1656.8574363991893
 31
0.0
  0
LINE
  5
E2
100
AcDbEntity
  8
0
  6
Continuous
 62
               7
100
AcDbLine
 10
2878.2424242423567
 20
1681.8574363991884
 30
0.0
 11
2853.2424242423585
 21
1656.8574363991906
 31
0.0
  0
LINE
  5
E3
100
AcDbEntity
  8
0
  6
Continuous
 62
               7
100
AcDbLine
 10
2864.1002886186266
 20
1681.8574363991897
 30
0.0
 11
2839.1002886186288
 21
1656.857436399192
 31
0.0
  0
LINE
  5
E4
100
AcDbEntity
  8
0
  6
Continuous
 62
               7
100
AcDbLine
 10
2849.9581529948969
 20
1681.8574363991911
 30
0.0
 11
2824.9581529948991
 21
1656.8574363991929
 31
0.0
  0
LINE
  5
E5
100
AcDbEntity
  8
0
  6
Continuous
 62
               7
100
AcDbLine
 10
2835.8160173711672
 20
1681.857436399192
 30
0.0
 11
2810.8160173711694
 21
1656.8574363991943
 31
0.0
  0
LINE
  5
E6
100
AcDbEntity
  8
0
  6
Continuous
 62
               7
100
AcDbLine
 10
2821.6738817474375
 20
1681.8574363991934
 30
0.0
 11
2796.6738817474397
 21
1656.8574363991956
 31
0.0
  0
LINE
  5
E7
100
AcDbEntity
  8
0
  6
Continuous
 62
               7
100
AcDbLine
 10
2807.5317461237078
 20
1681.8574363991947
 30
0.0
 11
2782.53174612371
 21
1656.8574363991966
 31
0.0
  0
LINE
  5
E8
100
AcDbEntity
  8
0
  6
Continuous
 62
               7
100
AcDbLine
 10
2793.3896104999781
 20
1681.8574363991956
 30
0.0
 11
2768.3896104999803
 21
1656.8574363991979
 31
0.0
  0
LINE
  5
E9
100
AcDbEntity
  8
0
  6
Continuous
 62
               7
100
AcDbLine
 10
2779.2474748762484
 20
1681.857436399197
 30
0.0
 11
2754.2474748762502
 21
1656.8574363991993
 31
0.0
  0
LINE
  5
EA
100
AcDbEntity
  8
0
  6
Continuous
 62
               7
100
AcDbLine
 10
2765.1053392525182
 20
1681.8574363991984
 30
0.0
 11
2740.10533925252
 21
1656.8574363992002
 31
0.0
  0
LINE
  5
EB
100
AcDbEntity
  8
0
  6
Continuous
 62
               7
100
AcDbLine
 10
2750.9632036287885
 20
1681.8574363991993
 30
0.0
 11
2725.9632036287903
 21
1656.8574363992016
 31
0.0
  0
LINE
  5
EC
100
AcDbEntity
  8
0
  6
Continuous
 62
               7
100
AcDbLine
 10
2736.8210680050584
 20
1681.8574363992007
 30
0.0
 11
2711.8210680050606
 21
1656.8574363992029
 31
0.0
  0
LINE
  5
ED
100
AcDbEntity
  8
0
  6
Continuous
 62
               7
100
AcDbLine
 10
2722.6789323813287
 20
1681.857436399202
 30
0.0
 11
2697.6789323813309
 21
1656.8574363992038
 31
0.0
  0
LINE
  5
EE
100
AcDbEntity
  8
0
  6
Continuous
 62
               7
100
AcDbLine
 10
2708.5367967575989
 20
1681.8574363992029
 30
0.0
 11
2683.5367967576012
 21
1656.8574363992052
 31
0.0
  0
LINE
  5
EF
100
AcDbEntity
  8
0
  6
Continuous
 62
               7
100
AcDbLine
 10
2694.3946611338692
 20
1681.8574363992043
 30
0.0
 11
2669.3946611338715
 21
1656.8574363992066
 31
0.0
  0
LINE
  5
F0
100
AcDbEntity
  8
0
  6
Continuous
 62
               7
100
AcDbLine
 10
2680.2525255101395
 20
1681.8574363992057
 30
0.0
 11
2655.2525255101418
 21
1656.8574363992075
 31
0.0
  0
LINE
  5
F1
100
AcDbEntity
  8
0
  6
Continuous
 62
               7
100
AcDbLine
 10
2666.1103898864098
 20
1681.8574363992066
 30
0.0
 11
2641.1103898864121
 21
1656.8574363992088
 31
0.0
  0
LINE
  5
F2
100
AcDbEntity
  8
0
  6
Continuous
 62
               7
100
AcDbLine
 10
2651.9682542626801
 20
1681.8574363992079
 30
0.0
 11
2626.9682542626824
 21
1656.8574363992102
 31
0.0
  0
LINE
  5
F3
100
AcDbEntity
  8
0
  6
Continuous
 62
               7
100
AcDbLine
 10
2637.8261186389504
 20
1681.8574363992093
 30
0.0
 11
2612.8261186389527
 21
1656.8574363992116
 31
0.0
  0
LINE
  5
F4
100
AcDbEntity
  8
0
  6
Continuous
 62
               7
100
AcDbLine
 10
2623.6839830152207
 20
1681.8574363992102
 30
0.0
 11
2598.683983015223
 21
1656.8574363992125
 31
0.0
  0
LINE
  5
F5
100
AcDbEntity
  8
0
  6
Continuous
 62
               7
100
AcDbLine
 10
2609.541847391491
 20
1681.8574363992116
 30
0.0
 11
2584.5418473914929
 21
1656.8574363992138
 31
0.0
  0
LINE
  5
F6
100
AcDbEntity
  8
0
  6
Continuous
 62
               7
100
AcDbLine
 10
2595.3997117677613
 20
1681.8574363992129
 30
0.0
 11
2570.3997117677632
 21
1656.8574363992152
 31
0.0
  0
LINE
  5
F7
100
AcDbEntity
  8
0
  6
Continuous
 62
               7
100
AcDbLine
 10
2581.2575761440316
 20
1681.8574363992143
 30
0.0
 11
2556.2575761440335
 21
1656.8574363992161
 31
0.0
  0
LINE
  5
F8
100
AcDbEntity
  8
0
  6
Continuous
 62
               7
100
AcDbLine
 10
2567.1154405203019
 20
1681.8574363992152
 30
0.0
 11
2542.1154405203038
 21
1656.8574363992175
 31
0.0
  0
LINE
  5
F9
100
AcDbEntity
  8
0
  6
Continuous
 62
               7
100
AcDbLine
 10
2552.9733048965722
 20
1681.8574363992166
 30
0.0
 11
2527.9733048965741
 21
1656.8574363992188
 31
0.0
  0
LINE
  5
FA
100
AcDbEntity
  8
0
  6
Continuous
 62
               7
100
AcDbLine
 10
2538.8311692728421
 20
1681.8574363992179
 30
0.0
 11
2513.8311692728444
 21
1656.8574363992198
 31
0.0
  0
LINE
  5
FB
100
AcDbEntity
  8
0
  6
Continuous
 62
               7
100
AcDbLine
 10
2524.6890336491124
 20
1681.8574363992188
 30
0.0
 11
2499.6890336491147
 21
1656.8574363992211
 31
0.0
  0
LINE
  5
FC
100
AcDbEntity
  8
0
  6
Continuous
 62
               7
100
AcDbLine
 10
2510.5468980253827
 20
1681.8574363992202
 30
0.0
 11
2485.546898025385
 21
1656.8574363992225
 31
0.0
  0
LINE
  5
FD
100
AcDbEntity
  8
0
  6
Continuous
 62
               7
100
AcDbLine
 10
2496.404762401653
 20
1681.8574363992216
 30
0.0
 11
2471.4047624016553
 21
1656.8574363992234
 31
0.0
  0
LINE
  5
FE
100
AcDbEntity
  8
0
  6
Continuous
 62
               7
100
AcDbLine
 10
2482.2626267779233
 20
1681.8574363992225
 30
0.0
 11
2457.2626267779256
 21
1656.8574363992248
 31
0.0
  0
LINE
  5
FF
100
AcDbEntity
  8
0
  6
Continuous
 62
               7
100
AcDbLine
 10
2468.1204911541936
 20
1681.8574363992238
 30
0.0
 11
2443.1204911541959
 21
1656.8574363992261
 31
0.0
  0
LINE
  5
100
100
AcDbEntity
  8
0
  6
Continuous
 62
               7
100
AcDbLine
 10
2453.9783555304639
 20
1681.8574363992252
 30
0.0
 11
2428.9783555304662
 21
1656.857436399227
 31
0.0
  0
LINE
  5
101
100
AcDbEntity
  8
0
  6
Continuous
 62
               7
100
AcDbLine
 10
2439.8362199067342
 20
1681.8574363992261
 30
0.0
 11
2414.8362199067365
 21
1656.8574363992284
 31
0.0
  0
LINE
  5
102
100
AcDbEntity
  8
0
  6
Continuous
 62
               7
100
AcDbLine
 10
2425.6940842830045
 20
1681.8574363992275
 30
0.0
 11
2400.6940842830068
 21
1656.8574363992298
 31
0.0
  0
LINE
  5
103
100
AcDbEntity
  8
0
  6
Continuous
 62
               7
100
AcDbLine
 10
2411.5519486592748
 20
1681.8574363992288
 30
0.0
 11
2386.5519486592771
 21
1656.8574363992307
 31
0.0
  0
LINE
  5
104
100
AcDbEntity
  8
0
  6
Continuous
 62
               7
100
AcDbLine
 10
2397.4098130355451
 20
1681.8574363992298
 30
0.0
 11
2372.4098130355469
 21
1656.857436399232
 31
0.0
  0
LINE
  5
105
100
AcDbEntity
  8
0
  6
Continuous
 62
               7
100
AcDbLine
 10
2383.2676774118154
 20
1681.8574363992311
 30
0.0
 11
2358.2676774118172
 21
1656.8574363992334
 31
0.0
  0
LINE
  5
106
100
AcDbEntity
  8
0
  6
Continuous
 62
               7
100
AcDbLine
 10
2369.1255417880857
 20
1681.8574363992325
 30
0.0
 11
2344.1255417880875
 21
1656.8574363992348
 31
0.0
  0
LINE
  5
107
100
AcDbEntity
  8
0
  6
Continuous
 62
               7
100
AcDbLine
 10
2354.983406164356
 20
1681.8574363992334
 30
0.0
 11
2329.9834061643578
 21
1656.8574363992357
 31
0.0
  0
LINE
  5
108
100
AcDbEntity
  8
0
  6
Continuous
 62
               7
100
AcDbLine
 10
2340.8412705406263
 20
1681.8574363992348
 30
0.0
 11
2315.8412705406281
 21
1656.857436399237
 31
0.0
  0
LINE
  5
109
100
AcDbEntity
  8
0
  6
Continuous
 62
               7
100
AcDbLine
 10
2326.6991349168961
 20
1681.8574363992361
 30
0.0
 11
2301.6991349168984
 21
1656.8574363992384
 31
0.0
  0
LINE
  5
10A
100
AcDbEntity
  8
0
  6
Continuous
 62
               7
100
AcDbLine
 10
2312.5569992931664
 20
1681.8574363992375
 30
0.0
 11
2287.5569992931687
 21
1656.8574363992393
 31
0.0
  0
LINE
  5
10B
100
AcDbEntity
  8
0
  6
Continuous
 62
               7
100
AcDbLine
 10
2298.4148636694367
 20
1681.8574363992384
 30
0.0
 11
2273.414863669439
 21
1656.8574363992407
 31
0.0
  0
LINE
  5
10C
100
AcDbEntity
  8
0
  6
Continuous
 62
               7
100
AcDbLine
 10
2284.272728045707
 20
1681.8574363992398
 30
0.0
 11
2259.2727280457093
 21
1656.857436399242
 31
0.0
  0
LINE
  5
10D
100
AcDbEntity
  8
0
  6
Continuous
 62
               7
100
AcDbLine
 10
2270.1305924219773
 20
1681.8574363992411
 30
0.0
 11
2245.1305924219796
 21
1656.8574363992429
 31
0.0
  0
LINE
  5
10E
100
AcDbEntity
  8
0
  6
Continuous
 62
               7
100
AcDbLine
 10
2255.9884567982476
 20
1681.857436399242
 30
0.0
 11
2230.9884567982499
 21
1656.8574363992443
 31
0.0
  0
LINE
  5
10F
100
AcDbEntity
  8
0
  6
Continuous
 62
               7
100
AcDbLine
 10
2241.8463211745179
 20
1681.8574363992434
 30
0.0
 11
2216.8463211745202
 21
1656.8574363992457
 31
0.0
  0
LINE
  5
110
100
AcDbEntity
  8
0
  6
Continuous
 62
               7
100
AcDbLine
 10
2227.7041855507882
 20
1681.8574363992448
 30
0.0
 11
2202.7041855507905
 21
1656.8574363992466
 31
0.0
  0
LINE
  5
111
100
AcDbEntity
  8
0
  6
Continuous
 62
               7
100
AcDbLine
 10
2213.5620499270585
 20
1681.8574363992457
 30
0.0
 11
2188.5620499270608
 21
1656.8574363992479
 31
0.0
  0
LINE
  5
112
100
AcDbEntity
  8
0
  6
Continuous
 62
               7
100
AcDbLine
 10
2199.4199143033288
 20
1681.857436399247
 30
0.0
 11
2174.4199143033306
 21
1656.8574363992493
 31
0.0
  0
LINE
  5
113
100
AcDbEntity
  8
0
  6
Continuous
 62
               7
100
AcDbLine
 10
2185.2777786795991
 20
1681.8574363992484
 30
0.0
 11
2160.2777786796009
 21
1656.8574363992502
 31
0.0
  0
LINE
  5
114
100
AcDbEntity
  8
0
  6
Continuous
 62
               7
100
AcDbLine
 10
2171.1356430558694
 20
1681.8574363992493
 30
0.0
 11
2146.1356430558712
 21
1656.8574363992516
 31
0.0
  0
LINE
  5
115
100
AcDbEntity
  8
0
  6
Continuous
 62
               7
100
AcDbLine
 10
2156.9935074321397
 20
1681.8574363992507
 30
0.0
 11
2138.2424242424167
 21
1663.1063532095282
 31
0.0
  0
LINE
  5
116
100
AcDbEntity
  8
0
  6
Continuous
 62
               7
100
AcDbLine
 10
2142.85137180841
 20
1681.857436399252
 30
0.0
 11
2138.2424242424167
 21
1677.2484888332592
 31
0.0
  0
LINE
  5
117
100
AcDbEntity
  8
0
  6
Continuous
 62
               4
100
AcDbLine
 10
2298.7424242424081
 20
1640.8574363992411
 30
0.0
 11
2567.7424242424117
 21
1640.8574363992179
 31
0.0
  0
LINE
  5
118
100
AcDbEntity
  8
0
  6
Continuous
 62
               4
100
AcDbLine
 10
2298.7424242424081
 20
1590.8574363992411
 30
0.0
 11
2298.7424242424081
 21
1640.8574363992411
 31
0.0
  0
LINE
  5
119
100
AcDbEntity
  8
0
  6
Continuous
 62
               4
100
AcDbLine
 10
2567.7424242424117
 20
1640.8574363992179
 30
0.0
 11
2567.7424242424117
 21
1590.8574363992179
 31
0.0
  0
LINE
  5
11A
100
AcDbEntity
  8
0
  6
Continuous
 62
               4
100
AcDbLine
 10
2267.7424242424117
 20
1640.8574363992443
 30
0.0
 11
2138.2424242424167
 21
1640.8574363992675
 31
0.0
  0
LINE
  5
11B
100
AcDbEntity
  8
0
  6
Continuous
 62
               4
100
AcDbLine
 10
2267.7424242424117
 20
1640.8574363992443
 30
0.0
 11
2267.7424242424117
 21
1590.8574363992439
 31
0.0
  0
LINE
  5
11C
100
AcDbEntity
  8
0
  6
DIVIDE
 62
               6
100
AcDbLine
 10
3038.2424242424177
 20
1590.3574363992029
 30
0.0
 11
2138.2424242424167
 21
1590.3574363992411
 31
0.0
  0
LINE
  5
11D
100
AcDbEntity
  8
0
  6
DIVIDE
 62
               6
100
AcDbLine
 10
3038.2424242424177
 20
1540.3574363992029
 30
0.0
 11
2138.2424242424167
 21
1540.3574363992411
 31
0.0
  0
LINE
  5
11E
100
AcDbEntity
  8
0
  6
Continuous
 62
               4
100
AcDbLine
 10
2773.475893441112
 20
1900.3313543627919
 30
0.0
 11
2773.475893441112
 21
1590.8574363992234
 31
0.0
  0
LINE
  5
11F
100
AcDbEntity
  8
0
  6
Continuous
 62
               4
100
AcDbLine
 10
2773.475893441112
 20
1900.3313543627919
 30
0.0
 11
2418.1941841838361
 21
1900.3313543627919
 31
0.0
  0
LINE
  5
120
100
AcDbEntity
  8
0
  6
Continuous
 62
               4
100
AcDbLine
 10
2773.475893441112
 20
1885.3313543627919
 30
0.0
 11
2418.1941841838361
 21
1885.3313543627919
 31
0.0
  0
LINE
  5
121
100
AcDbEntity
  8
0
  6
Continuous
 62
               4
100
AcDbLine
 10
2773.475893441112
 20
1870.3313543627919
 30
0.0
 11
2418.1941841838361
 21
1870.3313543627919
 31
0.0
  0
LINE
  5
122
100
AcDbEntity
  8
0
  6
Continuous
 62
               4
100
AcDbLine
 10
2205.9924242424177
 20
1681.8574363992548
 30
0.0
 11
2205.9924242424177
 21
1656.8574363992548
 31
0.0
  0
LINE
  5
123
100
AcDbEntity
  8
0
  6
Continuous
 62
               4
100
AcDbLine
 10
2262.7424242424131
 20
1645.8574363992448
 30
0.0
 11
2202.9924242424177
 21
1645.8574363992448
 31
0.0
  0
LINE
  5
124
100
AcDbEntity
  8
0
  6
Continuous
 62
               4
100
AcDbLine
 10
2205.9924242424177
 20
1645.8574363992448
 30
0.0
 11
2205.9924242424177
 21
1590.8574363992548
 31
0.0
  0
LINE
  5
125
100
AcDbEntity
  8
0
  6
Continuous
 62
               4
100
AcDbLine
 10
2288.2424242424072
 20
1504.3574363992411
 30
0.0
 11
2588.2424242424072
 21
1504.3574363992411
 31
0.0
  0
LINE
  5
126
100
AcDbEntity
  8
0
  6
Continuous
 62
               4
100
AcDbLine
 10
2588.2424242424072
 20
1504.3574363992411
 30
0.0
 11
2888.2424242424081
 21
1504.3574363992411
 31
0.0
  0
LINE
  5
127
100
AcDbEntity
  8
0
  6
Continuous
 62
               4
100
AcDbLine
 10
2888.2424242424081
 20
1504.3574363992411
 30
0.0
 11
3038.2424242424177
 21
1504.3574363992411
 31
0.0
  0
LINE
  5
128
100
AcDbEntity
  8
0
  6
Continuous
 62
               4
100
AcDbLine
 10
3038.2424242424177
 20
1504.3574363992411
 30
0.0
 11
3029.3791544653081
 21
1502.7946028002389
 31
0.0
  0
LINE
  5
129
100
AcDbEntity
  8
0
  6
Continuous
 62
               4
100
AcDbLine
 10
3038.2424242424177
 20
1504.3574363992411
 30
0.0
 11
3029.3791544653081
 21
1505.9202699982434
 31
0.0
  0
LINE
  5
12A
100
AcDbEntity
  8
0
  6
Continuous
 62
               4
100
AcDbLine
 10
2288.2424242424072
 20
1504.3574363992411
 30
0.0
 11
2138.2424242423976
 21
1504.3574363992411
 31
0.0
  0
LINE
  5
12B
100
AcDbEntity
  8
0
  6
Continuous
 62
               4
100
AcDbLine
 10
2138.2424242423976
 20
1504.3574363992411
 30
0.0
 11
2147.1056940195072
 21
1502.7946028002389
 31
0.0
  0
LINE
  5
12C
100
AcDbEntity
  8
0
  6
Continuous
 62
               4
100
AcDbLine
 10
2138.2424242423976
 20
1504.3574363992411
 30
0.0
 11
2147.1056940195072
 21
1505.9202699982434
 31
0.0
  0
LINE
  5
12D
100
AcDbEntity
  8
0
  6
Continuous
 62
               4
100
AcDbLine
 10
2773.475893441112
 20
1825.3313543627914
 30
0.0
 11
2418.1941841838361
 21
1825.3313543627914
 31
0.0
  0
LINE
  5
12E
100
AcDbEntity
  8
0
  6
Continuous
 62
               4
100
AcDbLine
 10
2773.475893441112
 20
1840.3313543627919
 30
0.0
 11
2418.1941841838361
 21
1840.3313543627914
 31
0.0
  0
LINE
  5
12F
100
AcDbEntity
  8
0
  6
Continuous
 62
               6
100
AcDbLine
 10
2138.2424242424167
 20
1656.3574363992548
 30
0.0
 11
3038.2424242424227
 21
1656.357436399177
 31
0.0
  0
LINE
  5
130
100
AcDbEntity
  8
0
  6
Continuous
 62
               6
100
AcDbLine
 10
2138.2424242424167
 20
1646.3574363992548
 30
0.0
 11
3038.2424242424227
 21
1646.357436399177
 31
0.0
  0
LINE
  5
131
100
AcDbEntity
  8
0
  6
Continuous
 62
               6
100
AcDbLine
 10
2138.2424242424167
 20
1647.3574363992548
 30
0.0
 11
3038.2424242424227
 21
1647.357436399177
 31
0.0
  0
LINE
  5
132
100
AcDbEntity
  8
0
  6
Continuous
 62
               4
100
AcDbLine
 10
2773.4758934411125
 20
1855.3313543627919
 30
0.0
 11
2418.1941841838361
 21
1855.3313543627914
 31
0.0
  0
LINE
  5
133
100
AcDbEntity
  8
0
  6
Continuous
 62
               4
100
AcDbLine
 10
2205.9924242424177
 20
1646.3574363992489
 30
0.0
 11
2205.9924242424177
 21
1656.3574363992489
 31
0.0
  0
LINE
  5
134
100
AcDbEntity
  8
0
  6
DASHDOT
 62
               4
100
AcDbLine
 10
1188.2424242424358
 20
1656.357436399267
 30
0.0
 11
1188.2424242424261
 21
1501.3574363992921
 31
0.0
  0
LINE
  5
135
100
AcDbEntity
  8
0
  6
Continuous
 62
               4
100
AcDbLine
 10
1188.2424242424258
 20
1504.3574363992921
 30
0.0
 11
1038.2424242424163
 21
1504.3574363992921
 31
0.0
  0
LINE
  5
136
100
AcDbEntity
  8
0
  6
Continuous
 62
               4
100
AcDbLine
 10
1038.2424242424163
 20
1504.3574363992921
 30
0.0
 11
1047.1056940195263
 21
1502.7946028002898
 31
0.0
  0
LINE
  5
137
100
AcDbEntity
  8
0
  6
Continuous
 62
               4
100
AcDbLine
 10
1038.2424242424163
 20
1504.3574363992921
 30
0.0
 11
1047.1056940195263
 21
1505.9202699982943
 31
0.0
  0
LINE
  5
138
100
AcDbEntity
  8
0
  6
Continuous
 62
               4
100
AcDbLine
 10
1188.2424242424261
 20
1504.3574363993048
 30
0.0
 11
1488.2424242424283
 21
1504.3574363993048
 31
0.0
  0
LINE
  5
139
100
AcDbEntity
  8
0
  6
Continuous
 62
               2
100
AcDbLine
 10
1170.7424242424329
 20
1644.8574363992698
 30
0.0
 11
1170.7424242424313
 21
1631.8574363992693
 31
0.0
  0
LINE
  5
13A
100
AcDbEntity
  8
0
  6
Continuous
 62
               2
100
AcDbLine
 10
1187.7424242424286
 20
1591.857436399267
 30
0.0
 11
1187.7424242424286
 21
1644.857436399268
 31
0.0
  0
LINE
  5
13B
100
AcDbEntity
  8
0
  6
Continuous
 62
               2
100
AcDbLine
 10
1188.7424242424272
 20
1591.857436399268
 30
0.0
 11
1188.7424242424272
 21
1645.857436399268
 31
0.0
  0
LINE
  5
13C
100
AcDbEntity
  8
0
  6
Continuous
 62
               2
100
AcDbLine
 10
1188.742424242432
 20
1645.857436399268
 30
0.0
 11
1148.7424242424272
 21
1645.8574363992716
 31
0.0
  0
LINE
  5
13D
100
AcDbEntity
  8
0
  6
Continuous
 62
               2
100
AcDbLine
 10
1187.7424242424333
 20
1644.857436399268
 30
0.0
 11
1170.7424242424329
 21
1644.8574363992698
 31
0.0
  0
LINE
  5
13E
100
AcDbEntity
  8
0
  6
Continuous
 62
               2
100
AcDbLine
 10
1186.7424242424283
 20
1590.857436399267
 30
0.0
 11
1038.2424242424163
 21
1590.8574363992798
 31
0.0
  0
LINE
  5
13F
100
AcDbEntity
  8
0
  6
Continuous
 62
               4
100
AcDbLine
 10
1198.742424242427
 20
1590.8574363992661
 30
0.0
 11
1198.742424242427
 21
1640.8574363992666
 31
0.0
  0
LINE
  5
140
100
AcDbEntity
  8
0
  6
Continuous
 62
               4
100
AcDbLine
 10
1167.7424242424304
 20
1640.8574363992693
 30
0.0
 11
1167.7424242424304
 21
1590.8574363992689
 31
0.0
  0
LINE
  5
141
100
AcDbEntity
  8
0
  6
Continuous
 62
               4
100
AcDbLine
 10
1167.7424242424304
 20
1640.8574363992693
 30
0.0
 11
1038.2424242424163
 21
1640.8574363992925
 31
0.0
  0
LINE
  5
142
100
AcDbEntity
  8
0
  6
Continuous
 62
               2
100
AcDbLine
 10
1143.2424242424283
 20
1677.357436399257
 30
0.0
 11
1157.7424242424283
 21
1677.357436399257
 31
0.0
  0
LINE
  5
143
100
AcDbEntity
  8
0
  6
Continuous
 62
               2
100
AcDbLine
 10
1169.2374678534075
 20
1677.5000493239181
 30
0.0
 11
1165.7424242424286
 21
1665.7554592722008
 31
0.0
  0
LINE
  5
144
100
AcDbEntity
  8
0
  6
Continuous
 62
               2
100
AcDbLine
 10
1165.2529340325596
 20
1665.357436399257
 30
0.0
 11
1143.7424242424283
 21
1665.357436399257
 31
0.0
  0
LINE
  5
145
100
AcDbEntity
  8
0
  6
Continuous
 62
               2
100
AcDbLine
 10
1129.4082671061551
 20
1676.9594135263133
 30
0.0
 11
1132.7424242424283
 21
1665.7554592722008
 31
0.0
  0
LINE
  5
146
100
AcDbEntity
  8
0
  6
Continuous
 62
               2
100
AcDbLine
 10
1142.7424242424283
 20
1676.857436399257
 30
0.0
 11
1142.7424242424283
 21
1665.857436399257
 31
0.0
  0
LINE
  5
147
100
AcDbEntity
  8
0
  6
Continuous
 62
               2
100
AcDbLine
 10
1142.2424242424283
 20
1665.357436399257
 30
0.0
 11
1133.2319144522971
 21
1665.357436399257
 31
0.0
  0
LINE
  5
148
100
AcDbEntity
  8
0
  6
Continuous
 62
               2
100
AcDbLine
 10
1143.2424242424283
 20
1676.357436399257
 30
0.0
 11
1143.2424242424283
 21
1665.857436399257
 31
0.0
  0
LINE
  5
149
100
AcDbEntity
  8
0
  6
Continuous
 62
               2
100
AcDbLine
 10
1143.7424242424283
 20
1676.857436399257
 30
0.0
 11
1157.7424242424283
 21
1676.857436399257
 31
0.0
  0
LINE
  5
14A
100
AcDbEntity
  8
0
  6
Continuous
 62
               2
100
AcDbLine
 10
1128.9187768962863
 20
1677.357436399257
 30
0.0
 11
1114.3253456742918
 21
1677.357436399257
 31
0.0
  0
LINE
  5
14B
100
AcDbEntity
  8
0
  6
Continuous
 62
               2
100
AcDbLine
 10
1158.2424242424283
 20
1677.3574363992625
 30
0.0
 11
1158.242424242427
 21
1666.1110262377483
 31
0.0
  0
LINE
  5
14C
100
AcDbEntity
  8
0
  6
Continuous
 62
               2
100
AcDbLine
 10
1157.6826166212916
 20
1665.9610262377487
 30
0.0
 11
1153.2424242424281
 21
1675.9314499703519
 31
0.0
  0
LINE
  5
14D
100
AcDbEntity
  8
0
  6
Continuous
 62
               2
100
AcDbLine
 10
1153.2424242424281
 20
1675.9314499703519
 30
0.0
 11
1151.2424242424281
 21
1675.9314499703523
 31
0.0
  0
LINE
  5
14E
100
AcDbEntity
  8
0
  6
Continuous
 62
               3
100
AcDbLine
 10
1123.9187854235433
 20
1673.8574368225827
 30
0.0
 11
1123.9187768962863
 21
1648.8574363992648
 31
0.0
  0
LINE
  5
14F
100
AcDbEntity
  8
0
  6
DASHED
 62
               6
100
AcDbLine
 10
1127.9187768962863
 20
1662.5574362097154
 30
0.0
 11
1169.4187768962863
 21
1662.5574362097154
 31
0.0
  0
LINE
  5
150
100
AcDbEntity
  8
0
  6
DASHED
 62
               6
100
AcDbLine
 10
1171.7166980211996
 20
1664.5574362097154
 30
0.0
 11
1171.7166980211996
 21
1672.8574362097156
 31
0.0
  0
LINE
  5
151
100
AcDbEntity
  8
0
  6
DASHED
 62
               6
100
AcDbLine
 10
1125.9187768962863
 20
1672.8574362097174
 30
0.0
 11
1125.9187768962863
 21
1664.5574362097154
 31
0.0
  0
LINE
  5
152
100
AcDbEntity
  8
0
  6
Continuous
 62
               3
100
AcDbLine
 10
1173.9187768962875
 20
1673.8574363992648
 30
0.0
 11
1173.9187768962875
 21
1648.8574363992648
 31
0.0
  0
LINE
  5
153
100
AcDbEntity
  8
0
  6
Continuous
 62
               4
100
AcDbLine
 10
1158.2424242424283
 20
1683.3574363992625
 30
0.0
 11
1158.2424242424283
 21
1779.857436399293
 31
0.0
  0
LINE
  5
154
100
AcDbEntity
  8
0
  6
Continuous
 62
               3
100
AcDbLine
 10
1123.9187854235424
 20
1673.8574338237181
 30
0.0
 11
1038.2424242508966
 21
1673.8574331421501
 31
0.0
  0
LINE
  5
155
100
AcDbEntity
  8
0
  6
DASHED
 62
               6
100
AcDbLine
 10
1123.9187768962863
 20
1674.8574362097174
 30
0.0
 11
1038.2424242424163
 21
1674.8574362097174
 31
0.0
  0
LINE
  5
156
100
AcDbEntity
  8
0
  6
Continuous
 62
               7
100
AcDbLine
 10
1302.7497169404487
 20
1673.8574357559787
 30
0.0
 11
1277.7497629044269
 21
1648.8574360569801
 31
0.0
  0
LINE
  5
157
100
AcDbEntity
  8
0
  6
Continuous
 62
               7
100
AcDbLine
 10
1288.6076269796945
 20
1673.8574357559787
 30
0.0
 11
1263.6076272806959
 21
1648.8574360569801
 31
0.0
  0
LINE
  5
158
100
AcDbEntity
  8
0
  6
Continuous
 62
               7
100
AcDbLine
 10
1274.4654912372903
 20
1673.8574356373056
 30
0.0
 11
1249.4654920176965
 21
1648.8574364177116
 31
0.0
  0
LINE
  5
159
100
AcDbEntity
  8
0
  6
Continuous
 62
               7
100
AcDbLine
 10
1260.3233554948861
 20
1673.857435518632
 30
0.0
 11
1235.3233564029888
 21
1648.8574364267347
 31
0.0
  0
LINE
  5
15A
100
AcDbEntity
  8
0
  6
Continuous
 62
               7
100
AcDbLine
 10
1246.1812202409101
 20
1673.857435888387
 30
0.0
 11
1221.1812204232383
 21
1648.8574360707153
 31
0.0
  0
LINE
  5
15B
100
AcDbEntity
  8
0
  6
Continuous
 62
               7
100
AcDbLine
 10
1232.0390844985059
 20
1673.8574357697139
 30
0.0
 11
1207.0390847995075
 21
1648.8574360707153
 31
0.0
  0
LINE
  5
15C
100
AcDbEntity
  8
0
  6
Continuous
 62
               7
100
AcDbLine
 10
1217.8969487561019
 20
1673.8574356510408
 30
0.0
 11
1192.8969495827996
 21
1648.8574364777387
 31
0.0
  0
LINE
  5
15D
100
AcDbEntity
  8
0
  6
Continuous
 62
               7
100
AcDbLine
 10
1123.9187774872273
 20
1650.5899424830809
 30
0.0
 11
1122.186271440612
 21
1648.8574364542051
 31
0.0
  0
LINE
  5
15E
100
AcDbEntity
  8
0
  6
Continuous
 62
               7
100
AcDbLine
 10
1123.9187823109737
 20
1664.7320829162732
 30
0.0
 11
1108.0441354608615
 21
1648.8574360981856
 31
0.0
  0
LINE
  5
15F
100
AcDbEntity
  8
0
  6
Continuous
 62
               7
100
AcDbLine
 10
1118.9019995361291
 20
1673.8574357971843
 30
0.0
 11
1093.9019998371305
 21
1648.8574360981856
 31
0.0
  0
LINE
  5
160
100
AcDbEntity
  8
0
  6
Continuous
 62
               7
100
AcDbLine
 10
1104.7598637937249
 20
1673.8574356785111
 30
0.0
 11
1079.7598645741309
 21
1648.8574364589172
 31
0.0
  0
LINE
  5
161
100
AcDbEntity
  8
0
  6
Continuous
 62
               7
100
AcDbLine
 10
1090.6177280513207
 20
1673.857435559838
 30
0.0
 11
1065.6177289594234
 21
1648.8574364679407
 31
0.0
  0
LINE
  5
162
100
AcDbEntity
  8
0
  6
Continuous
 62
               7
100
AcDbLine
 10
1076.4755927973447
 20
1673.8574359295926
 30
0.0
 11
1051.4755929796729
 21
1648.8574361119208
 31
0.0
  0
LINE
  5
163
100
AcDbEntity
  8
0
  6
Continuous
 62
               7
100
AcDbLine
 10
1062.3334570549405
 20
1673.8574358109195
 30
0.0
 11
1038.2424242424163
 21
1649.7664029983953
 31
0.0
  0
LINE
  5
164
100
AcDbEntity
  8
0
  6
Continuous
 62
               7
100
AcDbLine
 10
1048.1913213125365
 20
1673.8574356922463
 30
0.0
 11
1038.2424242424163
 21
1663.9085386221263
 31
0.0
  0
LINE
  5
165
100
AcDbEntity
  8
0
  6
Continuous
 62
               2
100
AcDbLine
 10
1157.7424242424283
 20
1677.8574363992625
 30
0.0
 11
1038.2424242424163
 21
1677.857436399267
 31
0.0
  0
LINE
  5
166
100
AcDbEntity
  8
0
  6
Continuous
 62
               3
100
AcDbLine
 10
1123.9187768962863
 20
1648.8574365059271
 30
0.0
 11
1038.2424242475206
 21
1648.8574365748395
 31
0.0
  0
LINE
  5
167
100
AcDbEntity
  8
0
  6
Continuous
 62
               7
100
AcDbLine
 10
1938.2424242424418
 20
1669.9387966454678
 30
0.0
 11
1917.6189910174671
 21
1649.3154092004743
 31
0.0
  0
LINE
  5
168
100
AcDbEntity
  8
0
  6
Continuous
 62
               7
100
AcDbLine
 10
1938.2424242424418
 20
1655.7967068017178
 30
0.0
 11
1932.2190994424077
 21
1649.7733820016838
 31
0.0
  0
LINE
  5
169
100
AcDbEntity
  8
0
  6
Continuous
 62
               4
100
AcDbLine
 10
1576.1966725918455
 20
1900.3313541271341
 30
0.0
 11
1576.1966725918455
 21
1590.8574361635656
 31
0.0
  0
LINE
  5
16A
100
AcDbEntity
  8
0
  6
Continuous
 62
               4
100
AcDbLine
 10
1576.1966725918455
 20
1900.3313541271341
 30
0.0
 11
1226.9113680412393
 21
1900.3313541271341
 31
0.0
  0
LINE
  5
16B
100
AcDbEntity
  8
0
  6
Continuous
 62
               4
100
AcDbLine
 10
1576.1966725918455
 20
1885.3313541271336
 30
0.0
 11
1226.9113680412393
 21
1885.3313541271336
 31
0.0
  0
LINE
  5
16C
100
AcDbEntity
  8
0
  6
Continuous
 62
               4
100
AcDbLine
 10
1576.1966725918455
 20
1870.3313541271336
 30
0.0
 11
1226.9113680412393
 21
1870.3313541271336
 31
0.0
  0
LINE
  5
16D
100
AcDbEntity
  8
0
  6
Continuous
 62
               4
100
AcDbLine
 10
1576.1966725918455
 20
1825.3313541271332
 30
0.0
 11
1226.9113680412393
 21
1825.3313541271332
 31
0.0
  0
LINE
  5
16E
100
AcDbEntity
  8
0
  6
Continuous
 62
               4
100
AcDbLine
 10
1576.1966725918455
 20
1840.3313541271336
 30
0.0
 11
1226.9113680412393
 21
1840.3313541271336
 31
0.0
  0
LINE
  5
16F
100
AcDbEntity
  8
0
  6
Continuous
 62
               4
100
AcDbLine
 10
1576.1966725918455
 20
1855.3313541271336
 30
0.0
 11
1226.9113680412393
 21
1855.3313541271336
 31
0.0
  0
LINE
  5
170
100
AcDbEntity
  8
0
  6
DIVIDE
 62
               6
100
AcDbLine
 10
1938.2424242424413
 20
1540.3574363992539
 30
0.0
 11
1038.2424242424163
 21
1540.3574363992793
 31
0.0
  0
LINE
  5
171
100
AcDbEntity
  8
0
  6
DIVIDE
 62
               6
100
AcDbLine
 10
1938.2424242424413
 20
1590.3574363992539
 30
0.0
 11
1038.2424242424163
 21
1590.3574363992793
 31
0.0
  0
LINE
  5
172
100
AcDbEntity
  8
0
  6
Continuous
 62
               4
100
AcDbLine
 10
1555.243622555106
 20
1401.3574363993025
 30
0.0
 11
1421.2436499791215
 21
1401.3574363993066
 31
0.0
  0
LINE
  5
173
100
AcDbEntity
  8
0
  6
Continuous
 62
               4
100
AcDbLine
 10
2655.2436225550755
 20
1401.3574363992584
 30
0.0
 11
2521.2436499790906
 21
1401.357436399262
 31
0.0
  0
LINE
  5
174
100
AcDbEntity
  8
0
  6
Continuous
 62
               7
100
AcDbLine
 10
1814.8817976026789
 20
1673.8574363992643
 30
0.0
 11
1789.8817976026794
 21
1648.8574363992643
 31
0.0
  0
LINE
  5
175
100
AcDbEntity
  8
0
  6
Continuous
 62
               4
100
AcDbLine
 10
1758.2424242424322
 20
1776.857436399293
 30
0.0
 11
1458.2424242424286
 21
1776.857436399293
 31
0.0
  0
LINE
  5
176
100
AcDbEntity
  8
0
  6
Continuous
 62
               4
100
AcDbLine
 10
1158.2424242424283
 20
1776.857436399293
 30
0.0
 11
1458.2424242424286
 21
1776.857436399293
 31
0.0
  0
LINE
  5
177
100
AcDbEntity
  8
0
  6
Continuous
 62
               2
100
AcDbLine
 10
2569.4424242424047
 20
1685.857436399217
 30
0.0
 11
2559.4424242424097
 21
1695.857436399212
 31
0.0
  0
LINE
  5
178
100
AcDbEntity
  8
0
  6
Continuous
 62
               2
100
AcDbLine
 10
2557.0424242424097
 20
1695.8574363992152
 30
0.0
 11
2547.0424242424097
 21
1685.8574363992152
 31
0.0
  0
LINE
  5
179
100
AcDbEntity
  8
0
  6
Continuous
 62
               2
100
AcDbLine
 10
2559.4424242424097
 20
1695.857436399212
 30
0.0
 11
2559.4424242424097
 21
1738.2074363992119
 31
0.0
  0
LINE
  5
17A
100
AcDbEntity
  8
0
  6
Continuous
 62
               4
100
AcDbLine
 10
2558.2424242424099
 20
1683.8574363992161
 30
0.0
 11
2558.2424242424099
 21
1737.9574363992119
 31
0.0
  0
LINE
  5
17B
100
AcDbEntity
  8
0
  6
Continuous
 62
               2
100
AcDbLine
 10
2557.0424242424097
 20
1695.8574363992152
 30
0.0
 11
2557.0424242424097
 21
1737.7074363992119
 31
0.0
  0
LINE
  5
17C
100
AcDbEntity
  8
0
  6
Continuous
 62
               2
100
AcDbLine
 10
2554.0424242424097
 20
1720.857436399212
 30
0.0
 11
2554.0424242424097
 21
1738.2074363992119
 31
0.0
  0
LINE
  5
17D
100
AcDbEntity
  8
0
  6
Continuous
 62
               4
100
AcDbLine
 10
2554.7924242424097
 20
1720.857436399212
 30
0.0
 11
2554.7924242424097
 21
1737.9574363992119
 31
0.0
  0
LINE
  5
17E
100
AcDbEntity
  8
0
  6
Continuous
 62
               2
100
AcDbLine
 10
2555.5424242424097
 20
1720.857436399212
 30
0.0
 11
2555.5424242424097
 21
1737.7074363992119
 31
0.0
  0
LINE
  5
17F
100
AcDbEntity
  8
0
  6
Continuous
 62
               7
100
AcDbLine
 10
2556.2924242424097
 20
1720.857436399212
 30
0.0
 11
2556.2924242424097
 21
1737.0731729191266
 31
0.0
  0
LINE
  5
180
100
AcDbEntity
  8
0
  6
Continuous
 62
               2
100
AcDbLine
 10
2138.2424242424167
 20
1685.8574363992548
 30
0.0
 11
2247.0424242424497
 21
1685.8574363992548
 31
0.0
  0
LINE
  5
181
100
AcDbEntity
  8
0
  6
Continuous
 62
               2
100
AcDbLine
 10
2569.4424242424047
 20
1685.8574363992548
 30
0.0
 11
2847.0424242424097
 21
1685.8574363992548
 31
0.0
  0
LINE
  5
182
100
AcDbEntity
  8
0
  6
Continuous
 62
               4
100
AcDbLine
 10
2598.2424242424099
 20
1683.8574363992161
 30
0.0
 11
2558.2424242424099
 21
1683.8574363992161
 31
0.0
  0
LINE
  5
183
100
AcDbEntity
  8
0
  6
Continuous
 62
               2
100
AcDbLine
 10
2869.4424242424047
 20
1685.857436399217
 30
0.0
 11
2859.4424242424097
 21
1695.857436399212
 31
0.0
  0
LINE
  5
184
100
AcDbEntity
  8
0
  6
Continuous
 62
               2
100
AcDbLine
 10
2857.0424242424097
 20
1695.8574363992152
 30
0.0
 11
2847.0424242424097
 21
1685.8574363992152
 31
0.0
  0
LINE
  5
185
100
AcDbEntity
  8
0
  6
Continuous
 62
               2
100
AcDbLine
 10
2859.4424242424097
 20
1695.857436399212
 30
0.0
 11
2859.4424242424097
 21
1738.2074363992119
 31
0.0
  0
LINE
  5
186
100
AcDbEntity
  8
0
  6
Continuous
 62
               4
100
AcDbLine
 10
2858.2424242424095
 20
1683.8574363992161
 30
0.0
 11
2858.2424242424095
 21
1737.9574363992119
 31
0.0
  0
LINE
  5
187
100
AcDbEntity
  8
0
  6
Continuous
 62
               2
100
AcDbLine
 10
2857.0424242424097
 20
1695.8574363992152
 30
0.0
 11
2857.0424242424097
 21
1737.7074363992119
 31
0.0
  0
LINE
  5
188
100
AcDbEntity
  8
0
  6
Continuous
 62
               2
100
AcDbLine
 10
2854.0424242424097
 20
1720.857436399212
 30
0.0
 11
2854.0424242424097
 21
1738.2074363992119
 31
0.0
  0
LINE
  5
189
100
AcDbEntity
  8
0
  6
Continuous
 62
               4
100
AcDbLine
 10
2854.7924242424097
 20
1720.857436399212
 30
0.0
 11
2854.7924242424097
 21
1737.9574363992119
 31
0.0
  0
LINE
  5
18A
100
AcDbEntity
  8
0
  6
Continuous
 62
               2
100
AcDbLine
 10
2855.5424242424097
 20
1720.857436399212
 30
0.0
 11
2855.5424242424097
 21
1737.7074363992119
 31
0.0
  0
LINE
  5
18B
100
AcDbEntity
  8
0
  6
Continuous
 62
               7
100
AcDbLine
 10
2856.2924242424097
 20
1720.857436399212
 30
0.0
 11
2856.2924242424097
 21
1737.0731729191266
 31
0.0
  0
LINE
  5
18C
100
AcDbEntity
  8
0
  6
Continuous
 62
               4
100
AcDbLine
 10
2898.2424242424095
 20
1683.8574363992161
 30
0.0
 11
2858.2424242424095
 21
1683.8574363992161
 31
0.0
  0
LINE
  5
18D
100
AcDbEntity
  8
0
  6
Continuous
 62
               2
100
AcDbLine
 10
2269.4424242424047
 20
1685.857436399217
 30
0.0
 11
2259.4424242424097
 21
1695.857436399212
 31
0.0
  0
LINE
  5
18E
100
AcDbEntity
  8
0
  6
Continuous
 62
               2
100
AcDbLine
 10
2257.0424242424097
 20
1695.8574363992152
 30
0.0
 11
2247.0424242424097
 21
1685.8574363992152
 31
0.0
  0
LINE
  5
18F
100
AcDbEntity
  8
0
  6
Continuous
 62
               2
100
AcDbLine
 10
2259.4424242424097
 20
1695.857436399212
 30
0.0
 11
2259.4424242424097
 21
1738.2074363992119
 31
0.0
  0
LINE
  5
190
100
AcDbEntity
  8
0
  6
Continuous
 62
               4
100
AcDbLine
 10
2258.2424242424099
 20
1683.8574363992161
 30
0.0
 11
2258.2424242424099
 21
1737.9574363992119
 31
0.0
  0
LINE
  5
191
100
AcDbEntity
  8
0
  6
Continuous
 62
               2
100
AcDbLine
 10
2257.0424242424097
 20
1695.8574363992152
 30
0.0
 11
2257.0424242424097
 21
1737.7074363992119
 31
0.0
  0
LINE
  5
192
100
AcDbEntity
  8
0
  6
Continuous
 62
               2
100
AcDbLine
 10
2254.0424242424097
 20
1720.857436399212
 30
0.0
 11
2254.0424242424097
 21
1738.2074363992119
 31
0.0
  0
LINE
  5
193
100
AcDbEntity
  8
0
  6
Continuous
 62
               4
100
AcDbLine
 10
2254.7924242424097
 20
1720.857436399212
 30
0.0
 11
2254.7924242424097
 21
1737.9574363992119
 31
0.0
  0
LINE
  5
194
100
AcDbEntity
  8
0
  6
Continuous
 62
               2
100
AcDbLine
 10
2255.5424242424097
 20
1720.857436399212
 30
0.0
 11
2255.5424242424097
 21
1737.7074363992119
 31
0.0
  0
LINE
  5
195
100
AcDbEntity
  8
0
  6
Continuous
 62
               7
100
AcDbLine
 10
2256.2924242424097
 20
1720.857436399212
 30
0.0
 11
2256.2924242424097
 21
1737.0731729191266
 31
0.0
  0
LINE
  5
196
100
AcDbEntity
  8
0
  6
Continuous
 62
               4
100
AcDbLine
 10
2298.2424242424099
 20
1683.8574363992161
 30
0.0
 11
2258.2424242424099
 21
1683.8574363992161
 31
0.0
  0
LINE
  5
197
100
AcDbEntity
  8
0
  6
Continuous
 62
               2
100
AcDbLine
 10
2269.442424242367
 20
1685.8574363992548
 30
0.0
 11
2547.0424242424115
 21
1685.8574363992548
 31
0.0
  0
LINE
  5
198
100
AcDbEntity
  8
0
  6
Continuous
 62
               2
100
AcDbLine
 10
2869.4424242424047
 20
1685.8574363992548
 30
0.0
 11
3038.2424242424272
 21
1685.8574363991602
 31
0.0
  0
LINE
  5
199
100
AcDbEntity
  8
0
  6
Continuous
 62
               4
100
AcDbLine
 10
2258.2424242424099
 20
1743.9574363992119
 30
0.0
 11
2258.2424242424099
 21
1779.857436399293
 31
0.0
  0
LINE
  5
19A
100
AcDbEntity
  8
0
  6
Continuous
 62
               4
100
AcDbLine
 10
2558.2424242424099
 20
1743.9574363992119
 30
0.0
 11
2558.2424242424099
 21
1779.857436399293
 31
0.0
  0
LINE
  5
19B
100
AcDbEntity
  8
0
  6
Continuous
 62
               4
100
AcDbLine
 10
2258.2424242424099
 20
1776.857436399293
 30
0.0
 11
2558.2424242424099
 21
1776.857436399293
 31
0.0
  0
LINE
  5
19C
100
AcDbEntity
  8
0
  6
Continuous
 62
               4
100
AcDbLine
 10
2858.2424242424095
 20
1743.9574363992119
 30
0.0
 11
2858.2424242424095
 21
1779.857436399293
 31
0.0
  0
LINE
  5
19D
100
AcDbEntity
  8
0
  6
Continuous
 62
               4
100
AcDbLine
 10
2558.2424242424099
 20
1776.857436399293
 30
0.0
 11
2858.2424242424095
 21
1776.857436399293
 31
0.0
  0
LINE
  5
19E
100
AcDbEntity
  8
0
  6
Continuous
 62
               4
100
AcDbLine
 10
2858.2424242424113
 20
1776.857436399293
 30
0.0
 11
3038.2424242424272
 21
1776.857436399293
 31
0.0
  0
LINE
  5
19F
100
AcDbEntity
  8
0
  6
Continuous
 62
               4
100
AcDbLine
 10
3038.2424242424272
 20
1776.857436399293
 30
0.0
 11
3029.3791544653172
 21
1775.2946028002907
 31
0.0
  0
LINE
  5
1A0
100
AcDbEntity
  8
0
  6
Continuous
 62
               4
100
AcDbLine
 10
3038.2424242424272
 20
1776.857436399293
 30
0.0
 11
3029.3791544653172
 21
1778.4202699982952
 31
0.0
  0
LINE
  5
1A1
100
AcDbEntity
  8
0
  6
Continuous
 62
               4
100
AcDbLine
 10
2258.2424242424081
 20
1776.857436399293
 30
0.0
 11
2138.2424242424167
 21
1776.857436399293
 31
0.0
  0
LINE
  5
1A2
100
AcDbEntity
  8
0
  6
Continuous
 62
               4
100
AcDbLine
 10
2138.2424242424167
 20
1776.857436399293
 30
0.0
 11
2147.1056940195267
 21
1775.2946028002907
 31
0.0
  0
LINE
  5
1A3
100
AcDbEntity
  8
0
  6
Continuous
 62
               4
100
AcDbLine
 10
2138.2424242424167
 20
1776.857436399293
 30
0.0
 11
2147.1056940195267
 21
1778.4202699982952
 31
0.0
  0
LINE
  5
1A4
100
AcDbEntity
  8
0
  6
Continuous
 62
               7
100
AcDbLine
 10
3008.8059161033857
 20
1656.857436399177
 30
0.0
 11
3033.8059161033839
 21
1681.8574363991747
 31
0.0
  0
LINE
  5
1A5
100
AcDbEntity
  8
0
  6
Continuous
 62
               7
100
AcDbLine
 10
3022.9480517271159
 20
1656.8574363991761
 30
0.0
 11
3038.2424242424227
 21
1672.1518089144829
 31
0.0
  0
LINE
  5
1A6
100
AcDbEntity
  8
0
  6
Continuous
 62
               7
100
AcDbLine
 10
3037.0901873508456
 20
1656.8574363991747
 30
0.0
 11
3038.2424242424227
 21
1658.0096732907518
 31
0.0
  0
LINE
  5
1A7
100
AcDbEntity
  8
0
  6
Continuous
 62
               4
100
AcDbLine
 10
2202.9924242424177
 20
1740.9074363992122
 30
0.0
 11
2250.7424242424099
 21
1740.9074363992122
 31
0.0
  0
LINE
  5
1A8
100
AcDbEntity
  8
0
  6
Continuous
 62
               4
100
AcDbLine
 10
2205.9924242424177
 20
1685.8574363992548
 30
0.0
 11
2205.9924242424177
 21
1740.9074363992122
 31
0.0
  0
LINE
  5
1A9
100
AcDbEntity
  8
0
  6
Continuous
 62
               4
100
AcDbLine
 10
2558.2424242424099
 20
1688.9475182912402
 30
0.0
 11
2532.1691279076504
 21
1734.1077922638428
 31
0.0
  0
LINE
  5
1AA
100
AcDbEntity
  8
0
  6
Continuous
 62
               4
100
AcDbLine
 10
2558.2424242424099
 20
1688.9475182912402
 30
0.0
 11
2552.4573357552308
 21
1695.8419182793109
 31
0.0
  0
LINE
  5
1AB
100
AcDbEntity
  8
0
  6
Continuous
 62
               4
100
AcDbLine
 10
2558.2424242424099
 20
1688.9475182912402
 30
0.0
 11
2555.1642429524786
 21
1697.4047518783132
 31
0.0
  0
LINE
  5
1AC
100
AcDbEntity
  8
0
  6
Continuous
 62
               4
100
AcDbLine
 10
2532.1691279076504
 20
1734.1077922638428
 30
0.0
 11
2466.7023985744841
 21
1734.1077922638428
 31
0.0
  0
LINE
  5
1AD
100
AcDbEntity
  8
0
  6
Continuous
 62
               4
100
AcDbLine
 10
2579.5013274581916
 20
1683.8574363992161
 30
0.0
 11
2607.7646575284898
 21
1732.8109600720622
 31
0.0
  0
LINE
  5
1AE
100
AcDbEntity
  8
0
  6
Continuous
 62
               4
100
AcDbLine
 10
2579.5013274581916
 20
1683.8574363992161
 30
0.0
 11
2582.5795087481224
 21
1692.3146699862891
 31
0.0
  0
LINE
  5
1AF
100
AcDbEntity
  8
0
  6
Continuous
 62
               4
100
AcDbLine
 10
2579.5013274581916
 20
1683.8574363992161
 30
0.0
 11
2585.2864159453702
 21
1690.7518363872869
 31
0.0
  0
LINE
  5
1B0
100
AcDbEntity
  8
0
  6
Continuous
 62
               4
100
AcDbLine
 10
2607.7646575284898
 20
1732.8109600720622
 30
0.0
 11
2714.4194362457174
 21
1732.8109600720622
 31
0.0
  0
LINE
  5
1B1
100
AcDbEntity
  8
0
  6
Continuous
 62
               7
100
AcDbLine
 10
2575.0013274581911
 20
1684.5574363992141
 30
0.0
 11
2584.0013274581906
 21
1684.5574363992141
 31
0.0
  0
LINE
  5
1B2
100
AcDbEntity
  8
0
  6
Continuous
 62
               7
100
AcDbLine
 10
2577.5013274581925
 20
1682.5574363992141
 30
0.0
 11
2581.5013274581906
 21
1682.5574363992146
 31
0.0
  0
LINE
  5
1B3
100
AcDbEntity
  8
0
  6
Continuous
 62
               7
100
AcDbLine
 10
2575.0013274581911
 20
1684.5574363992141
 30
0.0
 11
2577.5013274581925
 21
1682.5574363992141
 31
0.0
  0
LINE
  5
1B4
100
AcDbEntity
  8
0
  6
Continuous
 62
               7
100
AcDbLine
 10
2581.5013274581906
 20
1682.5574363992146
 30
0.0
 11
2584.0013274581906
 21
1684.5574363992141
 31
0.0
  0
LINE
  5
1B5
100
AcDbEntity
  8
0
  6
DOT
 62
               7
100
AcDbLine
 10
2577.5013274581902
 20
1684.5574363992141
 30
0.0
 11
2578.5013274581906
 21
1682.5574363992146
 31
0.0
  0
LINE
  5
1B6
100
AcDbEntity
  8
0
  6
DOT
 62
               7
100
AcDbLine
 10
2580.5013274581906
 20
1682.5574363992141
 30
0.0
 11
2581.501327458192
 21
1684.5574363992146
 31
0.0
  0
LINE
  5
1B7
100
AcDbEntity
  8
0
  6
Continuous
 62
               7
100
AcDbLine
 10
2875.0013274581906
 20
1684.5574363992141
 30
0.0
 11
2884.0013274581902
 21
1684.5574363992141
 31
0.0
  0
LINE
  5
1B8
100
AcDbEntity
  8
0
  6
Continuous
 62
               7
100
AcDbLine
 10
2877.501327458192
 20
1682.5574363992141
 30
0.0
 11
2881.5013274581902
 21
1682.5574363992146
 31
0.0
  0
LINE
  5
1B9
100
AcDbEntity
  8
0
  6
Continuous
 62
               7
100
AcDbLine
 10
2875.0013274581906
 20
1684.5574363992141
 30
0.0
 11
2877.501327458192
 21
1682.5574363992141
 31
0.0
  0
LINE
  5
1BA
100
AcDbEntity
  8
0
  6
Continuous
 62
               7
100
AcDbLine
 10
2881.5013274581902
 20
1682.5574363992146
 30
0.0
 11
2884.0013274581902
 21
1684.5574363992141
 31
0.0
  0
LINE
  5
1BB
100
AcDbEntity
  8
0
  6
DOT
 62
               7
100
AcDbLine
 10
2877.5013274581897
 20
1684.5574363992141
 30
0.0
 11
2878.5013274581902
 21
1682.5574363992146
 31
0.0
  0
LINE
  5
1BC
100
AcDbEntity
  8
0
  6
DOT
 62
               7
100
AcDbLine
 10
2880.5013274581902
 20
1682.5574363992141
 30
0.0
 11
2881.5013274581916
 21
1684.5574363992146
 31
0.0
  0
LINE
  5
1BD
100
AcDbEntity
  8
0
  6
Continuous
 62
               7
100
AcDbLine
 10
2275.0013274581911
 20
1684.5574363992141
 30
0.0
 11
2284.0013274581906
 21
1684.5574363992141
 31
0.0
  0
LINE
  5
1BE
100
AcDbEntity
  8
0
  6
Continuous
 62
               7
100
AcDbLine
 10
2277.5013274581925
 20
1682.5574363992141
 30
0.0
 11
2281.5013274581906
 21
1682.5574363992146
 31
0.0
  0
LINE
  5
1BF
100
AcDbEntity
  8
0
  6
Continuous
 62
               7
100
AcDbLine
 10
2275.0013274581911
 20
1684.5574363992141
 30
0.0
 11
2277.5013274581925
 21
1682.5574363992141
 31
0.0
  0
LINE
  5
1C0
100
AcDbEntity
  8
0
  6
Continuous
 62
               7
100
AcDbLine
 10
2281.5013274581906
 20
1682.5574363992146
 30
0.0
 11
2284.0013274581906
 21
1684.5574363992141
 31
0.0
  0
LINE
  5
1C1
100
AcDbEntity
  8
0
  6
DOT
 62
               7
100
AcDbLine
 10
2277.5013274581902
 20
1684.5574363992141
 30
0.0
 11
2278.5013274581906
 21
1682.5574363992146
 31
0.0
  0
LINE
  5
1C2
100
AcDbEntity
  8
0
  6
DOT
 62
               7
100
AcDbLine
 10
2280.5013274581906
 20
1682.5574363992141
 30
0.0
 11
2281.501327458192
 21
1684.5574363992146
 31
0.0
  0
LINE
  5
1C3
100
AcDbEntity
  8
0
  6
Continuous
 62
               3
100
AcDbLine
 10
2888.2424242424081
 20
1393.6076742201103
 30
0.0
 11
2888.2424242424081
 21
1448.6076742201103
 31
0.0
  0
LINE
  5
1C4
100
AcDbEntity
  8
0
  6
Continuous
 62
               3
100
AcDbLine
 10
2928.2424242424081
 20
1393.6076742201103
 30
0.0
 11
2888.2424242424081
 21
1393.6076742201103
 31
0.0
  0
LINE
  5
1C5
100
AcDbEntity
  8
0
  6
Continuous
 62
               3
100
AcDbLine
 10
2888.2424242424081
 20
1448.6076742201103
 30
0.0
 11
2870.2424242424081
 21
1448.6076742201103
 31
0.0
  0
LINE
  5
1C6
100
AcDbEntity
  8
0
  6
Continuous
 62
               4
100
AcDbLine
 10
2840.2424242424081
 20
1448.6076742201103
 30
0.0
 11
2864.2424242424081
 21
1448.6076742201103
 31
0.0
  0
LINE
  5
1C7
100
AcDbEntity
  8
0
  6
Continuous
 62
               4
100
AcDbLine
 10
2840.2424242424081
 20
1393.6076742201103
 30
0.0
 11
2864.2424242424081
 21
1393.6076742201103
 31
0.0
  0
LINE
  5
1C8
100
AcDbEntity
  8
0
  6
Continuous
 62
               4
100
AcDbLine
 10
2843.2424242424081
 20
1448.6076742201103
 30
0.0
 11
2843.2424242424081
 21
1393.6076742201103
 31
0.0
  0
LINE
  5
1C9
100
AcDbEntity
  8
0
  6
Continuous
 62
               4
100
AcDbLine
 10
2798.2424242424081
 20
1474.3574363992411
 30
0.0
 11
2978.2424242424081
 21
1474.3574363992411
 31
0.0
  0
LINE
  5
1CA
100
AcDbEntity
  8
0
  6
Continuous
 62
               4
100
AcDbLine
 10
2798.2424242424081
 20
1344.3574363992411
 30
0.0
 11
2798.2424242424081
 21
1474.3574363992411
 31
0.0
  0
LINE
  5
1CB
100
AcDbEntity
  8
0
  6
Continuous
 62
               4
100
AcDbLine
 10
2978.2424242424081
 20
1344.3574363992411
 30
0.0
 11
2978.2424242424081
 21
1474.3574363992411
 31
0.0
  0
LINE
  5
1CC
100
AcDbEntity
  8
0
  6
Continuous
 62
               4
100
AcDbLine
 10
2798.2424242424081
 20
1344.3574363992411
 30
0.0
 11
2978.2424242424081
 21
1344.3574363992411
 31
0.0
  0
LINE
  5
1CD
100
AcDbEntity
  8
0
  6
Continuous
 62
               4
100
AcDbLine
 10
2848.2423441643746
 20
1354.3574363992411
 30
0.0
 11
2928.2425043204412
 21
1354.3574363992411
 31
0.0
  0
LINE
  5
1CE
100
AcDbEntity
  8
0
  6
Continuous
 62
               4
100
AcDbLine
 10
1719.0792202008236
 20
1677.0131332722972
 30
0.0
 11
1747.3425502711218
 21
1725.9666569451433
 31
0.0
  0
LINE
  5
1CF
100
AcDbEntity
  8
0
  6
Continuous
 62
               4
100
AcDbLine
 10
1719.0792202008236
 20
1677.0131332722972
 30
0.0
 11
1722.1574014907546
 21
1685.4703668593702
 31
0.0
  0
LINE
  5
1D0
100
AcDbEntity
  8
0
  6
Continuous
 62
               4
100
AcDbLine
 10
1719.0792202008236
 20
1677.0131332722972
 30
0.0
 11
1724.8643086880024
 21
1683.9075332603679
 31
0.0
  0
LINE
  5
1D1
100
AcDbEntity
  8
0
  6
Continuous
 62
               4
100
AcDbLine
 10
1747.3425502711218
 20
1725.9666569451433
 30
0.0
 11
1853.9973289883492
 21
1725.9666569451433
 31
0.0
  0
LINE
  5
1D2
100
AcDbEntity
  8
0
  6
Continuous
 62
               7
100
AcDbLine
 10
1414.5792202008231
 20
1677.7131332722952
 30
0.0
 11
1423.5792202008226
 21
1677.7131332722952
 31
0.0
  0
LINE
  5
1D3
100
AcDbEntity
  8
0
  6
Continuous
 62
               7
100
AcDbLine
 10
1417.0792202008245
 20
1675.7131332722952
 30
0.0
 11
1421.0792202008226
 21
1675.7131332722956
 31
0.0
  0
LINE
  5
1D4
100
AcDbEntity
  8
0
  6
Continuous
 62
               7
100
AcDbLine
 10
1414.5792202008231
 20
1677.7131332722952
 30
0.0
 11
1417.0792202008245
 21
1675.7131332722952
 31
0.0
  0
LINE
  5
1D5
100
AcDbEntity
  8
0
  6
Continuous
 62
               7
100
AcDbLine
 10
1421.0792202008226
 20
1675.7131332722956
 30
0.0
 11
1423.5792202008226
 21
1677.7131332722952
 31
0.0
  0
LINE
  5
1D6
100
AcDbEntity
  8
0
  6
DOT
 62
               7
100
AcDbLine
 10
1417.0792202008222
 20
1677.7131332722952
 30
0.0
 11
1418.0792202008226
 21
1675.7131332722956
 31
0.0
  0
LINE
  5
1D7
100
AcDbEntity
  8
0
  6
DOT
 62
               7
100
AcDbLine
 10
1420.0792202008226
 20
1675.7131332722952
 30
0.0
 11
1421.079220200824
 21
1677.7131332722956
 31
0.0
  0
LINE
  5
1D8
100
AcDbEntity
  8
0
  6
Continuous
 62
               7
100
AcDbLine
 10
1714.5792202008265
 20
1677.7131332722952
 30
0.0
 11
1723.5792202008261
 21
1677.7131332722952
 31
0.0
  0
LINE
  5
1D9
100
AcDbEntity
  8
0
  6
Continuous
 62
               7
100
AcDbLine
 10
1717.0792202008261
 20
1619.7131332722929
 30
0.0
 11
1717.0792202008279
 21
1675.7131332722952
 31
0.0
  0
LINE
  5
1DA
100
AcDbEntity
  8
0
  6
Continuous
 62
               7
100
AcDbLine
 10
1721.0792202008261
 20
1619.7131332722984
 30
0.0
 11
1721.0792202008261
 21
1675.7131332722956
 31
0.0
  0
LINE
  5
1DB
100
AcDbEntity
  8
0
  6
Continuous
 62
               7
100
AcDbLine
 10
1717.0792202008279
 20
1675.7131332722952
 30
0.0
 11
1721.0792202008261
 21
1675.7131332722956
 31
0.0
  0
LINE
  5
1DC
100
AcDbEntity
  8
0
  6
Continuous
 62
               7
100
AcDbLine
 10
1714.5792202008265
 20
1677.7131332722952
 30
0.0
 11
1717.0792202008279
 21
1675.7131332722952
 31
0.0
  0
LINE
  5
1DD
100
AcDbEntity
  8
0
  6
Continuous
 62
               7
100
AcDbLine
 10
1721.0792202008261
 20
1675.7131332722956
 30
0.0
 11
1723.5792202008261
 21
1677.7131332722952
 31
0.0
  0
LINE
  5
1DE
100
AcDbEntity
  8
0
  6
DOT
 62
               7
100
AcDbLine
 10
1717.0792202008256
 20
1677.7131332722952
 30
0.0
 11
1718.0792202008261
 21
1675.7131332722956
 31
0.0
  0
LINE
  5
1DF
100
AcDbEntity
  8
0
  6
DOT
 62
               7
100
AcDbLine
 10
1720.0792202008261
 20
1675.7131332722952
 30
0.0
 11
1721.0792202008274
 21
1677.7131332722956
 31
0.0
  0
LINE
  5
1E0
100
AcDbEntity
  8
0
  6
Continuous
 62
               7
100
AcDbLine
 10
1719.079220200827
 20
1615.7131332722952
 30
0.0
 11
1721.0792202008247
 21
1619.7131332722956
 31
0.0
  0
LINE
  5
1E1
100
AcDbEntity
  8
0
  6
Continuous
 62
               7
100
AcDbLine
 10
1719.079220200827
 20
1615.7131332722952
 30
0.0
 11
1717.0792202008247
 21
1619.7131332722956
 31
0.0
  0
LINE
  5
1E2
100
AcDbEntity
  8
0
  6
Continuous
 62
               7
100
AcDbLine
 10
1114.5792202008229
 20
1677.7131332722952
 30
0.0
 11
1123.5792202008224
 21
1677.7131332722952
 31
0.0
  0
LINE
  5
1E3
100
AcDbEntity
  8
0
  6
Continuous
 62
               7
100
AcDbLine
 10
1117.0792202008242
 20
1675.7131332722952
 30
0.0
 11
1121.0792202008224
 21
1675.7131332722956
 31
0.0
  0
LINE
  5
1E4
100
AcDbEntity
  8
0
  6
Continuous
 62
               7
100
AcDbLine
 10
1114.5792202008229
 20
1677.7131332722952
 30
0.0
 11
1117.0792202008242
 21
1675.7131332722952
 31
0.0
  0
LINE
  5
1E5
100
AcDbEntity
  8
0
  6
Continuous
 62
               7
100
AcDbLine
 10
1121.0792202008224
 20
1675.7131332722956
 30
0.0
 11
1123.5792202008224
 21
1677.7131332722952
 31
0.0
  0
LINE
  5
1E6
100
AcDbEntity
  8
0
  6
DOT
 62
               7
100
AcDbLine
 10
1117.079220200822
 20
1677.7131332722952
 30
0.0
 11
1118.0792202008224
 21
1675.7131332722956
 31
0.0
  0
LINE
  5
1E7
100
AcDbEntity
  8
0
  6
DOT
 62
               7
100
AcDbLine
 10
1120.0792202008224
 20
1675.7131332722952
 30
0.0
 11
1121.0792202008238
 21
1677.7131332722956
 31
0.0
  0
LINE
  5
1E8
100
AcDbEntity
  8
0
  6
Continuous
 62
               2
100
AcDbLine
 10
1148.7424242424272
 20
1645.8574363992716
 30
0.0
 11
1148.7424242424272
 21
1631.8574363992693
 31
0.0
  0
LINE
  5
1E9
100
AcDbEntity
  8
0
  6
Continuous
 62
               4
100
AcDbLine
 10
1148.7424242424272
 20
1610.8574363992693
 30
0.0
 11
1148.7424242424272
 21
1625.8574363992693
 31
0.0
  0
LINE
  5
1EA
100
AcDbEntity
  8
0
  6
Continuous
 62
               4
100
AcDbLine
 10
1188.7424242424272
 20
1613.8574363992693
 30
0.0
 11
1148.7424242424272
 21
1613.8574363992693
 31
0.0
  0
LINE
  5
1EB
100
AcDbEntity
  8
0
  6
Continuous
 62
               2
100
AcDbLine
 10
1488.7424242424345
 20
1645.857436399268
 30
0.0
 11
1448.7424242424295
 21
1645.8574363992716
 31
0.0
  0
LINE
  5
1EC
100
AcDbEntity
  8
0
  6
Continuous
 62
               2
100
AcDbLine
 10
1448.7424242424295
 20
1645.8574363992716
 30
0.0
 11
1448.7424242424295
 21
1631.8574363992693
 31
0.0
  0
LINE
  5
1ED
100
AcDbEntity
  8
0
  6
Continuous
 62
               2
100
AcDbLine
 10
1788.7424242424377
 20
1645.857436399268
 30
0.0
 11
1748.7424242424329
 21
1645.8574363992716
 31
0.0
  0
LINE
  5
1EE
100
AcDbEntity
  8
0
  6
Continuous
 62
               2
100
AcDbLine
 10
1748.7424242424329
 20
1645.8574363992716
 30
0.0
 11
1748.7424242424329
 21
1631.8574363992693
 31
0.0
  0
LINE
  5
1EF
100
AcDbEntity
  8
0
  6
Continuous
 62
               7
100
AcDbLine
 10
1503.7548121563973
 20
1673.857434675067
 30
0.0
 11
1478.7548137639837
 21
1648.857436282653
 31
0.0
  0
LINE
  5
1F0
100
AcDbEntity
  8
0
  6
Continuous
 62
               7
100
AcDbLine
 10
1489.6126764148758
 20
1673.8574345572761
 30
0.0
 11
1473.9187768962877
 21
1658.1635350386878
 31
0.0
  0
LINE
  5
1F1
100
AcDbEntity
  8
0
  6
Continuous
 62
               7
100
AcDbLine
 10
1475.470540673354
 20
1673.8574344394851
 30
0.0
 11
1473.9187768962877
 21
1672.3056706624188
 31
0.0
  0
LINE
  5
1F2
100
AcDbEntity
  8
0
  6
Continuous
 62
               7
100
AcDbLine
 10
1203.754813143416
 20
1673.8574356620857
 30
0.0
 11
1178.7548139701137
 21
1648.8574364887836
 31
0.0
  0
LINE
  5
1F3
100
AcDbEntity
  8
0
  6
Continuous
 62
               7
100
AcDbLine
 10
1189.6126775307298
 20
1673.8574356731306
 30
0.0
 11
1173.9187768962875
 21
1658.1635350386882
 31
0.0
  0
LINE
  5
1F4
100
AcDbEntity
  8
0
  6
Continuous
 62
               7
100
AcDbLine
 10
1175.4705419180439
 20
1673.8574356841755
 30
0.0
 11
1173.9187768962875
 21
1672.3056706624188
 31
0.0
  0
LINE
  5
1F5
100
AcDbEntity
  8
0
  6
Continuous
 62
               7
100
AcDbLine
 10
1800.7396619789483
 20
1673.8574363992648
 30
0.0
 11
1775.7396619789483
 21
1648.8574363992643
 31
0.0
  0
LINE
  5
1F6
100
AcDbEntity
  8
0
  6
Continuous
 62
               7
100
AcDbLine
 10
1786.5975263552175
 20
1673.8574363992648
 30
0.0
 11
1773.9187768962911
 21
1661.1786869403381
 31
0.0
  0
LINE
  5
1F7
100
AcDbEntity
  8
0
  6
Continuous
 62
               4
100
AcDbLine
 10
1080.2424242424163
 20
1645.8574363992716
 30
0.0
 11
1142.7424242424272
 21
1645.8574363992716
 31
0.0
  0
LINE
  5
1F8
100
AcDbEntity
  8
0
  6
Continuous
 62
               4
100
AcDbLine
 10
1083.2424242424163
 20
1590.8574363992798
 30
0.0
 11
1083.2424242424163
 21
1645.8574363992716
 31
0.0
  0
LINE
  5
1F9
100
AcDbEntity
  8
0
  6
Continuous
 62
               4
100
AcDbLine
 10
1083.2424242424163
 20
1648.8574365748395
 30
0.0
 11
1083.2424242424163
 21
1673.8574331421501
 31
0.0
  0
LINE
  5
1FA
100
AcDbEntity
  8
0
  6
Continuous
 62
               7
100
AcDbLine
 10
1417.0792202008226
 20
1619.7131332722929
 30
0.0
 11
1417.0792202008245
 21
1675.7131332722952
 31
0.0
  0
LINE
  5
1FB
100
AcDbEntity
  8
0
  6
Continuous
 62
               7
100
AcDbLine
 10
1421.0792202008226
 20
1619.7131332722984
 30
0.0
 11
1421.0792202008226
 21
1675.7131332722956
 31
0.0
  0
LINE
  5
1FC
100
AcDbEntity
  8
0
  6
Continuous
 62
               7
100
AcDbLine
 10
1419.0792202008236
 20
1615.7131332722952
 30
0.0
 11
1421.0792202008213
 21
1619.7131332722956
 31
0.0
  0
LINE
  5
1FD
100
AcDbEntity
  8
0
  6
Continuous
 62
               7
100
AcDbLine
 10
1419.0792202008236
 20
1615.7131332722952
 30
0.0
 11
1417.0792202008213
 21
1619.7131332722956
 31
0.0
  0
LINE
  5
1FE
100
AcDbEntity
  8
0
  6
Continuous
 62
               7
100
AcDbLine
 10
1117.0792202008224
 20
1619.7131332722929
 30
0.0
 11
1117.0792202008242
 21
1675.7131332722952
 31
0.0
  0
LINE
  5
1FF
100
AcDbEntity
  8
0
  6
Continuous
 62
               7
100
AcDbLine
 10
1121.0792202008224
 20
1619.7131332722984
 30
0.0
 11
1121.0792202008224
 21
1675.7131332722956
 31
0.0
  0
LINE
  5
200
100
AcDbEntity
  8
0
  6
Continuous
 62
               7
100
AcDbLine
 10
1119.0792202008233
 20
1615.7131332722952
 30
0.0
 11
1121.0792202008211
 21
1619.7131332722956
 31
0.0
  0
LINE
  5
201
100
AcDbEntity
  8
0
  6
Continuous
 62
               7
100
AcDbLine
 10
1119.0792202008233
 20
1615.7131332722952
 30
0.0
 11
1117.0792202008211
 21
1619.7131332722956
 31
0.0
  0
LINE
  5
202
100
AcDbEntity
  8
0
  6
Continuous
 62
               7
100
AcDbLine
 10
2877.5013274581902
 20
1626.5574363992118
 30
0.0
 11
2877.501327458192
 21
1682.5574363992141
 31
0.0
  0
LINE
  5
203
100
AcDbEntity
  8
0
  6
Continuous
 62
               7
100
AcDbLine
 10
2881.5013274581902
 20
1626.5574363992173
 30
0.0
 11
2881.5013274581902
 21
1682.5574363992146
 31
0.0
  0
LINE
  5
204
100
AcDbEntity
  8
0
  6
Continuous
 62
               7
100
AcDbLine
 10
2879.5013274581911
 20
1622.5574363992141
 30
0.0
 11
2881.5013274581888
 21
1626.5574363992146
 31
0.0
  0
LINE
  5
205
100
AcDbEntity
  8
0
  6
Continuous
 62
               7
100
AcDbLine
 10
2879.5013274581911
 20
1622.5574363992141
 30
0.0
 11
2877.5013274581888
 21
1626.5574363992146
 31
0.0
  0
LINE
  5
206
100
AcDbEntity
  8
0
  6
Continuous
 62
               7
100
AcDbLine
 10
2577.5013274581906
 20
1626.5574363992118
 30
0.0
 11
2577.5013274581925
 21
1682.5574363992141
 31
0.0
  0
LINE
  5
207
100
AcDbEntity
  8
0
  6
Continuous
 62
               7
100
AcDbLine
 10
2581.5013274581906
 20
1626.5574363992173
 30
0.0
 11
2581.5013274581906
 21
1682.5574363992146
 31
0.0
  0
LINE
  5
208
100
AcDbEntity
  8
0
  6
Continuous
 62
               7
100
AcDbLine
 10
2579.5013274581916
 20
1622.5574363992141
 30
0.0
 11
2581.5013274581893
 21
1626.5574363992146
 31
0.0
  0
LINE
  5
209
100
AcDbEntity
  8
0
  6
Continuous
 62
               7
100
AcDbLine
 10
2579.5013274581916
 20
1622.5574363992141
 30
0.0
 11
2577.5013274581893
 21
1626.5574363992146
 31
0.0
  0
LINE
  5
20A
100
AcDbEntity
  8
0
  6
Continuous
 62
               7
100
AcDbLine
 10
2277.5013274581906
 20
1626.5574363992118
 30
0.0
 11
2277.5013274581925
 21
1682.5574363992141
 31
0.0
  0
LINE
  5
20B
100
AcDbEntity
  8
0
  6
Continuous
 62
               7
100
AcDbLine
 10
2281.5013274581906
 20
1626.5574363992173
 30
0.0
 11
2281.5013274581906
 21
1682.5574363992146
 31
0.0
  0
LINE
  5
20C
100
AcDbEntity
  8
0
  6
Continuous
 62
               7
100
AcDbLine
 10
2279.5013274581916
 20
1622.5574363992141
 30
0.0
 11
2281.5013274581893
 21
1626.5574363992146
 31
0.0
  0
LINE
  5
20D
100
AcDbEntity
  8
0
  6
Continuous
 62
               7
100
AcDbLine
 10
2279.5013274581916
 20
1622.5574363992141
 30
0.0
 11
2277.5013274581893
 21
1626.5574363992146
 31
0.0
  0
LINE
  5
20E
100
AcDbEntity
  8
0
  6
DASHDOT
 62
               4
100
AcDbLine
 10
1488.2424242424286
 20
933.85743639921532
 30
0.0
 11
1488.242424242419
 21
778.85743639924021
 31
0.0
  0
LINE
  5
20F
100
AcDbEntity
  8
0
  6
Continuous
 62
               2
100
AcDbLine
 10
1486.7424242424213
 20
868.35743639921611
 30
0.0
 11
1189.7424242424177
 21
868.35743639921611
 31
0.0
  0
LINE
  5
210
100
AcDbEntity
  8
0
  6
Continuous
 62
               2
100
AcDbLine
 10
1786.7424242424245
 20
868.35743639918928
 30
0.0
 11
1489.7424242424199
 21
868.35743639921895
 31
0.0
  0
LINE
  5
211
100
AcDbEntity
  8
0
  6
Continuous
 62
               2
100
AcDbLine
 10
1470.7424242424258
 20
922.35743639921782
 30
0.0
 11
1470.7424242424245
 21
909.35743639921748
 31
0.0
  0
LINE
  5
212
100
AcDbEntity
  8
0
  6
Continuous
 62
               2
100
AcDbLine
 10
1487.7424242424213
 20
869.35743639921611
 30
0.0
 11
1487.7424242424213
 21
922.35743639921634
 31
0.0
  0
LINE
  5
213
100
AcDbEntity
  8
0
  6
Continuous
 62
               2
100
AcDbLine
 10
1488.7424242424199
 20
869.35743639921895
 30
0.0
 11
1488.7424242424199
 21
923.35743639921634
 31
0.0
  0
LINE
  5
214
100
AcDbEntity
  8
0
  6
Continuous
 62
               2
100
AcDbLine
 10
1487.7424242424263
 20
922.35743639921634
 30
0.0
 11
1470.7424242424258
 21
922.35743639921782
 31
0.0
  0
LINE
  5
215
100
AcDbEntity
  8
0
  6
DASHDOT
 62
               4
100
AcDbLine
 10
1788.242424242432
 20
933.85743639918951
 30
0.0
 11
1788.2424242424222
 21
778.85743639924021
 31
0.0
  0
LINE
  5
216
100
AcDbEntity
  8
0
  6
Continuous
 62
               2
100
AcDbLine
 10
1789.7424242424231
 20
868.3574363992152
 30
0.0
 11
1938.2424242424322
 21
868.35743639920224
 31
0.0
  0
LINE
  5
217
100
AcDbEntity
  8
0
  6
Continuous
 62
               2
100
AcDbLine
 10
1770.742424242429
 20
922.35743639921782
 30
0.0
 11
1770.7424242424277
 21
909.35743639921748
 31
0.0
  0
LINE
  5
218
100
AcDbEntity
  8
0
  6
Continuous
 62
               2
100
AcDbLine
 10
1787.7424242424247
 20
869.35743639918928
 30
0.0
 11
1787.7424242424247
 21
922.35743639921634
 31
0.0
  0
LINE
  5
219
100
AcDbEntity
  8
0
  6
Continuous
 62
               2
100
AcDbLine
 10
1788.7424242424233
 20
869.3574363992152
 30
0.0
 11
1788.7424242424233
 21
923.35743639921634
 31
0.0
  0
LINE
  5
21A
100
AcDbEntity
  8
0
  6
Continuous
 62
               2
100
AcDbLine
 10
1787.7424242424295
 20
922.35743639921634
 30
0.0
 11
1770.742424242429
 21
922.35743639921782
 31
0.0
  0
LINE
  5
21B
100
AcDbEntity
  8
0
  6
Continuous
 62
               4
100
AcDbLine
 10
1798.7424242424233
 20
918.35743639921486
 30
0.0
 11
1938.2424242424322
 21
918.35743639920292
 31
0.0
  0
LINE
  5
21C
100
AcDbEntity
  8
0
  6
Continuous
 62
               4
100
AcDbLine
 10
1798.7424242424233
 20
869.35743639924021
 30
0.0
 11
1798.7424242424233
 21
918.35743639921486
 31
0.0
  0
LINE
  5
21D
100
AcDbEntity
  8
0
  6
Continuous
 62
               4
100
AcDbLine
 10
1498.7424242424199
 20
918.35743639921463
 30
0.0
 11
1767.7424242424268
 21
918.35743639919133
 31
0.0
  0
LINE
  5
21E
100
AcDbEntity
  8
0
  6
Continuous
 62
               4
100
AcDbLine
 10
1498.7424242424199
 20
869.35743639926613
 30
0.0
 11
1498.7424242424199
 21
918.35743639921463
 31
0.0
  0
LINE
  5
21F
100
AcDbEntity
  8
0
  6
Continuous
 62
               4
100
AcDbLine
 10
1767.7424242424268
 20
918.35743639919133
 30
0.0
 11
1767.7424242424268
 21
869.35743639924294
 31
0.0
  0
LINE
  5
220
100
AcDbEntity
  8
0
  6
Continuous
 62
               4
100
AcDbLine
 10
1467.7424242424236
 20
918.35743639921748
 30
0.0
 11
1198.7424242424177
 21
918.35743639921748
 31
0.0
  0
LINE
  5
221
100
AcDbEntity
  8
0
  6
Continuous
 62
               4
100
AcDbLine
 10
1467.7424242424236
 20
918.35743639921748
 30
0.0
 11
1467.7424242424236
 21
869.35743639926875
 31
0.0
  0
LINE
  5
222
100
AcDbEntity
  8
0
  6
Continuous
 62
               4
100
AcDbLine
 10
1488.242424242419
 20
781.85743639924021
 30
0.0
 11
1788.2424242424222
 21
781.85743639924021
 31
0.0
  0
LINE
  5
223
100
AcDbEntity
  8
0
  6
Continuous
 62
               4
100
AcDbLine
 10
1788.2424242424227
 20
781.85743639924021
 30
0.0
 11
1938.2424242424322
 21
781.85743639924021
 31
0.0
  0
LINE
  5
224
100
AcDbEntity
  8
0
  6
Continuous
 62
               4
100
AcDbLine
 10
1938.2424242424322
 20
781.85743639924021
 30
0.0
 11
1929.3791544653222
 21
780.29460280023784
 31
0.0
  0
LINE
  5
225
100
AcDbEntity
  8
0
  6
Continuous
 62
               4
100
AcDbLine
 10
1938.2424242424322
 20
781.85743639924021
 30
0.0
 11
1929.3791544653222
 21
783.42026999824247
 31
0.0
  0
LINE
  5
226
100
AcDbEntity
  8
0
  6
DASHDOT
 62
               4
100
AcDbLine
 10
2288.2424242424004
 20
778.8574363991911
 30
0.0
 11
2288.2424242424077
 21
933.85743639919008
 31
0.0
  0
LINE
  5
227
100
AcDbEntity
  8
0
  6
Continuous
 62
               2
100
AcDbLine
 10
2286.7424242424004
 20
868.35743639919019
 30
0.0
 11
2138.2424242424077
 21
868.35743639920292
 31
0.0
  0
LINE
  5
228
100
AcDbEntity
  8
0
  6
Continuous
 62
               2
100
AcDbLine
 10
2586.7424242424004
 20
868.35743639916427
 30
0.0
 11
2289.742424242399
 21
868.35743639918996
 31
0.0
  0
LINE
  5
229
100
AcDbEntity
  8
0
  6
Continuous
 62
               2
100
AcDbLine
 10
2268.7424242424036
 20
923.35743639919269
 30
0.0
 11
2268.7424242424022
 21
909.35743639919235
 31
0.0
  0
LINE
  5
22A
100
AcDbEntity
  8
0
  6
Continuous
 62
               2
100
AcDbLine
 10
2270.7424242424045
 20
922.35743639919258
 30
0.0
 11
2270.7424242424031
 21
909.35743639919224
 31
0.0
  0
LINE
  5
22B
100
AcDbEntity
  8
0
  6
Continuous
 62
               2
100
AcDbLine
 10
2287.7424242424004
 20
869.35743639919019
 30
0.0
 11
2287.7424242424004
 21
922.35743639919099
 31
0.0
  0
LINE
  5
22C
100
AcDbEntity
  8
0
  6
Continuous
 62
               2
100
AcDbLine
 10
2288.742424242399
 20
869.35743639918996
 30
0.0
 11
2288.742424242399
 21
923.35743639919099
 31
0.0
  0
LINE
  5
22D
100
AcDbEntity
  8
0
  6
Continuous
 62
               2
100
AcDbLine
 10
2288.7424242424036
 20
923.35743639919099
 30
0.0
 11
2268.7424242424036
 21
923.35743639919269
 31
0.0
  0
LINE
  5
22E
100
AcDbEntity
  8
0
  6
Continuous
 62
               2
100
AcDbLine
 10
2287.7424242424049
 20
922.35743639919099
 30
0.0
 11
2270.7424242424045
 21
922.35743639919258
 31
0.0
  0
LINE
  5
22F
100
AcDbEntity
  8
0
  6
DASHDOT
 62
               4
100
AcDbLine
 10
2588.2424242423981
 20
778.85743639918928
 30
0.0
 11
2588.2424242424077
 21
933.85743639916416
 31
0.0
  0
LINE
  5
230
100
AcDbEntity
  8
0
  6
Continuous
 62
               2
100
AcDbLine
 10
2886.7424242424008
 20
868.35743639916427
 30
0.0
 11
2589.742424242399
 21
868.35743639918996
 31
0.0
  0
LINE
  5
231
100
AcDbEntity
  8
0
  6
Continuous
 62
               2
100
AcDbLine
 10
2568.742424242404
 20
923.35743639919269
 30
0.0
 11
2568.7424242424022
 21
909.35743639919235
 31
0.0
  0
LINE
  5
232
100
AcDbEntity
  8
0
  6
Continuous
 62
               2
100
AcDbLine
 10
2570.7424242424049
 20
922.35743639919258
 30
0.0
 11
2570.7424242424031
 21
909.35743639919224
 31
0.0
  0
LINE
  5
233
100
AcDbEntity
  8
0
  6
Continuous
 62
               2
100
AcDbLine
 10
2587.7424242424004
 20
869.35743639916427
 30
0.0
 11
2587.7424242424004
 21
922.35743639919099
 31
0.0
  0
LINE
  5
234
100
AcDbEntity
  8
0
  6
Continuous
 62
               2
100
AcDbLine
 10
2588.742424242399
 20
869.35743639918996
 30
0.0
 11
2588.742424242399
 21
923.35743639919099
 31
0.0
  0
LINE
  5
235
100
AcDbEntity
  8
0
  6
Continuous
 62
               2
100
AcDbLine
 10
2588.742424242404
 20
923.35743639919099
 30
0.0
 11
2568.742424242404
 21
923.35743639919269
 31
0.0
  0
LINE
  5
236
100
AcDbEntity
  8
0
  6
Continuous
 62
               2
100
AcDbLine
 10
2587.7424242424054
 20
922.35743639919099
 30
0.0
 11
2570.7424242424049
 21
922.35743639919258
 31
0.0
  0
LINE
  5
237
100
AcDbEntity
  8
0
  6
DASHDOT
 62
               4
100
AcDbLine
 10
2888.2424242423986
 20
778.85743639918928
 30
0.0
 11
2888.2424242424081
 21
933.85743639913835
 31
0.0
  0
LINE
  5
238
100
AcDbEntity
  8
0
  6
Continuous
 62
               2
100
AcDbLine
 10
2889.7424242423995
 20
868.35743639918996
 30
0.0
 11
3038.2424242424086
 21
868.35743639917723
 31
0.0
  0
LINE
  5
239
100
AcDbEntity
  8
0
  6
Continuous
 62
               2
100
AcDbLine
 10
2868.7424242424045
 20
923.35743639919269
 30
0.0
 11
2868.7424242424031
 21
909.35743639919235
 31
0.0
  0
LINE
  5
23A
100
AcDbEntity
  8
0
  6
Continuous
 62
               2
100
AcDbLine
 10
2870.7424242424054
 20
922.35743639919258
 30
0.0
 11
2870.742424242404
 21
909.35743639919224
 31
0.0
  0
LINE
  5
23B
100
AcDbEntity
  8
0
  6
Continuous
 62
               2
100
AcDbLine
 10
2887.7424242424008
 20
869.35743639916427
 30
0.0
 11
2887.7424242424008
 21
922.35743639919099
 31
0.0
  0
LINE
  5
23C
100
AcDbEntity
  8
0
  6
Continuous
 62
               2
100
AcDbLine
 10
2888.7424242423995
 20
869.35743639918996
 30
0.0
 11
2888.7424242423995
 21
923.35743639919099
 31
0.0
  0
LINE
  5
23D
100
AcDbEntity
  8
0
  6
Continuous
 62
               2
100
AcDbLine
 10
2888.7424242424045
 20
923.35743639919099
 30
0.0
 11
2868.7424242424045
 21
923.35743639919269
 31
0.0
  0
LINE
  5
23E
100
AcDbEntity
  8
0
  6
Continuous
 62
               2
100
AcDbLine
 10
2887.7424242424058
 20
922.35743639919099
 30
0.0
 11
2870.7424242424054
 21
922.35743639919258
 31
0.0
  0
LINE
  5
23F
100
AcDbEntity
  8
0
  6
Continuous
 62
               3
100
AcDbLine
 10
2138.2424242424077
 20
934.35743639920304
 30
0.0
 11
3038.2424242424131
 21
934.35743639912539
 31
0.0
  0
LINE
  5
240
100
AcDbEntity
  8
0
  6
Continuous
 62
               3
100
AcDbLine
 10
2138.2424242424077
 20
959.35743639920042
 30
0.0
 11
3038.2424242424154
 21
959.35743639912278
 31
0.0
  0
LINE
  5
241
100
AcDbEntity
  8
0
  6
DASHED
 62
               6
100
AcDbLine
 10
2138.2424242424077
 20
960.35743639920042
 30
0.0
 11
3038.2424242424154
 21
960.35743639912278
 31
0.0
  0
LINE
  5
242
100
AcDbEntity
  8
0
  6
Continuous
 62
               4
100
AcDbLine
 10
2898.7424242423995
 20
918.35743639918928
 30
0.0
 11
3038.2424242424086
 21
918.35743639917723
 31
0.0
  0
LINE
  5
243
100
AcDbEntity
  8
0
  6
Continuous
 62
               4
100
AcDbLine
 10
2598.742424242399
 20
918.35743639918962
 30
0.0
 11
2867.7424242424031
 21
918.35743639916632
 31
0.0
  0
LINE
  5
244
100
AcDbEntity
  8
0
  6
Continuous
 62
               4
100
AcDbLine
 10
2598.742424242399
 20
869.35743639916336
 30
0.0
 11
2598.742424242399
 21
918.35743639918962
 31
0.0
  0
LINE
  5
245
100
AcDbEntity
  8
0
  6
Continuous
 62
               4
100
AcDbLine
 10
2867.7424242424031
 20
918.35743639916632
 30
0.0
 11
2867.7424242424031
 21
869.35743639916598
 31
0.0
  0
LINE
  5
246
100
AcDbEntity
  8
0
  6
Continuous
 62
               4
100
AcDbLine
 10
2898.7424242423995
 20
918.35743639918928
 30
0.0
 11
2898.7424242423995
 21
869.35743639913744
 31
0.0
  0
LINE
  5
247
100
AcDbEntity
  8
0
  6
Continuous
 62
               7
100
AcDbLine
 10
2994.6637804796469
 20
934.35743639912653
 30
0.0
 11
3019.6637804796446
 21
959.35743639912425
 31
0.0
  0
LINE
  5
248
100
AcDbEntity
  8
0
  6
Continuous
 62
               7
100
AcDbLine
 10
3005.5216448559149
 20
959.35743639912562
 30
0.0
 11
2980.5216448559167
 21
934.35743639912778
 31
0.0
  0
LINE
  5
249
100
AcDbEntity
  8
0
  6
Continuous
 62
               7
100
AcDbLine
 10
2991.3795092321852
 20
959.35743639912687
 30
0.0
 11
2966.379509232187
 21
934.35743639912891
 31
0.0
  0
LINE
  5
24A
100
AcDbEntity
  8
0
  6
Continuous
 62
               7
100
AcDbLine
 10
2977.2373736084555
 20
959.35743639912801
 30
0.0
 11
2952.2373736084573
 21
934.35743639913017
 31
0.0
  0
LINE
  5
24B
100
AcDbEntity
  8
0
  6
Continuous
 62
               7
100
AcDbLine
 10
2963.0952379847258
 20
959.35743639912926
 30
0.0
 11
2938.0952379847276
 21
934.35743639913142
 31
0.0
  0
LINE
  5
24C
100
AcDbEntity
  8
0
  6
Continuous
 62
               7
100
AcDbLine
 10
2948.9531023609957
 20
959.35743639913051
 30
0.0
 11
2923.9531023609979
 21
934.35743639913255
 31
0.0
  0
LINE
  5
24D
100
AcDbEntity
  8
0
  6
Continuous
 62
               7
100
AcDbLine
 10
2934.810966737266
 20
959.35743639913164
 30
0.0
 11
2909.8109667372682
 21
934.3574363991338
 31
0.0
  0
LINE
  5
24E
100
AcDbEntity
  8
0
  6
Continuous
 62
               7
100
AcDbLine
 10
2920.6688311135363
 20
959.35743639913289
 30
0.0
 11
2895.6688311135385
 21
934.35743639913505
 31
0.0
  0
LINE
  5
24F
100
AcDbEntity
  8
0
  6
Continuous
 62
               7
100
AcDbLine
 10
2906.5266954898066
 20
959.35743639913414
 30
0.0
 11
2881.5266954898088
 21
934.3574363991363
 31
0.0
  0
LINE
  5
250
100
AcDbEntity
  8
0
  6
Continuous
 62
               7
100
AcDbLine
 10
2892.3845598660769
 20
959.35743639913539
 30
0.0
 11
2867.3845598660787
 21
934.35743639913744
 31
0.0
  0
LINE
  5
251
100
AcDbEntity
  8
0
  6
Continuous
 62
               7
100
AcDbLine
 10
2878.2424242423472
 20
959.35743639913653
 30
0.0
 11
2853.242424242349
 21
934.35743639913869
 31
0.0
  0
LINE
  5
252
100
AcDbEntity
  8
0
  6
Continuous
 62
               7
100
AcDbLine
 10
2864.1002886186175
 20
959.35743639913778
 30
0.0
 11
2839.1002886186193
 21
934.35743639913994
 31
0.0
  0
LINE
  5
253
100
AcDbEntity
  8
0
  6
Continuous
 62
               7
100
AcDbLine
 10
2849.9581529948878
 20
959.35743639913903
 30
0.0
 11
2824.95815299489
 21
934.35743639914119
 31
0.0
  0
LINE
  5
254
100
AcDbEntity
  8
0
  6
Continuous
 62
               7
100
AcDbLine
 10
2835.8160173711576
 20
959.35743639914028
 30
0.0
 11
2810.8160173711603
 21
934.35743639914233
 31
0.0
  0
LINE
  5
255
100
AcDbEntity
  8
0
  6
Continuous
 62
               7
100
AcDbLine
 10
2821.6738817474284
 20
959.35743639914142
 30
0.0
 11
2796.6738817474302
 21
934.35743639914358
 31
0.0
  0
LINE
  5
256
100
AcDbEntity
  8
0
  6
Continuous
 62
               7
100
AcDbLine
 10
2807.5317461236987
 20
959.35743639914267
 30
0.0
 11
2782.5317461237005
 21
934.35743639914483
 31
0.0
  0
LINE
  5
257
100
AcDbEntity
  8
0
  6
Continuous
 62
               7
100
AcDbLine
 10
2793.389610499969
 20
959.35743639914392
 30
0.0
 11
2768.3896104999708
 21
934.35743639914608
 31
0.0
  0
LINE
  5
258
100
AcDbEntity
  8
0
  6
Continuous
 62
               7
100
AcDbLine
 10
2779.2474748762388
 20
959.35743639914517
 30
0.0
 11
2754.2474748762411
 21
934.35743639914722
 31
0.0
  0
LINE
  5
259
100
AcDbEntity
  8
0
  6
Continuous
 62
               7
100
AcDbLine
 10
2765.1053392525091
 20
959.35743639914631
 30
0.0
 11
2740.1053392525109
 21
934.35743639914847
 31
0.0
  0
LINE
  5
25A
100
AcDbEntity
  8
0
  6
Continuous
 62
               7
100
AcDbLine
 10
2750.9632036287794
 20
959.35743639914756
 30
0.0
 11
2725.9632036287812
 21
934.35743639914972
 31
0.0
  0
LINE
  5
25B
100
AcDbEntity
  8
0
  6
Continuous
 62
               7
100
AcDbLine
 10
2736.8210680050493
 20
959.35743639914881
 30
0.0
 11
2711.8210680050515
 21
934.35743639915097
 31
0.0
  0
LINE
  5
25C
100
AcDbEntity
  8
0
  6
Continuous
 62
               7
100
AcDbLine
 10
2722.6789323813196
 20
959.35743639915006
 30
0.0
 11
2697.6789323813218
 21
934.35743639915211
 31
0.0
  0
LINE
  5
25D
100
AcDbEntity
  8
0
  6
Continuous
 62
               7
100
AcDbLine
 10
2708.5367967575899
 20
959.3574363991512
 30
0.0
 11
2683.5367967575917
 21
934.35743639915336
 31
0.0
  0
LINE
  5
25E
100
AcDbEntity
  8
0
  6
Continuous
 62
               7
100
AcDbLine
 10
2694.3946611338602
 20
959.35743639915245
 30
0.0
 11
2669.394661133862
 21
934.35743639915461
 31
0.0
  0
LINE
  5
25F
100
AcDbEntity
  8
0
  6
Continuous
 62
               7
100
AcDbLine
 10
2680.2525255101305
 20
959.3574363991537
 30
0.0
 11
2655.2525255101323
 21
934.35743639915586
 31
0.0
  0
LINE
  5
260
100
AcDbEntity
  8
0
  6
Continuous
 62
               7
100
AcDbLine
 10
2666.1103898864008
 20
959.35743639915484
 30
0.0
 11
2641.1103898864026
 21
934.357436399157
 31
0.0
  0
LINE
  5
261
100
AcDbEntity
  8
0
  6
Continuous
 62
               7
100
AcDbLine
 10
2651.9682542626711
 20
959.35743639915609
 30
0.0
 11
2626.9682542626729
 21
934.35743639915825
 31
0.0
  0
LINE
  5
262
100
AcDbEntity
  8
0
  6
Continuous
 62
               7
100
AcDbLine
 10
2637.8261186389409
 20
959.35743639915734
 30
0.0
 11
2612.8261186389432
 21
934.3574363991595
 31
0.0
  0
LINE
  5
263
100
AcDbEntity
  8
0
  6
Continuous
 62
               7
100
AcDbLine
 10
2623.6839830152112
 20
959.35743639915859
 30
0.0
 11
2598.6839830152135
 21
934.35743639916075
 31
0.0
  0
LINE
  5
264
100
AcDbEntity
  8
0
  6
Continuous
 62
               7
100
AcDbLine
 10
2609.5418473914815
 20
959.35743639915972
 30
0.0
 11
2584.5418473914838
 21
934.35743639916188
 31
0.0
  0
LINE
  5
265
100
AcDbEntity
  8
0
  6
Continuous
 62
               7
100
AcDbLine
 10
2595.3997117677518
 20
959.35743639916097
 30
0.0
 11
2570.3997117677541
 21
934.35743639916313
 31
0.0
  0
LINE
  5
266
100
AcDbEntity
  8
0
  6
Continuous
 62
               7
100
AcDbLine
 10
2581.2575761440221
 20
959.35743639916222
 30
0.0
 11
2556.2575761440244
 21
934.35743639916438
 31
0.0
  0
LINE
  5
267
100
AcDbEntity
  8
0
  6
Continuous
 62
               7
100
AcDbLine
 10
2567.1154405202924
 20
959.35743639916348
 30
0.0
 11
2542.1154405202947
 21
934.35743639916552
 31
0.0
  0
LINE
  5
268
100
AcDbEntity
  8
0
  6
Continuous
 62
               7
100
AcDbLine
 10
2552.9733048965627
 20
959.35743639916461
 30
0.0
 11
2527.973304896565
 21
934.35743639916677
 31
0.0
  0
LINE
  5
269
100
AcDbEntity
  8
0
  6
Continuous
 62
               7
100
AcDbLine
 10
2538.831169272833
 20
959.35743639916586
 30
0.0
 11
2513.8311692728353
 21
934.35743639916802
 31
0.0
  0
LINE
  5
26A
100
AcDbEntity
  8
0
  6
Continuous
 62
               7
100
AcDbLine
 10
2524.6890336491033
 20
959.35743639916711
 30
0.0
 11
2499.6890336491056
 21
934.35743639916927
 31
0.0
  0
LINE
  5
26B
100
AcDbEntity
  8
0
  6
Continuous
 62
               7
100
AcDbLine
 10
2510.5468980253736
 20
959.35743639916836
 30
0.0
 11
2485.5468980253754
 21
934.35743639917041
 31
0.0
  0
LINE
  5
26C
100
AcDbEntity
  8
0
  6
Continuous
 62
               7
100
AcDbLine
 10
2496.4047624016439
 20
959.3574363991695
 30
0.0
 11
2471.4047624016457
 21
934.35743639917166
 31
0.0
  0
LINE
  5
26D
100
AcDbEntity
  8
0
  6
Continuous
 62
               7
100
AcDbLine
 10
2482.2626267779142
 20
959.35743639917075
 30
0.0
 11
2457.262626777916
 21
934.35743639917291
 31
0.0
  0
LINE
  5
26E
100
AcDbEntity
  8
0
  6
Continuous
 62
               7
100
AcDbLine
 10
2468.1204911541845
 20
959.357436399172
 30
0.0
 11
2443.1204911541863
 21
934.35743639917416
 31
0.0
  0
LINE
  5
26F
100
AcDbEntity
  8
0
  6
Continuous
 62
               7
100
AcDbLine
 10
2453.9783555304548
 20
959.35743639917325
 30
0.0
 11
2428.9783555304566
 21
934.3574363991753
 31
0.0
  0
LINE
  5
270
100
AcDbEntity
  8
0
  6
Continuous
 62
               7
100
AcDbLine
 10
2439.8362199067251
 20
959.35743639917439
 30
0.0
 11
2414.8362199067269
 21
934.35743639917655
 31
0.0
  0
LINE
  5
271
100
AcDbEntity
  8
0
  6
Continuous
 62
               7
100
AcDbLine
 10
2425.6940842829949
 20
959.35743639917564
 30
0.0
 11
2400.6940842829972
 21
934.3574363991778
 31
0.0
  0
LINE
  5
272
100
AcDbEntity
  8
0
  6
Continuous
 62
               7
100
AcDbLine
 10
2411.5519486592652
 20
959.35743639917689
 30
0.0
 11
2386.5519486592675
 21
934.35743639917905
 31
0.0
  0
LINE
  5
273
100
AcDbEntity
  8
0
  6
Continuous
 62
               7
100
AcDbLine
 10
2397.4098130355355
 20
959.35743639917814
 30
0.0
 11
2372.4098130355378
 21
934.35743639918019
 31
0.0
  0
LINE
  5
274
100
AcDbEntity
  8
0
  6
Continuous
 62
               7
100
AcDbLine
 10
2383.2676774118058
 20
959.35743639917928
 30
0.0
 11
2358.2676774118081
 21
934.35743639918144
 31
0.0
  0
LINE
  5
275
100
AcDbEntity
  8
0
  6
Continuous
 62
               7
100
AcDbLine
 10
2369.1255417880761
 20
959.35743639918053
 30
0.0
 11
2344.1255417880784
 21
934.35743639918269
 31
0.0
  0
LINE
  5
276
100
AcDbEntity
  8
0
  6
Continuous
 62
               7
100
AcDbLine
 10
2354.9834061643464
 20
959.35743639918178
 30
0.0
 11
2329.9834061643487
 21
934.35743639918394
 31
0.0
  0
LINE
  5
277
100
AcDbEntity
  8
0
  6
Continuous
 62
               7
100
AcDbLine
 10
2340.8412705406167
 20
959.35743639918292
 30
0.0
 11
2315.841270540619
 21
934.35743639918508
 31
0.0
  0
LINE
  5
278
100
AcDbEntity
  8
0
  6
Continuous
 62
               7
100
AcDbLine
 10
2326.699134916887
 20
959.35743639918417
 30
0.0
 11
2301.6991349168893
 21
934.35743639918633
 31
0.0
  0
LINE
  5
279
100
AcDbEntity
  8
0
  6
Continuous
 62
               7
100
AcDbLine
 10
2312.5569992931573
 20
959.35743639918542
 30
0.0
 11
2287.5569992931596
 21
934.35743639918758
 31
0.0
  0
LINE
  5
27A
100
AcDbEntity
  8
0
  6
Continuous
 62
               7
100
AcDbLine
 10
2298.4148636694276
 20
959.35743639918667
 30
0.0
 11
2273.4148636694295
 21
934.35743639918883
 31
0.0
  0
LINE
  5
27B
100
AcDbEntity
  8
0
  6
Continuous
 62
               7
100
AcDbLine
 10
2284.2727280456979
 20
959.3574363991878
 30
0.0
 11
2259.2727280456998
 21
934.35743639918996
 31
0.0
  0
LINE
  5
27C
100
AcDbEntity
  8
0
  6
Continuous
 62
               7
100
AcDbLine
 10
2270.1305924219682
 20
959.35743639918906
 30
0.0
 11
2245.1305924219701
 21
934.35743639919122
 31
0.0
  0
LINE
  5
27D
100
AcDbEntity
  8
0
  6
Continuous
 62
               7
100
AcDbLine
 10
2255.9884567982385
 20
959.35743639919031
 30
0.0
 11
2230.9884567982403
 21
934.35743639919247
 31
0.0
  0
LINE
  5
27E
100
AcDbEntity
  8
0
  6
Continuous
 62
               7
100
AcDbLine
 10
2241.8463211745088
 20
959.35743639919156
 30
0.0
 11
2216.8463211745106
 21
934.3574363991936
 31
0.0
  0
LINE
  5
27F
100
AcDbEntity
  8
0
  6
Continuous
 62
               7
100
AcDbLine
 10
2227.7041855507787
 20
959.35743639919269
 30
0.0
 11
2202.7041855507809
 21
934.35743639919485
 31
0.0
  0
LINE
  5
280
100
AcDbEntity
  8
0
  6
Continuous
 62
               7
100
AcDbLine
 10
2213.562049927049
 20
959.35743639919394
 30
0.0
 11
2188.5620499270512
 21
934.3574363991961
 31
0.0
  0
LINE
  5
281
100
AcDbEntity
  8
0
  6
Continuous
 62
               7
100
AcDbLine
 10
2199.4199143033193
 20
959.35743639919519
 30
0.0
 11
2174.4199143033215
 21
934.35743639919735
 31
0.0
  0
LINE
  5
282
100
AcDbEntity
  8
0
  6
Continuous
 62
               7
100
AcDbLine
 10
2185.2777786795896
 20
959.35743639919644
 30
0.0
 11
2160.2777786795918
 21
934.35743639919849
 31
0.0
  0
LINE
  5
283
100
AcDbEntity
  8
0
  6
Continuous
 62
               7
100
AcDbLine
 10
2171.1356430558599
 20
959.35743639919758
 30
0.0
 11
2146.1356430558621
 21
934.35743639919974
 31
0.0
  0
LINE
  5
284
100
AcDbEntity
  8
0
  6
Continuous
 62
               7
100
AcDbLine
 10
2156.9935074321302
 20
959.35743639919883
 30
0.0
 11
2138.2424242424077
 21
940.6063532094762
 31
0.0
  0
LINE
  5
285
100
AcDbEntity
  8
0
  6
Continuous
 62
               7
100
AcDbLine
 10
2142.8513718084005
 20
959.35743639920008
 30
0.0
 11
2138.2424242424077
 21
954.74848883320715
 31
0.0
  0
LINE
  5
286
100
AcDbEntity
  8
0
  6
Continuous
 62
               4
100
AcDbLine
 10
2298.742424242399
 20
918.3574363991894
 30
0.0
 11
2567.7424242424022
 21
918.35743639916609
 31
0.0
  0
LINE
  5
287
100
AcDbEntity
  8
0
  6
Continuous
 62
               4
100
AcDbLine
 10
2298.742424242399
 20
869.35743639918928
 30
0.0
 11
2298.742424242399
 21
918.3574363991894
 31
0.0
  0
LINE
  5
288
100
AcDbEntity
  8
0
  6
Continuous
 62
               4
100
AcDbLine
 10
2567.7424242424022
 20
918.35743639916609
 30
0.0
 11
2567.7424242424022
 21
869.35743639916598
 31
0.0
  0
LINE
  5
289
100
AcDbEntity
  8
0
  6
Continuous
 62
               4
100
AcDbLine
 10
2267.7424242424022
 20
918.35743639919224
 30
0.0
 11
2138.2424242424077
 21
918.35743639921543
 31
0.0
  0
LINE
  5
28A
100
AcDbEntity
  8
0
  6
Continuous
 62
               4
100
AcDbLine
 10
2267.7424242424022
 20
918.35743639919224
 30
0.0
 11
2267.7424242424022
 21
869.3574363991919
 31
0.0
  0
LINE
  5
28B
100
AcDbEntity
  8
0
  6
DIVIDE
 62
               6
100
AcDbLine
 10
3038.2424242424086
 20
867.85743639915108
 30
0.0
 11
2138.2424242424077
 21
867.85743639918928
 31
0.0
  0
LINE
  5
28C
100
AcDbEntity
  8
0
  6
DIVIDE
 62
               6
100
AcDbLine
 10
3038.2424242424086
 20
817.85743639915108
 30
0.0
 11
2138.2424242424077
 21
817.85743639918928
 31
0.0
  0
LINE
  5
28D
100
AcDbEntity
  8
0
  6
Continuous
 62
               4
100
AcDbLine
 10
2773.4758934411029
 20
1192.8313543627403
 30
0.0
 11
2773.4758934411029
 21
868.35743639917405
 31
0.0
  0
LINE
  5
28E
100
AcDbEntity
  8
0
  6
Continuous
 62
               4
100
AcDbLine
 10
2773.4758934411029
 20
1192.8313543627403
 30
0.0
 11
2418.1941841838266
 21
1192.8313543627403
 31
0.0
  0
LINE
  5
28F
100
AcDbEntity
  8
0
  6
Continuous
 62
               4
100
AcDbLine
 10
2773.4758934411029
 20
1177.8313543627403
 30
0.0
 11
2418.1941841838266
 21
1177.8313543627403
 31
0.0
  0
LINE
  5
290
100
AcDbEntity
  8
0
  6
Continuous
 62
               4
100
AcDbLine
 10
2773.4758934411029
 20
1162.8313543627401
 30
0.0
 11
2418.1941841838266
 21
1162.8313543627401
 31
0.0
  0
LINE
  5
291
100
AcDbEntity
  8
0
  6
Continuous
 62
               4
100
AcDbLine
 10
2205.9924242424086
 20
959.35743639920304
 30
0.0
 11
2205.9924242424086
 21
934.35743639920304
 31
0.0
  0
LINE
  5
292
100
AcDbEntity
  8
0
  6
Continuous
 62
               4
100
AcDbLine
 10
2262.7424242424036
 20
923.35743639919269
 30
0.0
 11
2202.9924242424086
 21
923.35743639919269
 31
0.0
  0
LINE
  5
293
100
AcDbEntity
  8
0
  6
Continuous
 62
               4
100
AcDbLine
 10
2205.9924242424086
 20
923.35743639919269
 30
0.0
 11
2205.9924242424086
 21
868.35743639920292
 31
0.0
  0
LINE
  5
294
100
AcDbEntity
  8
0
  6
Continuous
 62
               4
100
AcDbLine
 10
2288.2424242423981
 20
781.85743639918928
 30
0.0
 11
2588.2424242423981
 21
781.85743639918928
 31
0.0
  0
LINE
  5
295
100
AcDbEntity
  8
0
  6
Continuous
 62
               4
100
AcDbLine
 10
2588.2424242423981
 20
781.85743639918928
 30
0.0
 11
2888.2424242423986
 21
781.85743639918928
 31
0.0
  0
LINE
  5
296
100
AcDbEntity
  8
0
  6
Continuous
 62
               4
100
AcDbLine
 10
2888.2424242423986
 20
781.85743639918928
 30
0.0
 11
3038.2424242424086
 21
781.85743639918928
 31
0.0
  0
LINE
  5
297
100
AcDbEntity
  8
0
  6
Continuous
 62
               4
100
AcDbLine
 10
3038.2424242424086
 20
781.85743639918928
 30
0.0
 11
3029.3791544652986
 21
780.29460280018679
 31
0.0
  0
LINE
  5
298
100
AcDbEntity
  8
0
  6
Continuous
 62
               4
100
AcDbLine
 10
3038.2424242424086
 20
781.85743639918928
 30
0.0
 11
3029.3791544652986
 21
783.42026999819154
 31
0.0
  0
LINE
  5
299
100
AcDbEntity
  8
0
  6
Continuous
 62
               4
100
AcDbLine
 10
2288.2424242423976
 20
781.85743639918928
 30
0.0
 11
2138.2424242423881
 21
781.85743639918928
 31
0.0
  0
LINE
  5
29A
100
AcDbEntity
  8
0
  6
Continuous
 62
               4
100
AcDbLine
 10
2138.2424242423881
 20
781.85743639918928
 30
0.0
 11
2147.1056940194981
 21
780.29460280018679
 31
0.0
  0
LINE
  5
29B
100
AcDbEntity
  8
0
  6
Continuous
 62
               4
100
AcDbLine
 10
2138.2424242423881
 20
781.85743639918928
 30
0.0
 11
2147.1056940194981
 21
783.42026999819154
 31
0.0
  0
LINE
  5
29C
100
AcDbEntity
  8
0
  6
Continuous
 62
               4
100
AcDbLine
 10
2773.4758934411029
 20
1102.8313543627396
 30
0.0
 11
2418.1941841838266
 21
1102.8313543627396
 31
0.0
  0
LINE
  5
29D
100
AcDbEntity
  8
0
  6
Continuous
 62
               4
100
AcDbLine
 10
2773.4758934411029
 20
1132.8313543627401
 30
0.0
 11
2418.1941841838266
 21
1132.8313543627401
 31
0.0
  0
LINE
  5
29E
100
AcDbEntity
  8
0
  6
Continuous
 62
               6
100
AcDbLine
 10
2138.2424242424077
 20
933.85743639920304
 30
0.0
 11
3038.2424242424131
 21
933.85743639912539
 31
0.0
  0
LINE
  5
29F
100
AcDbEntity
  8
0
  6
Continuous
 62
               6
100
AcDbLine
 10
2138.2424242424077
 20
923.85743639920304
 30
0.0
 11
3038.2424242424131
 21
923.85743639912539
 31
0.0
  0
LINE
  5
2A0
100
AcDbEntity
  8
0
  6
Continuous
 62
               6
100
AcDbLine
 10
2138.2424242424077
 20
924.85743639920304
 30
0.0
 11
3038.2424242424131
 21
924.85743639912539
 31
0.0
  0
LINE
  5
2A1
100
AcDbEntity
  8
0
  6
Continuous
 62
               4
100
AcDbLine
 10
2773.4758934411029
 20
1147.8313543627401
 30
0.0
 11
2418.1941841838266
 21
1147.8313543627401
 31
0.0
  0
LINE
  5
2A2
100
AcDbEntity
  8
0
  6
Continuous
 62
               4
100
AcDbLine
 10
2205.9924242424086
 20
923.85743639919713
 30
0.0
 11
2205.9924242424086
 21
933.85743639919713
 31
0.0
  0
LINE
  5
2A3
100
AcDbEntity
  8
0
  6
DASHDOT
 62
               4
100
AcDbLine
 10
1188.2424242424263
 20
933.85743639921532
 30
0.0
 11
1188.2424242424167
 21
778.85743639924021
 31
0.0
  0
LINE
  5
2A4
100
AcDbEntity
  8
0
  6
Continuous
 62
               4
100
AcDbLine
 10
1188.2424242424167
 20
781.85743639924021
 30
0.0
 11
1038.242424242407
 21
781.85743639924021
 31
0.0
  0
LINE
  5
2A5
100
AcDbEntity
  8
0
  6
Continuous
 62
               4
100
AcDbLine
 10
1038.242424242407
 20
781.85743639924021
 30
0.0
 11
1047.1056940195167
 21
780.29460280023784
 31
0.0
  0
LINE
  5
2A6
100
AcDbEntity
  8
0
  6
Continuous
 62
               4
100
AcDbLine
 10
1038.242424242407
 20
781.85743639924021
 30
0.0
 11
1047.1056940195167
 21
783.42026999824247
 31
0.0
  0
LINE
  5
2A7
100
AcDbEntity
  8
0
  6
Continuous
 62
               4
100
AcDbLine
 10
1188.2424242424167
 20
781.85743639925317
 30
0.0
 11
1488.242424242419
 21
781.85743639925317
 31
0.0
  0
LINE
  5
2A8
100
AcDbEntity
  8
0
  6
Continuous
 62
               2
100
AcDbLine
 10
1170.7424242424236
 20
922.35743639921782
 30
0.0
 11
1170.7424242424222
 21
909.35743639921748
 31
0.0
  0
LINE
  5
2A9
100
AcDbEntity
  8
0
  6
Continuous
 62
               2
100
AcDbLine
 10
1187.742424242419
 20
869.35743639921543
 30
0.0
 11
1187.742424242419
 21
922.35743639921634
 31
0.0
  0
LINE
  5
2AA
100
AcDbEntity
  8
0
  6
Continuous
 62
               2
100
AcDbLine
 10
1188.7424242424177
 20
869.35743639921611
 30
0.0
 11
1188.7424242424177
 21
923.35743639921634
 31
0.0
  0
LINE
  5
2AB
100
AcDbEntity
  8
0
  6
Continuous
 62
               2
100
AcDbLine
 10
1187.742424242424
 20
922.35743639921634
 30
0.0
 11
1170.7424242424236
 21
922.35743639921782
 31
0.0
  0
LINE
  5
2AC
100
AcDbEntity
  8
0
  6
Continuous
 62
               2
100
AcDbLine
 10
1186.742424242419
 20
868.35743639921543
 30
0.0
 11
1038.242424242407
 21
868.35743639922816
 31
0.0
  0
LINE
  5
2AD
100
AcDbEntity
  8
0
  6
Continuous
 62
               4
100
AcDbLine
 10
1198.7424242424177
 20
869.35743639929194
 30
0.0
 11
1198.7424242424177
 21
918.35743639921463
 31
0.0
  0
LINE
  5
2AE
100
AcDbEntity
  8
0
  6
Continuous
 62
               4
100
AcDbLine
 10
1167.7424242424213
 20
918.35743639921748
 30
0.0
 11
1167.7424242424213
 21
869.35743639929456
 31
0.0
  0
LINE
  5
2AF
100
AcDbEntity
  8
0
  6
Continuous
 62
               4
100
AcDbLine
 10
1167.7424242424213
 20
918.35743639921748
 30
0.0
 11
1038.242424242407
 21
918.35743639924067
 31
0.0
  0
LINE
  5
2B0
100
AcDbEntity
  8
0
  6
Continuous
 62
               4
100
AcDbLine
 10
1576.1966725918455
 20
1192.8313543628001
 30
0.0
 11
1576.1966725918455
 21
868.35743639920747
 31
0.0
  0
LINE
  5
2B1
100
AcDbEntity
  8
0
  6
Continuous
 62
               4
100
AcDbLine
 10
1576.1966725918455
 20
1192.8313543628001
 30
0.0
 11
1226.9113680412393
 21
1192.8313543628001
 31
0.0
  0
LINE
  5
2B2
100
AcDbEntity
  8
0
  6
Continuous
 62
               4
100
AcDbLine
 10
1576.1966725918455
 20
1177.8313543628001
 30
0.0
 11
1226.9113680412393
 21
1177.8313543628001
 31
0.0
  0
LINE
  5
2B3
100
AcDbEntity
  8
0
  6
Continuous
 62
               4
100
AcDbLine
 10
1576.1966725918455
 20
1162.8313543627999
 30
0.0
 11
1226.9113680412393
 21
1162.8313543627996
 31
0.0
  0
LINE
  5
2B4
100
AcDbEntity
  8
0
  6
Continuous
 62
               4
100
AcDbLine
 10
1576.1966725918455
 20
1102.8313543627987
 30
0.0
 11
1226.9113680412393
 21
1102.8313543627987
 31
0.0
  0
LINE
  5
2B5
100
AcDbEntity
  8
0
  6
Continuous
 62
               4
100
AcDbLine
 10
1576.1966725918455
 20
1132.8313543627999
 30
0.0
 11
1226.9113680412393
 21
1132.8313543627996
 31
0.0
  0
LINE
  5
2B6
100
AcDbEntity
  8
0
  6
Continuous
 62
               4
100
AcDbLine
 10
1576.1966725918455
 20
1147.8313543627996
 30
0.0
 11
1226.9113680412393
 21
1147.8313543627996
 31
0.0
  0
LINE
  5
2B7
100
AcDbEntity
  8
0
  6
DIVIDE
 62
               6
100
AcDbLine
 10
1938.2424242424322
 20
817.85743639920202
 30
0.0
 11
1038.242424242407
 21
817.85743639922725
 31
0.0
  0
LINE
  5
2B8
100
AcDbEntity
  8
0
  6
DIVIDE
 62
               6
100
AcDbLine
 10
1938.2424242424322
 20
867.85743639920202
 30
0.0
 11
1038.242424242407
 21
867.85743639922725
 31
0.0
  0
LINE
  5
2B9
100
AcDbEntity
  8
0
  6
Continuous
 62
               4
100
AcDbLine
 10
1561.2485985338296
 20
678.85743639925067
 30
0.0
 11
1415.2485572981864
 21
678.85743639925477
 31
0.0
  0
LINE
  5
2BA
100
AcDbEntity
  8
0
  6
Continuous
 62
               4
100
AcDbLine
 10
2661.2487117486189
 20
678.85743639920611
 30
0.0
 11
2515.2486705129754
 21
678.8574363992102
 31
0.0
  0
LINE
  5
2BB
100
AcDbEntity
  8
0
  6
Continuous
 62
               2
100
AcDbLine
 10
2569.4424242423956
 20
963.35743639916507
 30
0.0
 11
2559.4424242424006
 21
973.35743639916018
 31
0.0
  0
LINE
  5
2BC
100
AcDbEntity
  8
0
  6
Continuous
 62
               2
100
AcDbLine
 10
2557.0424242424006
 20
973.35743639916325
 30
0.0
 11
2547.0424242424006
 21
963.35743639916336
 31
0.0
  0
LINE
  5
2BD
100
AcDbEntity
  8
0
  6
Continuous
 62
               2
100
AcDbLine
 10
2559.4424242424006
 20
973.35743639916018
 30
0.0
 11
2559.4424242424006
 21
1015.7074363991603
 31
0.0
  0
LINE
  5
2BE
100
AcDbEntity
  8
0
  6
Continuous
 62
               4
100
AcDbLine
 10
2558.2424242424004
 20
961.35743639916438
 30
0.0
 11
2558.2424242424004
 21
1015.4574363991603
 31
0.0
  0
LINE
  5
2BF
100
AcDbEntity
  8
0
  6
Continuous
 62
               2
100
AcDbLine
 10
2557.0424242424006
 20
973.35743639916325
 30
0.0
 11
2557.0424242424006
 21
1015.2074363991603
 31
0.0
  0
LINE
  5
2C0
100
AcDbEntity
  8
0
  6
Continuous
 62
               2
100
AcDbLine
 10
2554.0424242424006
 20
998.35743639916029
 30
0.0
 11
2554.0424242424006
 21
1015.7074363991603
 31
0.0
  0
LINE
  5
2C1
100
AcDbEntity
  8
0
  6
Continuous
 62
               4
100
AcDbLine
 10
2554.7924242424006
 20
998.35743639916029
 30
0.0
 11
2554.7924242424006
 21
1015.4574363991603
 31
0.0
  0
LINE
  5
2C2
100
AcDbEntity
  8
0
  6
Continuous
 62
               2
100
AcDbLine
 10
2555.5424242424006
 20
998.35743639916029
 30
0.0
 11
2555.5424242424006
 21
1015.2074363991603
 31
0.0
  0
LINE
  5
2C3
100
AcDbEntity
  8
0
  6
Continuous
 62
               7
100
AcDbLine
 10
2556.2924242424006
 20
998.35743639916029
 30
0.0
 11
2556.2924242424006
 21
1014.5731729190746
 31
0.0
  0
LINE
  5
2C4
100
AcDbEntity
  8
0
  6
Continuous
 62
               2
100
AcDbLine
 10
2138.2424242424077
 20
963.35743639920304
 30
0.0
 11
2247.0424242424401
 21
963.35743639920304
 31
0.0
  0
LINE
  5
2C5
100
AcDbEntity
  8
0
  6
Continuous
 62
               2
100
AcDbLine
 10
2569.4424242423956
 20
963.35743639920304
 30
0.0
 11
2847.0424242424001
 21
963.35743639920304
 31
0.0
  0
LINE
  5
2C6
100
AcDbEntity
  8
0
  6
Continuous
 62
               4
100
AcDbLine
 10
2598.2424242424008
 20
961.35743639916416
 30
0.0
 11
2558.2424242424004
 21
961.35743639916438
 31
0.0
  0
LINE
  5
2C7
100
AcDbEntity
  8
0
  6
Continuous
 62
               2
100
AcDbLine
 10
2869.4424242423952
 20
963.35743639916507
 30
0.0
 11
2859.4424242424002
 21
973.35743639916018
 31
0.0
  0
LINE
  5
2C8
100
AcDbEntity
  8
0
  6
Continuous
 62
               2
100
AcDbLine
 10
2857.0424242424001
 20
973.35743639916325
 30
0.0
 11
2847.0424242424001
 21
963.35743639916336
 31
0.0
  0
LINE
  5
2C9
100
AcDbEntity
  8
0
  6
Continuous
 62
               2
100
AcDbLine
 10
2859.4424242424002
 20
973.35743639916018
 30
0.0
 11
2859.4424242424002
 21
1015.7074363991603
 31
0.0
  0
LINE
  5
2CA
100
AcDbEntity
  8
0
  6
Continuous
 62
               4
100
AcDbLine
 10
2858.2424242424004
 20
961.35743639916438
 30
0.0
 11
2858.2424242424004
 21
1015.4574363991603
 31
0.0
  0
LINE
  5
2CB
100
AcDbEntity
  8
0
  6
Continuous
 62
               2
100
AcDbLine
 10
2857.0424242424001
 20
973.35743639916325
 30
0.0
 11
2857.0424242424001
 21
1015.2074363991603
 31
0.0
  0
LINE
  5
2CC
100
AcDbEntity
  8
0
  6
Continuous
 62
               2
100
AcDbLine
 10
2854.0424242424001
 20
998.35743639916029
 30
0.0
 11
2854.0424242424001
 21
1015.7074363991603
 31
0.0
  0
LINE
  5
2CD
100
AcDbEntity
  8
0
  6
Continuous
 62
               4
100
AcDbLine
 10
2854.7924242424001
 20
998.35743639916029
 30
0.0
 11
2854.7924242424001
 21
1015.4574363991603
 31
0.0
  0
LINE
  5
2CE
100
AcDbEntity
  8
0
  6
Continuous
 62
               2
100
AcDbLine
 10
2855.5424242424001
 20
998.35743639916029
 30
0.0
 11
2855.5424242424001
 21
1015.2074363991603
 31
0.0
  0
LINE
  5
2CF
100
AcDbEntity
  8
0
  6
Continuous
 62
               7
100
AcDbLine
 10
2856.2924242424001
 20
998.35743639916029
 30
0.0
 11
2856.2924242424001
 21
1014.5731729190746
 31
0.0
  0
LINE
  5
2D0
100
AcDbEntity
  8
0
  6
Continuous
 62
               4
100
AcDbLine
 10
2898.2424242424004
 20
961.35743639916416
 30
0.0
 11
2858.2424242424004
 21
961.35743639916438
 31
0.0
  0
LINE
  5
2D1
100
AcDbEntity
  8
0
  6
Continuous
 62
               2
100
AcDbLine
 10
2269.4424242423956
 20
963.35743639916507
 30
0.0
 11
2259.4424242424006
 21
973.35743639916018
 31
0.0
  0
LINE
  5
2D2
100
AcDbEntity
  8
0
  6
Continuous
 62
               2
100
AcDbLine
 10
2257.0424242424006
 20
973.35743639916325
 30
0.0
 11
2247.0424242424006
 21
963.35743639916336
 31
0.0
  0
LINE
  5
2D3
100
AcDbEntity
  8
0
  6
Continuous
 62
               2
100
AcDbLine
 10
2259.4424242424006
 20
973.35743639916018
 30
0.0
 11
2259.4424242424006
 21
1015.7074363991603
 31
0.0
  0
LINE
  5
2D4
100
AcDbEntity
  8
0
  6
Continuous
 62
               4
100
AcDbLine
 10
2258.2424242424004
 20
961.35743639916438
 30
0.0
 11
2258.2424242424004
 21
1015.4574363991603
 31
0.0
  0
LINE
  5
2D5
100
AcDbEntity
  8
0
  6
Continuous
 62
               2
100
AcDbLine
 10
2257.0424242424006
 20
973.35743639916325
 30
0.0
 11
2257.0424242424006
 21
1015.2074363991603
 31
0.0
  0
LINE
  5
2D6
100
AcDbEntity
  8
0
  6
Continuous
 62
               2
100
AcDbLine
 10
2254.0424242424006
 20
998.35743639916029
 30
0.0
 11
2254.0424242424006
 21
1015.7074363991603
 31
0.0
  0
LINE
  5
2D7
100
AcDbEntity
  8
0
  6
Continuous
 62
               4
100
AcDbLine
 10
2254.7924242424006
 20
998.35743639916029
 30
0.0
 11
2254.7924242424006
 21
1015.4574363991603
 31
0.0
  0
LINE
  5
2D8
100
AcDbEntity
  8
0
  6
Continuous
 62
               2
100
AcDbLine
 10
2255.5424242424006
 20
998.35743639916029
 30
0.0
 11
2255.5424242424006
 21
1015.2074363991603
 31
0.0
  0
LINE
  5
2D9
100
AcDbEntity
  8
0
  6
Continuous
 62
               7
100
AcDbLine
 10
2256.2924242424006
 20
998.35743639916029
 30
0.0
 11
2256.2924242424006
 21
1014.5731729190746
 31
0.0
  0
LINE
  5
2DA
100
AcDbEntity
  8
0
  6
Continuous
 62
               4
100
AcDbLine
 10
2298.2424242424004
 20
961.35743639916416
 30
0.0
 11
2258.2424242424004
 21
961.35743639916438
 31
0.0
  0
LINE
  5
2DB
100
AcDbEntity
  8
0
  6
Continuous
 62
               2
100
AcDbLine
 10
2269.4424242423574
 20
963.35743639920304
 30
0.0
 11
2547.0424242424024
 21
963.35743639920304
 31
0.0
  0
LINE
  5
2DC
100
AcDbEntity
  8
0
  6
Continuous
 62
               2
100
AcDbLine
 10
2869.4424242423952
 20
963.35743639920304
 30
0.0
 11
3038.2424242424177
 21
963.35743639910856
 31
0.0
  0
LINE
  5
2DD
100
AcDbEntity
  8
0
  6
Continuous
 62
               4
100
AcDbLine
 10
2258.2424242424004
 20
1021.4574363991603
 30
0.0
 11
2258.2424242424004
 21
1057.3574363992411
 31
0.0
  0
LINE
  5
2DE
100
AcDbEntity
  8
0
  6
Continuous
 62
               4
100
AcDbLine
 10
2558.2424242424004
 20
1021.4574363991603
 30
0.0
 11
2558.2424242424004
 21
1057.3574363992411
 31
0.0
  0
LINE
  5
2DF
100
AcDbEntity
  8
0
  6
Continuous
 62
               4
100
AcDbLine
 10
2258.2424242424004
 20
1054.3574363992411
 30
0.0
 11
2558.2424242424004
 21
1054.3574363992411
 31
0.0
  0
LINE
  5
2E0
100
AcDbEntity
  8
0
  6
Continuous
 62
               4
100
AcDbLine
 10
2858.2424242424004
 20
1021.4574363991603
 30
0.0
 11
2858.2424242424004
 21
1057.3574363992411
 31
0.0
  0
LINE
  5
2E1
100
AcDbEntity
  8
0
  6
Continuous
 62
               4
100
AcDbLine
 10
2558.2424242424004
 20
1054.3574363992411
 30
0.0
 11
2858.2424242424004
 21
1054.3574363992411
 31
0.0
  0
LINE
  5
2E2
100
AcDbEntity
  8
0
  6
Continuous
 62
               4
100
AcDbLine
 10
2858.2424242424022
 20
1054.3574363992411
 30
0.0
 11
3038.2424242424177
 21
1054.3574363992411
 31
0.0
  0
LINE
  5
2E3
100
AcDbEntity
  8
0
  6
Continuous
 62
               4
100
AcDbLine
 10
3038.2424242424177
 20
1054.3574363992411
 30
0.0
 11
3029.3791544653077
 21
1052.7946028002389
 31
0.0
  0
LINE
  5
2E4
100
AcDbEntity
  8
0
  6
Continuous
 62
               4
100
AcDbLine
 10
3038.2424242424177
 20
1054.3574363992411
 30
0.0
 11
3029.3791544653077
 21
1055.9202699982434
 31
0.0
  0
LINE
  5
2E5
100
AcDbEntity
  8
0
  6
Continuous
 62
               4
100
AcDbLine
 10
2258.2424242423986
 20
1054.3574363992411
 30
0.0
 11
2138.2424242424077
 21
1054.3574363992411
 31
0.0
  0
LINE
  5
2E6
100
AcDbEntity
  8
0
  6
Continuous
 62
               4
100
AcDbLine
 10
2138.2424242424077
 20
1054.3574363992411
 30
0.0
 11
2147.1056940195176
 21
1052.7946028002389
 31
0.0
  0
LINE
  5
2E7
100
AcDbEntity
  8
0
  6
Continuous
 62
               4
100
AcDbLine
 10
2138.2424242424077
 20
1054.3574363992411
 30
0.0
 11
2147.1056940195176
 21
1055.9202699982434
 31
0.0
  0
LINE
  5
2E8
100
AcDbEntity
  8
0
  6
Continuous
 62
               7
100
AcDbLine
 10
3008.8059161033766
 20
934.35743639912528
 30
0.0
 11
3033.8059161033743
 21
959.357436399123
 31
0.0
  0
LINE
  5
2E9
100
AcDbEntity
  8
0
  6
Continuous
 62
               7
100
AcDbLine
 10
3022.9480517271063
 20
934.35743639912403
 30
0.0
 11
3038.2424242424131
 21
949.65180891443083
 31
0.0
  0
LINE
  5
2EA
100
AcDbEntity
  8
0
  6
Continuous
 62
               7
100
AcDbLine
 10
3037.0901873508365
 20
934.35743639912278
 30
0.0
 11
3038.2424242424131
 21
935.50967329069977
 31
0.0
  0
LINE
  5
2EB
100
AcDbEntity
  8
0
  6
Continuous
 62
               4
100
AcDbLine
 10
2202.9924242424086
 20
1018.4074363991602
 30
0.0
 11
2250.7424242424004
 21
1018.4074363991602
 31
0.0
  0
LINE
  5
2EC
100
AcDbEntity
  8
0
  6
Continuous
 62
               4
100
AcDbLine
 10
2205.9924242424086
 20
963.35743639920304
 30
0.0
 11
2205.9924242424086
 21
1018.4074363991602
 31
0.0
  0
LINE
  5
2ED
100
AcDbEntity
  8
0
  6
Continuous
 62
               4
100
AcDbLine
 10
2558.2424242424004
 20
966.44751829118832
 30
0.0
 11
2532.1691279076408
 21
1011.607792263791
 31
0.0
  0
LINE
  5
2EE
100
AcDbEntity
  8
0
  6
Continuous
 62
               4
100
AcDbLine
 10
2558.2424242424004
 20
966.44751829118832
 30
0.0
 11
2552.4573357552217
 21
973.34191827925906
 31
0.0
  0
LINE
  5
2EF
100
AcDbEntity
  8
0
  6
Continuous
 62
               4
100
AcDbLine
 10
2558.2424242424004
 20
966.44751829118832
 30
0.0
 11
2555.1642429524695
 21
974.90475187826144
 31
0.0
  0
LINE
  5
2F0
100
AcDbEntity
  8
0
  6
Continuous
 62
               4
100
AcDbLine
 10
2532.1691279076408
 20
1011.607792263791
 30
0.0
 11
2466.7023985744745
 21
1011.607792263791
 31
0.0
  0
LINE
  5
2F1
100
AcDbEntity
  8
0
  6
Continuous
 62
               4
100
AcDbLine
 10
2579.501327458182
 20
961.35743639916427
 30
0.0
 11
2607.7646575284807
 21
1010.3109600720102
 31
0.0
  0
LINE
  5
2F2
100
AcDbEntity
  8
0
  6
Continuous
 62
               4
100
AcDbLine
 10
2579.501327458182
 20
961.35743639916427
 30
0.0
 11
2582.5795087481133
 21
969.8146699862375
 31
0.0
  0
LINE
  5
2F3
100
AcDbEntity
  8
0
  6
Continuous
 62
               4
100
AcDbLine
 10
2579.501327458182
 20
961.35743639916427
 30
0.0
 11
2585.2864159453611
 21
968.25183638723513
 31
0.0
  0
LINE
  5
2F4
100
AcDbEntity
  8
0
  6
Continuous
 62
               4
100
AcDbLine
 10
2607.7646575284807
 20
1010.3109600720102
 30
0.0
 11
2714.4194362457083
 21
1010.3109600720102
 31
0.0
  0
LINE
  5
2F5
100
AcDbEntity
  8
0
  6
Continuous
 62
               7
100
AcDbLine
 10
2575.0013274581815
 20
962.05743639916238
 30
0.0
 11
2584.0013274581811
 21
962.0574363991625
 31
0.0
  0
LINE
  5
2F6
100
AcDbEntity
  8
0
  6
Continuous
 62
               7
100
AcDbLine
 10
2577.5013274581829
 20
960.05743639916216
 30
0.0
 11
2581.5013274581811
 21
960.05743639916273
 31
0.0
  0
LINE
  5
2F7
100
AcDbEntity
  8
0
  6
Continuous
 62
               7
100
AcDbLine
 10
2575.0013274581815
 20
962.05743639916238
 30
0.0
 11
2577.5013274581829
 21
960.05743639916216
 31
0.0
  0
LINE
  5
2F8
100
AcDbEntity
  8
0
  6
Continuous
 62
               7
100
AcDbLine
 10
2581.5013274581811
 20
960.05743639916273
 30
0.0
 11
2584.0013274581811
 21
962.0574363991625
 31
0.0
  0
LINE
  5
2F9
100
AcDbEntity
  8
0
  6
DOT
 62
               7
100
AcDbLine
 10
2577.5013274581806
 20
962.0574363991625
 30
0.0
 11
2578.5013274581811
 21
960.05743639916284
 31
0.0
  0
LINE
  5
2FA
100
AcDbEntity
  8
0
  6
DOT
 62
               7
100
AcDbLine
 10
2580.5013274581811
 20
960.05743639916238
 30
0.0
 11
2581.5013274581825
 21
962.05743639916273
 31
0.0
  0
LINE
  5
2FB
100
AcDbEntity
  8
0
  6
Continuous
 62
               7
100
AcDbLine
 10
2875.0013274581815
 20
962.05743639916227
 30
0.0
 11
2884.0013274581811
 21
962.05743639916238
 31
0.0
  0
LINE
  5
2FC
100
AcDbEntity
  8
0
  6
Continuous
 62
               7
100
AcDbLine
 10
2877.5013274581829
 20
960.05743639916204
 30
0.0
 11
2881.5013274581811
 21
960.05743639916261
 31
0.0
  0
LINE
  5
2FD
100
AcDbEntity
  8
0
  6
Continuous
 62
               7
100
AcDbLine
 10
2875.0013274581815
 20
962.05743639916227
 30
0.0
 11
2877.5013274581829
 21
960.05743639916204
 31
0.0
  0
LINE
  5
2FE
100
AcDbEntity
  8
0
  6
Continuous
 62
               7
100
AcDbLine
 10
2881.5013274581811
 20
960.05743639916261
 30
0.0
 11
2884.0013274581811
 21
962.05743639916238
 31
0.0
  0
LINE
  5
2FF
100
AcDbEntity
  8
0
  6
DOT
 62
               7
100
AcDbLine
 10
2877.5013274581806
 20
962.05743639916238
 30
0.0
 11
2878.5013274581811
 21
960.05743639916273
 31
0.0
  0
LINE
  5
300
100
AcDbEntity
  8
0
  6
DOT
 62
               7
100
AcDbLine
 10
2880.5013274581811
 20
960.05743639916227
 30
0.0
 11
2881.5013274581825
 21
962.05743639916261
 31
0.0
  0
LINE
  5
301
100
AcDbEntity
  8
0
  6
Continuous
 62
               7
100
AcDbLine
 10
2275.0013274581815
 20
962.05743639916227
 30
0.0
 11
2284.0013274581811
 21
962.05743639916238
 31
0.0
  0
LINE
  5
302
100
AcDbEntity
  8
0
  6
Continuous
 62
               7
100
AcDbLine
 10
2277.5013274581829
 20
960.05743639916204
 30
0.0
 11
2281.5013274581811
 21
960.05743639916261
 31
0.0
  0
LINE
  5
303
100
AcDbEntity
  8
0
  6
Continuous
 62
               7
100
AcDbLine
 10
2275.0013274581815
 20
962.05743639916227
 30
0.0
 11
2277.5013274581829
 21
960.05743639916204
 31
0.0
  0
LINE
  5
304
100
AcDbEntity
  8
0
  6
Continuous
 62
               7
100
AcDbLine
 10
2281.5013274581811
 20
960.05743639916261
 30
0.0
 11
2284.0013274581811
 21
962.05743639916238
 31
0.0
  0
LINE
  5
305
100
AcDbEntity
  8
0
  6
DOT
 62
               7
100
AcDbLine
 10
2277.5013274581806
 20
962.05743639916238
 30
0.0
 11
2278.5013274581811
 21
960.05743639916273
 31
0.0
  0
LINE
  5
306
100
AcDbEntity
  8
0
  6
DOT
 62
               7
100
AcDbLine
 10
2280.5013274581811
 20
960.05743639916227
 30
0.0
 11
2281.5013274581825
 21
962.05743639916261
 31
0.0
  0
LINE
  5
307
100
AcDbEntity
  8
0
  6
Continuous
 62
               3
100
AcDbLine
 10
2886.7424242424013
 20
869.35743639916438
 30
0.0
 11
2589.742424242399
 21
869.35743639918996
 31
0.0
  0
LINE
  5
308
100
AcDbEntity
  8
0
  6
Continuous
 62
               3
100
AcDbLine
 10
2886.7424242424008
 20
869.35743639916438
 30
0.0
 11
2886.7424242424008
 21
914.35743639916552
 31
0.0
  0
LINE
  5
309
100
AcDbEntity
  8
0
  6
Continuous
 62
               3
100
AcDbLine
 10
2589.742424242399
 20
869.35743639918996
 30
0.0
 11
2589.742424242399
 21
914.35743639919133
 31
0.0
  0
LINE
  5
30A
100
AcDbEntity
  8
0
  6
Continuous
 62
               4
100
AcDbLine
 10
2595.742424242399
 20
914.35743639918996
 30
0.0
 11
2636.742424242399
 21
914.35743639918996
 31
0.0
  0
LINE
  5
30B
100
AcDbEntity
  8
0
  6
Continuous
 62
               4
100
AcDbLine
 10
2633.742424242399
 20
914.35743639918996
 30
0.0
 11
2633.742424242399
 21
869.35743639918928
 31
0.0
  0
LINE
  5
30C
100
AcDbEntity
  8
0
  6
Continuous
 62
               3
100
AcDbLine
 10
2586.7424242424004
 20
869.35743639916438
 30
0.0
 11
2289.7424242423981
 21
869.35743639918996
 31
0.0
  0
LINE
  5
30D
100
AcDbEntity
  8
0
  6
Continuous
 62
               3
100
AcDbLine
 10
2586.7424242424004
 20
869.35743639916438
 30
0.0
 11
2586.7424242424004
 21
914.35743639916529
 31
0.0
  0
LINE
  5
30E
100
AcDbEntity
  8
0
  6
Continuous
 62
               3
100
AcDbLine
 10
2289.7424242423981
 20
869.35743639918996
 30
0.0
 11
2289.7424242423981
 21
914.35743639919087
 31
0.0
  0
LINE
  5
30F
100
AcDbEntity
  8
0
  6
Continuous
 62
               3
100
AcDbLine
 10
2286.7424242424026
 20
869.3574363991662
 30
0.0
 11
2138.2424242424077
 21
869.35743639919178
 31
0.0
  0
LINE
  5
310
100
AcDbEntity
  8
0
  6
Continuous
 62
               3
100
AcDbLine
 10
2286.7424242424026
 20
869.3574363991662
 30
0.0
 11
2286.7424242424026
 21
914.35743639916734
 31
0.0
  0
LINE
  5
311
100
AcDbEntity
  8
0
  6
Continuous
 62
               3
100
AcDbLine
 10
2889.7424242423995
 20
869.35743639918996
 30
0.0
 11
3038.2424242424086
 21
869.35743639917723
 31
0.0
  0
LINE
  5
312
100
AcDbEntity
  8
0
  6
Continuous
 62
               3
100
AcDbLine
 10
2889.7424242423995
 20
869.35743639918996
 30
0.0
 11
2889.7424242423995
 21
914.35743639919133
 31
0.0
  0
LINE
  5
313
100
AcDbEntity
  8
0
  6
Continuous
 62
               4
100
AcDbLine
 10
2773.4758934411029
 20
1117.8313543627405
 30
0.0
 11
2418.1941841838266
 21
1117.8313543627405
 31
0.0
  0
LINE
  5
314
100
AcDbEntity
  8
0
  6
Continuous
 62
               3
100
AcDbLine
 10
1786.7424242424252
 20
869.35743639921532
 30
0.0
 11
1489.7424242424227
 21
869.3574363992409
 31
0.0
  0
LINE
  5
315
100
AcDbEntity
  8
0
  6
Continuous
 62
               3
100
AcDbLine
 10
1786.7424242424249
 20
869.35743639921532
 30
0.0
 11
1786.7424242424249
 21
914.35743639921645
 31
0.0
  0
LINE
  5
316
100
AcDbEntity
  8
0
  6
Continuous
 62
               3
100
AcDbLine
 10
1489.7424242424227
 20
869.3574363992409
 30
0.0
 11
1489.7424242424227
 21
914.35743639924237
 31
0.0
  0
LINE
  5
317
100
AcDbEntity
  8
0
  6
Continuous
 62
               3
100
AcDbLine
 10
1486.742424242424
 20
869.35743639921532
 30
0.0
 11
1189.7424242424217
 21
869.3574363992409
 31
0.0
  0
LINE
  5
318
100
AcDbEntity
  8
0
  6
Continuous
 62
               3
100
AcDbLine
 10
1486.742424242424
 20
869.35743639921532
 30
0.0
 11
1486.742424242424
 21
914.35743639921623
 31
0.0
  0
LINE
  5
319
100
AcDbEntity
  8
0
  6
Continuous
 62
               3
100
AcDbLine
 10
1189.7424242424217
 20
869.3574363992409
 30
0.0
 11
1189.7424242424217
 21
914.35743639924181
 31
0.0
  0
LINE
  5
31A
100
AcDbEntity
  8
0
  6
Continuous
 62
               3
100
AcDbLine
 10
1186.7424242424263
 20
869.35743639921714
 30
0.0
 11
1038.2424242424313
 21
869.35743639924272
 31
0.0
  0
LINE
  5
31B
100
AcDbEntity
  8
0
  6
Continuous
 62
               3
100
AcDbLine
 10
1186.7424242424263
 20
869.35743639921714
 30
0.0
 11
1186.7424242424263
 21
914.35743639921827
 31
0.0
  0
LINE
  5
31C
100
AcDbEntity
  8
0
  6
Continuous
 62
               3
100
AcDbLine
 10
1789.7424242424236
 20
869.3574363992409
 30
0.0
 11
1938.2424242424322
 21
869.35743639922816
 31
0.0
  0
LINE
  5
31D
100
AcDbEntity
  8
0
  6
Continuous
 62
               3
100
AcDbLine
 10
1789.7424242424236
 20
869.3574363992409
 30
0.0
 11
1789.7424242424236
 21
914.35743639924237
 31
0.0
  0
LINE
  5
31E
100
AcDbEntity
  8
0
  6
Continuous
 62
               4
100
AcDbLine
 10
1576.1966725918455
 20
1117.8313543627914
 30
0.0
 11
1226.9113680412393
 21
1117.8313543627914
 31
0.0
  0
LINE
  5
31F
100
AcDbEntity
  8
0
  6
Continuous
 62
               4
100
AcDbLine
 10
1495.7424242424199
 20
914.35743639921498
 30
0.0
 11
1536.7424242424199
 21
914.35743639921498
 31
0.0
  0
LINE
  5
320
100
AcDbEntity
  8
0
  6
Continuous
 62
               4
100
AcDbLine
 10
1533.7424242424199
 20
914.35743639921498
 30
0.0
 11
1533.7424242424199
 21
869.35743639921429
 31
0.0
  0
LINE
  5
321
100
AcDbEntity
  8
0
  6
Continuous
 62
               2
100
AcDbLine
 10
1743.2424242424229
 20
954.85743639920531
 30
0.0
 11
1757.7424242424229
 21
954.85743639920531
 31
0.0
  0
LINE
  5
322
100
AcDbEntity
  8
0
  6
Continuous
 62
               2
100
AcDbLine
 10
1769.237467853402
 20
955.00004932386616
 30
0.0
 11
1765.7424242424229
 21
943.2554592721491
 31
0.0
  0
LINE
  5
323
100
AcDbEntity
  8
0
  6
Continuous
 62
               2
100
AcDbLine
 10
1765.2529340325541
 20
942.85743639920508
 30
0.0
 11
1743.7424242424229
 21
942.85743639920508
 31
0.0
  0
LINE
  5
324
100
AcDbEntity
  8
0
  6
Continuous
 62
               2
100
AcDbLine
 10
1729.4082671061497
 20
954.4594135262613
 30
0.0
 11
1732.7424242424229
 21
943.2554592721491
 31
0.0
  0
LINE
  5
325
100
AcDbEntity
  8
0
  6
Continuous
 62
               2
100
AcDbLine
 10
1742.7424242424229
 20
954.35743639920531
 30
0.0
 11
1742.7424242424229
 21
943.35743639920508
 31
0.0
  0
LINE
  5
326
100
AcDbEntity
  8
0
  6
Continuous
 62
               2
100
AcDbLine
 10
1742.2424242424229
 20
942.8574363992052
 30
0.0
 11
1733.2319144522917
 21
942.85743639920508
 31
0.0
  0
LINE
  5
327
100
AcDbEntity
  8
0
  6
Continuous
 62
               2
100
AcDbLine
 10
1743.2424242424229
 20
953.85743639920531
 30
0.0
 11
1743.2424242424229
 21
943.35743639920508
 31
0.0
  0
LINE
  5
328
100
AcDbEntity
  8
0
  6
Continuous
 62
               2
100
AcDbLine
 10
1743.7424242424229
 20
954.35743639920531
 30
0.0
 11
1757.7424242424229
 21
954.35743639920531
 31
0.0
  0
LINE
  5
329
100
AcDbEntity
  8
0
  6
Continuous
 62
               2
100
AcDbLine
 10
1728.9187768962806
 20
954.85743639920531
 30
0.0
 11
1714.3253456742859
 21
954.85743639920531
 31
0.0
  0
LINE
  5
32A
100
AcDbEntity
  8
0
  6
Continuous
 62
               2
100
AcDbLine
 10
1469.7166980211905
 20
955.35743639921293
 30
0.0
 11
1757.7424242424229
 21
955.35743639921054
 31
0.0
  0
LINE
  5
32B
100
AcDbEntity
  8
0
  6
Continuous
 62
               2
100
AcDbLine
 10
1758.2424242424229
 20
954.85743639921043
 30
0.0
 11
1758.2424242424215
 21
943.61102623769659
 31
0.0
  0
LINE
  5
32C
100
AcDbEntity
  8
0
  6
Continuous
 62
               2
100
AcDbLine
 10
1757.6826166212863
 20
943.46102623769661
 30
0.0
 11
1753.2424242424227
 21
953.43144997030004
 31
0.0
  0
LINE
  5
32D
100
AcDbEntity
  8
0
  6
Continuous
 62
               2
100
AcDbLine
 10
1753.2424242424227
 20
953.43144997030004
 30
0.0
 11
1751.2424242424227
 21
953.43144997030038
 31
0.0
  0
LINE
  5
32E
100
AcDbEntity
  8
0
  6
Continuous
 62
               3
100
AcDbLine
 10
1773.918776896282
 20
951.35743639921259
 30
0.0
 11
1938.2424242424322
 21
951.3574363992127
 31
0.0
  0
LINE
  5
32F
100
AcDbEntity
  8
0
  6
Continuous
 62
               3
100
AcDbLine
 10
1723.9187854235377
 20
951.35743638666577
 30
0.0
 11
1473.9187768962784
 21
951.35743430319769
 31
0.0
  0
LINE
  5
330
100
AcDbEntity
  8
0
  6
Continuous
 62
               3
100
AcDbLine
 10
1723.9187854235379
 20
951.35743682253076
 30
0.0
 11
1723.9187768962806
 21
926.3574363992127
 31
0.0
  0
LINE
  5
331
100
AcDbEntity
  8
0
  6
Continuous
 62
               2
100
AcDbLine
 10
1769.7166980211941
 20
955.35743639921293
 30
0.0
 11
1938.2424242424322
 21
955.35743639921293
 31
0.0
  0
LINE
  5
332
100
AcDbEntity
  8
0
  6
DASHED
 62
               6
100
AcDbLine
 10
1773.918776896282
 20
952.35743620966355
 30
0.0
 11
1938.2424242424322
 21
952.35743620966366
 31
0.0
  0
LINE
  5
333
100
AcDbEntity
  8
0
  6
DASHED
 62
               6
100
AcDbLine
 10
1727.9187768962806
 20
940.05743620966359
 30
0.0
 11
1769.4187768962806
 21
940.05743620966359
 31
0.0
  0
LINE
  5
334
100
AcDbEntity
  8
0
  6
DASHED
 62
               6
100
AcDbLine
 10
1723.9187768964089
 20
952.35743620966559
 30
0.0
 11
1473.9187768962784
 21
952.35743620966366
 31
0.0
  0
LINE
  5
335
100
AcDbEntity
  8
0
  6
DASHED
 62
               6
100
AcDbLine
 10
1771.7166980211941
 20
942.05743620966359
 30
0.0
 11
1771.7166980211941
 21
950.35743620966377
 31
0.0
  0
LINE
  5
336
100
AcDbEntity
  8
0
  6
DASHED
 62
               6
100
AcDbLine
 10
1725.9187768962806
 20
950.35743620966559
 30
0.0
 11
1725.9187768962806
 21
942.05743620966371
 31
0.0
  0
LINE
  5
337
100
AcDbEntity
  8
0
  6
Continuous
 62
               3
100
AcDbLine
 10
1773.918776896282
 20
951.35743639921282
 30
0.0
 11
1773.9187768962818
 21
926.3574363992127
 31
0.0
  0
LINE
  5
338
100
AcDbEntity
  8
0
  6
Continuous
 62
               3
100
AcDbLine
 10
1773.918776896282
 20
926.35743639921247
 30
0.0
 11
1938.2424242424322
 21
926.35743639921259
 31
0.0
  0
LINE
  5
339
100
AcDbEntity
  8
0
  6
Continuous
 62
               3
100
AcDbLine
 10
1723.9187768962806
 20
926.35743632706112
 30
0.0
 11
1473.9187768962784
 21
926.3574364024231
 31
0.0
  0
LINE
  5
33A
100
AcDbEntity
  8
0
  6
Continuous
 62
               7
100
AcDbLine
 10
1928.0188825925175
 20
951.3574363992127
 30
0.0
 11
1903.0188825925175
 21
926.35743639921247
 31
0.0
  0
LINE
  5
33B
100
AcDbEntity
  8
0
  6
Continuous
 62
               7
100
AcDbLine
 10
1913.4187741675769
 20
950.89946359800297
 30
0.0
 11
1888.8767469687864
 21
926.35743639921247
 31
0.0
  0
LINE
  5
33C
100
AcDbEntity
  8
0
  6
Continuous
 62
               7
100
AcDbLine
 10
1899.7346113450558
 20
951.35743639921259
 30
0.0
 11
1874.7346113450553
 21
926.35743639921247
 31
0.0
  0
LINE
  5
33D
100
AcDbEntity
  8
0
  6
Continuous
 62
               7
100
AcDbLine
 10
1885.5924757213247
 20
951.35743639921259
 30
0.0
 11
1860.5924757213243
 21
926.35743639921247
 31
0.0
  0
LINE
  5
33E
100
AcDbEntity
  8
0
  6
Continuous
 62
               7
100
AcDbLine
 10
1871.4503400975937
 20
951.35743639921259
 30
0.0
 11
1846.4503400975937
 21
926.35743639921247
 31
0.0
  0
LINE
  5
33F
100
AcDbEntity
  8
0
  6
Continuous
 62
               7
100
AcDbLine
 10
1857.3082044738626
 20
951.35743639921259
 30
0.0
 11
1832.3082044738626
 21
926.35743639921247
 31
0.0
  0
LINE
  5
340
100
AcDbEntity
  8
0
  6
Continuous
 62
               7
100
AcDbLine
 10
1843.1660688501315
 20
951.35743639921259
 30
0.0
 11
1818.1660688501315
 21
926.35743639921247
 31
0.0
  0
LINE
  5
341
100
AcDbEntity
  8
0
  6
Continuous
 62
               7
100
AcDbLine
 10
1829.0239332264009
 20
951.35743639921259
 30
0.0
 11
1804.0239332264009
 21
926.35743639921247
 31
0.0
  0
LINE
  5
342
100
AcDbEntity
  8
0
  6
Continuous
 62
               7
100
AcDbLine
 10
1723.918778515661
 20
931.10509541424221
 30
0.0
 11
1719.1711194840145
 21
926.35743639921259
 31
0.0
  0
LINE
  5
343
100
AcDbEntity
  8
0
  6
Continuous
 62
               7
100
AcDbLine
 10
1723.9187833394076
 20
945.24723586233563
 30
0.0
 11
1705.0289838602835
 21
926.35743639921259
 31
0.0
  0
LINE
  5
344
100
AcDbEntity
  8
0
  6
Continuous
 62
               7
100
AcDbLine
 10
1715.8868481728978
 20
951.35743633555762
 30
0.0
 11
1690.886848236551
 21
926.35743639921259
 31
0.0
  0
LINE
  5
345
100
AcDbEntity
  8
0
  6
Continuous
 62
               7
100
AcDbLine
 10
1701.7447124304931
 20
951.35743621688437
 30
0.0
 11
1676.74471261282
 21
926.35743639921259
 31
0.0
  0
LINE
  5
346
100
AcDbEntity
  8
0
  6
Continuous
 62
               7
100
AcDbLine
 10
1687.6025766880875
 20
951.35743609821122
 30
0.0
 11
1662.6025769890887
 21
926.35743639921259
 31
0.0
  0
LINE
  5
347
100
AcDbEntity
  8
0
  6
Continuous
 62
               7
100
AcDbLine
 10
1673.4604409456833
 20
951.35743597953797
 30
0.0
 11
1648.4604413653574
 21
926.35743639921259
 31
0.0
  0
LINE
  5
348
100
AcDbEntity
  8
0
  6
Continuous
 62
               7
100
AcDbLine
 10
1659.3183052032787
 20
951.35743586086471
 30
0.0
 11
1634.3183057416263
 21
926.35743639921259
 31
0.0
  0
LINE
  5
349
100
AcDbEntity
  8
0
  6
Continuous
 62
               7
100
AcDbLine
 10
1645.1761694608745
 20
951.35743574219157
 30
0.0
 11
1620.1761701178953
 21
926.35743639921259
 31
0.0
  0
LINE
  5
34A
100
AcDbEntity
  8
0
  6
Continuous
 62
               7
100
AcDbLine
 10
1631.0340337184698
 20
951.35743562351831
 30
0.0
 11
1606.0340344941642
 21
926.35743639921259
 31
0.0
  0
LINE
  5
34B
100
AcDbEntity
  8
0
  6
Continuous
 62
               7
100
AcDbLine
 10
1616.8918979760656
 20
951.35743550484506
 30
0.0
 11
1591.8918988704331
 21
926.35743639921259
 31
0.0
  0
LINE
  5
34C
100
AcDbEntity
  8
0
  6
Continuous
 62
               7
100
AcDbLine
 10
1602.7497622336614
 20
951.35743538617191
 30
0.0
 11
1577.7497632467021
 21
926.35743639921259
 31
0.0
  0
LINE
  5
34D
100
AcDbEntity
  8
0
  6
Continuous
 62
               7
100
AcDbLine
 10
1588.6076264912572
 20
951.35743526749866
 30
0.0
 11
1563.607627622971
 21
926.35743639921259
 31
0.0
  0
LINE
  5
34E
100
AcDbEntity
  8
0
  6
Continuous
 62
               7
100
AcDbLine
 10
1574.465490748853
 20
951.3574351488254
 30
0.0
 11
1549.4654919992402
 21
926.35743639921259
 31
0.0
  0
LINE
  5
34F
100
AcDbEntity
  8
0
  6
Continuous
 62
               7
100
AcDbLine
 10
1560.3233550064488
 20
951.35743503015226
 30
0.0
 11
1535.3233563755093
 21
926.35743639921259
 31
0.0
  0
LINE
  5
350
100
AcDbEntity
  8
0
  6
Continuous
 62
               7
100
AcDbLine
 10
1546.1812192640446
 20
951.357434911479
 30
0.0
 11
1521.1812207517783
 21
926.35743639921259
 31
0.0
  0
LINE
  5
351
100
AcDbEntity
  8
0
  6
Continuous
 62
               7
100
AcDbLine
 10
1532.0390835216404
 20
951.35743479280586
 30
0.0
 11
1507.0390851280474
 21
926.35743639921259
 31
0.0
  0
LINE
  5
352
100
AcDbEntity
  8
0
  6
Continuous
 62
               6
100
AcDbLine
 10
1938.2424242424322
 20
924.25743639919654
 30
0.0
 11
1038.242424242407
 21
924.25743639921097
 31
0.0
  0
LINE
  5
353
100
AcDbEntity
  8
0
  6
Continuous
 62
               6
100
AcDbLine
 10
1938.2424242424322
 20
925.45743639919647
 30
0.0
 11
1038.242424242407
 21
925.45743639921102
 31
0.0
  0
LINE
  5
354
100
AcDbEntity
  8
0
  6
Continuous
 62
               2
100
AcDbLine
 10
1443.2424242424192
 20
954.85743639920531
 30
0.0
 11
1457.7424242424195
 21
954.85743639920531
 31
0.0
  0
LINE
  5
355
100
AcDbEntity
  8
0
  6
Continuous
 62
               2
100
AcDbLine
 10
1469.2374678533984
 20
955.00004932386616
 30
0.0
 11
1465.7424242424195
 21
943.2554592721491
 31
0.0
  0
LINE
  5
356
100
AcDbEntity
  8
0
  6
Continuous
 62
               2
100
AcDbLine
 10
1465.2529340325505
 20
942.85743639920508
 30
0.0
 11
1443.7424242424192
 21
942.85743639920508
 31
0.0
  0
LINE
  5
357
100
AcDbEntity
  8
0
  6
Continuous
 62
               2
100
AcDbLine
 10
1429.408267106146
 20
954.4594135262613
 30
0.0
 11
1432.7424242424192
 21
943.2554592721491
 31
0.0
  0
LINE
  5
358
100
AcDbEntity
  8
0
  6
Continuous
 62
               2
100
AcDbLine
 10
1442.7424242424192
 20
954.35743639920531
 30
0.0
 11
1442.7424242424195
 21
943.35743639920508
 31
0.0
  0
LINE
  5
359
100
AcDbEntity
  8
0
  6
Continuous
 62
               2
100
AcDbLine
 10
1442.2424242424192
 20
942.8574363992052
 30
0.0
 11
1433.231914452288
 21
942.85743639920508
 31
0.0
  0
LINE
  5
35A
100
AcDbEntity
  8
0
  6
Continuous
 62
               2
100
AcDbLine
 10
1443.2424242424195
 20
953.85743639920531
 30
0.0
 11
1443.2424242424192
 21
943.35743639920508
 31
0.0
  0
LINE
  5
35B
100
AcDbEntity
  8
0
  6
Continuous
 62
               2
100
AcDbLine
 10
1443.7424242424192
 20
954.35743639920531
 30
0.0
 11
1457.7424242424195
 21
954.35743639920531
 31
0.0
  0
LINE
  5
35C
100
AcDbEntity
  8
0
  6
Continuous
 62
               2
100
AcDbLine
 10
1428.918776896277
 20
954.85743639920531
 30
0.0
 11
1414.3253456742827
 21
954.85743639920531
 31
0.0
  0
LINE
  5
35D
100
AcDbEntity
  8
0
  6
Continuous
 62
               2
100
AcDbLine
 10
1457.7424242424195
 20
955.35743639921077
 30
0.0
 11
1169.7166980211903
 21
955.35743639921293
 31
0.0
  0
LINE
  5
35E
100
AcDbEntity
  8
0
  6
Continuous
 62
               2
100
AcDbLine
 10
1458.2424242424192
 20
954.85743639921043
 30
0.0
 11
1458.2424242424179
 21
943.61102623769659
 31
0.0
  0
LINE
  5
35F
100
AcDbEntity
  8
0
  6
Continuous
 62
               2
100
AcDbLine
 10
1457.6826166212827
 20
943.46102623769661
 30
0.0
 11
1453.242424242419
 21
953.43144997030004
 31
0.0
  0
LINE
  5
360
100
AcDbEntity
  8
0
  6
Continuous
 62
               2
100
AcDbLine
 10
1453.242424242419
 20
953.43144997030004
 30
0.0
 11
1451.242424242419
 21
953.43144997030038
 31
0.0
  0
LINE
  5
361
100
AcDbEntity
  8
0
  6
Continuous
 62
               3
100
AcDbLine
 10
1423.918785423534
 20
951.35743641646809
 30
0.0
 11
1173.9187768962781
 21
951.35743429218394
 31
0.0
  0
LINE
  5
362
100
AcDbEntity
  8
0
  6
Continuous
 62
               3
100
AcDbLine
 10
1423.9187854235342
 20
951.35743682253076
 30
0.0
 11
1423.9187768962772
 21
926.3574363992127
 31
0.0
  0
LINE
  5
363
100
AcDbEntity
  8
0
  6
DASHED
 62
               6
100
AcDbLine
 10
1427.918776896277
 20
940.05743620966359
 30
0.0
 11
1469.4187768962772
 21
940.05743620966359
 31
0.0
  0
LINE
  5
364
100
AcDbEntity
  8
0
  6
DASHED
 62
               6
100
AcDbLine
 10
1423.9187768965521
 20
952.35743620966559
 30
0.0
 11
1173.7166980211903
 21
952.35743620966377
 31
0.0
  0
LINE
  5
365
100
AcDbEntity
  8
0
  6
DASHED
 62
               6
100
AcDbLine
 10
1471.7166980211905
 20
942.05743620966359
 30
0.0
 11
1471.7166980211905
 21
950.35743620966377
 31
0.0
  0
LINE
  5
366
100
AcDbEntity
  8
0
  6
DASHED
 62
               6
100
AcDbLine
 10
1425.918776896277
 20
950.35743620966559
 30
0.0
 11
1425.918776896277
 21
942.05743620966371
 31
0.0
  0
LINE
  5
367
100
AcDbEntity
  8
0
  6
Continuous
 62
               3
100
AcDbLine
 10
1473.9187768962784
 20
951.35743639921282
 30
0.0
 11
1473.9187768962784
 21
926.3574363992127
 31
0.0
  0
LINE
  5
368
100
AcDbEntity
  8
0
  6
Continuous
 62
               3
100
AcDbLine
 10
1423.918776896277
 20
926.3574362972588
 30
0.0
 11
1173.9187768962781
 21
926.35743649250855
 31
0.0
  0
LINE
  5
369
100
AcDbEntity
  8
0
  6
Continuous
 62
               7
100
AcDbLine
 10
1423.9187785156576
 20
931.10509541424221
 30
0.0
 11
1419.1711194840113
 21
926.35743639921259
 31
0.0
  0
LINE
  5
36A
100
AcDbEntity
  8
0
  6
Continuous
 62
               7
100
AcDbLine
 10
1423.9187833394039
 20
945.24723586233563
 30
0.0
 11
1405.0289838602805
 21
926.35743639921259
 31
0.0
  0
LINE
  5
36B
100
AcDbEntity
  8
0
  6
Continuous
 62
               7
100
AcDbLine
 10
1415.8868481728946
 20
951.35743633555762
 30
0.0
 11
1390.8868482365497
 21
926.35743639921259
 31
0.0
  0
LINE
  5
36C
100
AcDbEntity
  8
0
  6
Continuous
 62
               7
100
AcDbLine
 10
1401.7447124304904
 20
951.35743621688437
 30
0.0
 11
1376.7447126128186
 21
926.35743639921259
 31
0.0
  0
LINE
  5
36D
100
AcDbEntity
  8
0
  6
Continuous
 62
               7
100
AcDbLine
 10
1387.6025766880862
 20
951.35743609821122
 30
0.0
 11
1362.6025769890875
 21
926.35743639921259
 31
0.0
  0
LINE
  5
36E
100
AcDbEntity
  8
0
  6
Continuous
 62
               7
100
AcDbLine
 10
1373.4604409456822
 20
951.35743597953797
 30
0.0
 11
1348.4604413653567
 21
926.35743639921259
 31
0.0
  0
LINE
  5
36F
100
AcDbEntity
  8
0
  6
Continuous
 62
               7
100
AcDbLine
 10
1359.318305203278
 20
951.35743586086471
 30
0.0
 11
1334.3183053856062
 21
926.35743604319293
 31
0.0
  0
LINE
  5
370
100
AcDbEntity
  8
0
  6
Continuous
 62
               7
100
AcDbLine
 10
1345.1761694608738
 20
951.35743574219157
 30
0.0
 11
1320.1761697618751
 21
926.35743604319293
 31
0.0
  0
LINE
  5
371
100
AcDbEntity
  8
0
  6
Continuous
 62
               7
100
AcDbLine
 10
1331.0340337184698
 20
951.35743562351831
 30
0.0
 11
1306.0340344988758
 21
926.35743640392445
 31
0.0
  0
LINE
  5
372
100
AcDbEntity
  8
0
  6
Continuous
 62
               7
100
AcDbLine
 10
1316.8918979760656
 20
951.35743550484506
 30
0.0
 11
1291.8918988841681
 21
926.35743641294778
 31
0.0
  0
LINE
  5
373
100
AcDbEntity
  8
0
  6
Continuous
 62
               4
100
AcDbLine
 10
1758.2424242424229
 20
960.85743639921043
 30
0.0
 11
1758.2424242424229
 21
1057.3574363992411
 31
0.0
  0
LINE
  5
374
100
AcDbEntity
  8
0
  6
Continuous
 62
               4
100
AcDbLine
 10
1458.2424242424192
 20
960.85743639921043
 30
0.0
 11
1458.2424242424192
 21
1057.3574363992411
 31
0.0
  0
LINE
  5
375
100
AcDbEntity
  8
0
  6
Continuous
 62
               4
100
AcDbLine
 10
1758.2424242424231
 20
1054.3574363992411
 30
0.0
 11
1938.2424242424322
 21
1054.3574363992411
 31
0.0
  0
LINE
  5
376
100
AcDbEntity
  8
0
  6
Continuous
 62
               4
100
AcDbLine
 10
1938.2424242424322
 20
1054.3574363992411
 30
0.0
 11
1929.3791544653227
 21
1052.7946028002389
 31
0.0
  0
LINE
  5
377
100
AcDbEntity
  8
0
  6
Continuous
 62
               4
100
AcDbLine
 10
1938.2424242424322
 20
1054.3574363992411
 30
0.0
 11
1929.3791544653227
 21
1055.9202699982436
 31
0.0
  0
LINE
  5
378
100
AcDbEntity
  8
0
  6
Continuous
 62
               4
100
AcDbLine
 10
1158.242424242419
 20
1054.3574363992411
 30
0.0
 11
1038.242424242407
 21
1054.3574363992411
 31
0.0
  0
LINE
  5
379
100
AcDbEntity
  8
0
  6
Continuous
 62
               4
100
AcDbLine
 10
1038.242424242407
 20
1054.3574363992411
 30
0.0
 11
1047.1056940195169
 21
1052.7946028002389
 31
0.0
  0
LINE
  5
37A
100
AcDbEntity
  8
0
  6
Continuous
 62
               4
100
AcDbLine
 10
1038.242424242407
 20
1054.3574363992411
 30
0.0
 11
1047.1056940195169
 21
1055.9202699982436
 31
0.0
  0
LINE
  5
37B
100
AcDbEntity
  8
0
  6
Continuous
 62
               7
100
AcDbLine
 10
1517.8969478979097
 20
951.35743479280586
 30
0.0
 11
1492.8969495054962
 21
926.35743640039209
 31
0.0
  0
LINE
  5
37C
100
AcDbEntity
  8
0
  6
Continuous
 62
               2
100
AcDbLine
 10
1188.7424242424227
 20
923.35743639921634
 30
0.0
 11
1148.7424242424179
 21
923.35743639921975
 31
0.0
  0
LINE
  5
37D
100
AcDbEntity
  8
0
  6
Continuous
 62
               2
100
AcDbLine
 10
1143.242424242419
 20
954.85743639920531
 30
0.0
 11
1157.742424242419
 21
954.85743639920531
 31
0.0
  0
LINE
  5
37E
100
AcDbEntity
  8
0
  6
Continuous
 62
               2
100
AcDbLine
 10
1169.2374678533984
 20
955.00004932386616
 30
0.0
 11
1165.742424242419
 21
943.2554592721491
 31
0.0
  0
LINE
  5
37F
100
AcDbEntity
  8
0
  6
Continuous
 62
               2
100
AcDbLine
 10
1165.2529340325502
 20
942.85743639920508
 30
0.0
 11
1143.742424242419
 21
942.85743639920508
 31
0.0
  0
LINE
  5
380
100
AcDbEntity
  8
0
  6
Continuous
 62
               2
100
AcDbLine
 10
1129.4082671061458
 20
954.4594135262613
 30
0.0
 11
1132.742424242419
 21
943.2554592721491
 31
0.0
  0
LINE
  5
381
100
AcDbEntity
  8
0
  6
Continuous
 62
               2
100
AcDbLine
 10
1142.742424242419
 20
954.35743639920531
 30
0.0
 11
1142.742424242419
 21
943.35743639920508
 31
0.0
  0
LINE
  5
382
100
AcDbEntity
  8
0
  6
Continuous
 62
               2
100
AcDbLine
 10
1142.242424242419
 20
942.8574363992052
 30
0.0
 11
1133.2319144522878
 21
942.85743639920508
 31
0.0
  0
LINE
  5
383
100
AcDbEntity
  8
0
  6
Continuous
 62
               2
100
AcDbLine
 10
1143.242424242419
 20
953.85743639920531
 30
0.0
 11
1143.242424242419
 21
943.35743639920508
 31
0.0
  0
LINE
  5
384
100
AcDbEntity
  8
0
  6
Continuous
 62
               2
100
AcDbLine
 10
1143.742424242419
 20
954.35743639920531
 30
0.0
 11
1157.742424242419
 21
954.35743639920531
 31
0.0
  0
LINE
  5
385
100
AcDbEntity
  8
0
  6
Continuous
 62
               2
100
AcDbLine
 10
1128.918776896277
 20
954.85743639920531
 30
0.0
 11
1114.3253456742823
 21
954.85743639920531
 31
0.0
  0
LINE
  5
386
100
AcDbEntity
  8
0
  6
Continuous
 62
               2
100
AcDbLine
 10
1158.242424242419
 20
954.85743639921043
 30
0.0
 11
1158.2424242424177
 21
943.61102623769659
 31
0.0
  0
LINE
  5
387
100
AcDbEntity
  8
0
  6
Continuous
 62
               2
100
AcDbLine
 10
1157.6826166212822
 20
943.46102623769661
 30
0.0
 11
1153.2424242424188
 21
953.43144997030004
 31
0.0
  0
LINE
  5
388
100
AcDbEntity
  8
0
  6
Continuous
 62
               2
100
AcDbLine
 10
1153.2424242424188
 20
953.43144997030004
 30
0.0
 11
1151.2424242424188
 21
953.43144997030038
 31
0.0
  0
LINE
  5
389
100
AcDbEntity
  8
0
  6
Continuous
 62
               3
100
AcDbLine
 10
1123.918785423534
 20
951.35743682253076
 30
0.0
 11
1123.918776896277
 21
926.3574363992127
 31
0.0
  0
LINE
  5
38A
100
AcDbEntity
  8
0
  6
DASHED
 62
               6
100
AcDbLine
 10
1127.918776896277
 20
940.05743620966359
 30
0.0
 11
1169.418776896277
 21
940.05743620966359
 31
0.0
  0
LINE
  5
38B
100
AcDbEntity
  8
0
  6
DASHED
 62
               6
100
AcDbLine
 10
1171.7166980211903
 20
942.05743620966359
 30
0.0
 11
1171.7166980211903
 21
950.35743620966377
 31
0.0
  0
LINE
  5
38C
100
AcDbEntity
  8
0
  6
DASHED
 62
               6
100
AcDbLine
 10
1125.918776896277
 20
950.35743620966559
 30
0.0
 11
1125.918776896277
 21
942.05743620966371
 31
0.0
  0
LINE
  5
38D
100
AcDbEntity
  8
0
  6
Continuous
 62
               3
100
AcDbLine
 10
1173.9187768962781
 20
951.35743639921282
 30
0.0
 11
1173.9187768962779
 21
926.3574363992127
 31
0.0
  0
LINE
  5
38E
100
AcDbEntity
  8
0
  6
Continuous
 62
               4
100
AcDbLine
 10
1158.242424242419
 20
960.85743639921043
 30
0.0
 11
1158.242424242419
 21
1057.3574363992411
 31
0.0
  0
LINE
  5
38F
100
AcDbEntity
  8
0
  6
Continuous
 62
               3
100
AcDbLine
 10
1123.9187854235329
 20
951.35743382366604
 30
0.0
 11
1038.2424242508873
 21
951.35743314209822
 31
0.0
  0
LINE
  5
390
100
AcDbEntity
  8
0
  6
DASHED
 62
               6
100
AcDbLine
 10
1123.918776896277
 20
952.35743620966559
 30
0.0
 11
1038.242424242407
 21
952.35743620966582
 31
0.0
  0
LINE
  5
391
100
AcDbEntity
  8
0
  6
Continuous
 62
               7
100
AcDbLine
 10
1302.7497169404392
 20
951.35743575592676
 30
0.0
 11
1277.7497629044176
 21
926.35743605692812
 31
0.0
  0
LINE
  5
392
100
AcDbEntity
  8
0
  6
Continuous
 62
               7
100
AcDbLine
 10
1288.6076269796852
 20
951.35743575592676
 30
0.0
 11
1263.6076272806865
 21
926.35743605692812
 31
0.0
  0
LINE
  5
393
100
AcDbEntity
  8
0
  6
Continuous
 62
               7
100
AcDbLine
 10
1274.4654912372812
 20
951.3574356372535
 30
0.0
 11
1249.4654920176872
 21
926.35743641765964
 31
0.0
  0
LINE
  5
394
100
AcDbEntity
  8
0
  6
Continuous
 62
               7
100
AcDbLine
 10
1260.3233554948768
 20
951.35743551858036
 30
0.0
 11
1235.3233564029797
 21
926.35743642668297
 31
0.0
  0
LINE
  5
395
100
AcDbEntity
  8
0
  6
Continuous
 62
               7
100
AcDbLine
 10
1246.1812202409008
 20
951.3574358883352
 30
0.0
 11
1221.181220423229
 21
926.35743607066331
 31
0.0
  0
LINE
  5
396
100
AcDbEntity
  8
0
  6
Continuous
 62
               7
100
AcDbLine
 10
1232.0390844984968
 20
951.35743576966195
 30
0.0
 11
1207.0390847994981
 21
926.35743607066331
 31
0.0
  0
LINE
  5
397
100
AcDbEntity
  8
0
  6
Continuous
 62
               7
100
AcDbLine
 10
1217.8969487560926
 20
951.3574356509888
 30
0.0
 11
1192.8969495827903
 21
926.35743647768663
 31
0.0
  0
LINE
  5
398
100
AcDbEntity
  8
0
  6
Continuous
 62
               7
100
AcDbLine
 10
1123.918777487218
 20
928.08994248302884
 30
0.0
 11
1122.1862714406027
 21
926.35743645415346
 31
0.0
  0
LINE
  5
399
100
AcDbEntity
  8
0
  6
Continuous
 62
               7
100
AcDbLine
 10
1123.9187823109646
 20
942.23208291622109
 30
0.0
 11
1108.044135460852
 21
926.3574360981338
 31
0.0
  0
LINE
  5
39A
100
AcDbEntity
  8
0
  6
Continuous
 62
               7
100
AcDbLine
 10
1118.9019995361198
 20
951.35743579713244
 30
0.0
 11
1093.9019998371211
 21
926.3574360981338
 31
0.0
  0
LINE
  5
39B
100
AcDbEntity
  8
0
  6
Continuous
 62
               7
100
AcDbLine
 10
1104.7598637937156
 20
951.35743567845918
 30
0.0
 11
1079.7598645741218
 21
926.35743645886532
 31
0.0
  0
LINE
  5
39C
100
AcDbEntity
  8
0
  6
Continuous
 62
               7
100
AcDbLine
 10
1090.6177280513114
 20
951.35743555978593
 30
0.0
 11
1065.6177289594141
 21
926.35743646788865
 31
0.0
  0
LINE
  5
39D
100
AcDbEntity
  8
0
  6
Continuous
 62
               7
100
AcDbLine
 10
1076.4755927973354
 20
951.35743592954088
 30
0.0
 11
1051.4755929796636
 21
926.35743611186899
 31
0.0
  0
LINE
  5
39E
100
AcDbEntity
  8
0
  6
Continuous
 62
               7
100
AcDbLine
 10
1062.3334570549312
 20
951.35743581086763
 30
0.0
 11
1038.242424242407
 21
927.26640299834344
 31
0.0
  0
LINE
  5
39F
100
AcDbEntity
  8
0
  6
Continuous
 62
               7
100
AcDbLine
 10
1048.1913213125272
 20
951.35743569219437
 30
0.0
 11
1038.242424242407
 21
941.40853862207439
 31
0.0
  0
LINE
  5
3A0
100
AcDbEntity
  8
0
  6
Continuous
 62
               2
100
AcDbLine
 10
1157.742424242419
 20
955.35743639921054
 30
0.0
 11
1038.242424242407
 21
955.35743639921498
 31
0.0
  0
LINE
  5
3A1
100
AcDbEntity
  8
0
  6
Continuous
 62
               3
100
AcDbLine
 10
1123.918776896277
 20
926.35743650587506
 30
0.0
 11
1038.2424242475113
 21
926.35743657478758
 31
0.0
  0
LINE
  5
3A2
100
AcDbEntity
  8
0
  6
Continuous
 62
               7
100
AcDbLine
 10
1938.2424242424322
 20
947.43879664541578
 30
0.0
 11
1917.618991017458
 21
926.81540920042221
 31
0.0
  0
LINE
  5
3A3
100
AcDbEntity
  8
0
  6
Continuous
 62
               7
100
AcDbLine
 10
1938.2424242424322
 20
933.29670680166578
 30
0.0
 11
1932.2190994423986
 21
927.27338200163194
 31
0.0
  0
LINE
  5
3A4
100
AcDbEntity
  8
0
  6
Continuous
 62
               7
100
AcDbLine
 10
1814.8817976026698
 20
951.3574363992127
 30
0.0
 11
1789.8817976026701
 21
926.35743639921247
 31
0.0
  0
LINE
  5
3A5
100
AcDbEntity
  8
0
  6
Continuous
 62
               4
100
AcDbLine
 10
1758.2424242424229
 20
1054.3574363992411
 30
0.0
 11
1458.2424242424192
 21
1054.3574363992411
 31
0.0
  0
LINE
  5
3A6
100
AcDbEntity
  8
0
  6
Continuous
 62
               4
100
AcDbLine
 10
1158.242424242419
 20
1054.3574363992411
 30
0.0
 11
1458.2424242424192
 21
1054.3574363992411
 31
0.0
  0
LINE
  5
3A7
100
AcDbEntity
  8
0
  6
Continuous
 62
               4
100
AcDbLine
 10
1719.0792202008142
 20
954.51313327224534
 30
0.0
 11
1747.3425502711125
 21
1003.4666569450912
 31
0.0
  0
LINE
  5
3A8
100
AcDbEntity
  8
0
  6
Continuous
 62
               4
100
AcDbLine
 10
1719.0792202008142
 20
954.51313327224534
 30
0.0
 11
1722.1574014907451
 21
962.97036685931857
 31
0.0
  0
LINE
  5
3A9
100
AcDbEntity
  8
0
  6
Continuous
 62
               4
100
AcDbLine
 10
1719.0792202008142
 20
954.51313327224534
 30
0.0
 11
1724.8643086879929
 21
961.4075332603162
 31
0.0
  0
LINE
  5
3AA
100
AcDbEntity
  8
0
  6
Continuous
 62
               4
100
AcDbLine
 10
1747.3425502711125
 20
1003.4666569450912
 30
0.0
 11
1853.9973289883401
 21
1003.4666569450912
 31
0.0
  0
LINE
  5
3AB
100
AcDbEntity
  8
0
  6
Continuous
 62
               7
100
AcDbLine
 10
1414.5792202008138
 20
955.21313327224345
 30
0.0
 11
1423.5792202008133
 21
955.21313327224357
 31
0.0
  0
LINE
  5
3AC
100
AcDbEntity
  8
0
  6
Continuous
 62
               7
100
AcDbLine
 10
1417.0792202008151
 20
953.21313327224323
 30
0.0
 11
1421.0792202008133
 21
953.21313327224379
 31
0.0
  0
LINE
  5
3AD
100
AcDbEntity
  8
0
  6
Continuous
 62
               7
100
AcDbLine
 10
1414.5792202008138
 20
955.21313327224345
 30
0.0
 11
1417.0792202008151
 21
953.21313327224323
 31
0.0
  0
LINE
  5
3AE
100
AcDbEntity
  8
0
  6
Continuous
 62
               7
100
AcDbLine
 10
1421.0792202008133
 20
953.21313327224379
 30
0.0
 11
1423.5792202008133
 21
955.21313327224357
 31
0.0
  0
LINE
  5
3AF
100
AcDbEntity
  8
0
  6
DOT
 62
               7
100
AcDbLine
 10
1417.0792202008129
 20
955.21313327224357
 30
0.0
 11
1418.0792202008133
 21
953.21313327224391
 31
0.0
  0
LINE
  5
3B0
100
AcDbEntity
  8
0
  6
DOT
 62
               7
100
AcDbLine
 10
1420.0792202008133
 20
953.21313327224345
 30
0.0
 11
1421.0792202008147
 21
955.21313327224379
 31
0.0
  0
LINE
  5
3B1
100
AcDbEntity
  8
0
  6
Continuous
 62
               7
100
AcDbLine
 10
1714.5792202008174
 20
955.21313327224345
 30
0.0
 11
1723.579220200817
 21
955.21313327224357
 31
0.0
  0
LINE
  5
3B2
100
AcDbEntity
  8
0
  6
Continuous
 62
               7
100
AcDbLine
 10
1717.0792202008188
 20
953.21313327224323
 30
0.0
 11
1721.079220200817
 21
953.21313327224379
 31
0.0
  0
LINE
  5
3B3
100
AcDbEntity
  8
0
  6
Continuous
 62
               7
100
AcDbLine
 10
1714.5792202008174
 20
955.21313327224345
 30
0.0
 11
1717.0792202008188
 21
953.21313327224323
 31
0.0
  0
LINE
  5
3B4
100
AcDbEntity
  8
0
  6
Continuous
 62
               7
100
AcDbLine
 10
1721.079220200817
 20
953.21313327224379
 30
0.0
 11
1723.579220200817
 21
955.21313327224357
 31
0.0
  0
LINE
  5
3B5
100
AcDbEntity
  8
0
  6
DOT
 62
               7
100
AcDbLine
 10
1717.0792202008165
 20
955.21313327224357
 30
0.0
 11
1718.079220200817
 21
953.21313327224391
 31
0.0
  0
LINE
  5
3B6
100
AcDbEntity
  8
0
  6
DOT
 62
               7
100
AcDbLine
 10
1720.079220200817
 20
953.21313327224345
 30
0.0
 11
1721.0792202008183
 21
955.21313327224379
 31
0.0
  0
LINE
  5
3B7
100
AcDbEntity
  8
0
  6
Continuous
 62
               7
100
AcDbLine
 10
1114.5792202008136
 20
955.21313327224345
 30
0.0
 11
1123.5792202008131
 21
955.21313327224357
 31
0.0
  0
LINE
  5
3B8
100
AcDbEntity
  8
0
  6
Continuous
 62
               7
100
AcDbLine
 10
1117.0792202008149
 20
953.21313327224323
 30
0.0
 11
1121.0792202008131
 21
953.21313327224379
 31
0.0
  0
LINE
  5
3B9
100
AcDbEntity
  8
0
  6
Continuous
 62
               7
100
AcDbLine
 10
1114.5792202008136
 20
955.21313327224345
 30
0.0
 11
1117.0792202008149
 21
953.21313327224323
 31
0.0
  0
LINE
  5
3BA
100
AcDbEntity
  8
0
  6
Continuous
 62
               7
100
AcDbLine
 10
1121.0792202008131
 20
953.21313327224379
 30
0.0
 11
1123.5792202008131
 21
955.21313327224357
 31
0.0
  0
LINE
  5
3BB
100
AcDbEntity
  8
0
  6
DOT
 62
               7
100
AcDbLine
 10
1117.0792202008126
 20
955.21313327224357
 30
0.0
 11
1118.0792202008131
 21
953.21313327224391
 31
0.0
  0
LINE
  5
3BC
100
AcDbEntity
  8
0
  6
DOT
 62
               7
100
AcDbLine
 10
1120.0792202008131
 20
953.21313327224345
 30
0.0
 11
1121.0792202008145
 21
955.21313327224379
 31
0.0
  0
LINE
  5
3BD
100
AcDbEntity
  8
0
  6
Continuous
 62
               2
100
AcDbLine
 10
1148.7424242424179
 20
923.35743639921975
 30
0.0
 11
1148.7424242424179
 21
909.35743639921748
 31
0.0
  0
LINE
  5
3BE
100
AcDbEntity
  8
0
  6
Continuous
 62
               4
100
AcDbLine
 10
1148.7424242424179
 20
888.35743639921748
 30
0.0
 11
1148.7424242424179
 21
903.35743639921748
 31
0.0
  0
LINE
  5
3BF
100
AcDbEntity
  8
0
  6
Continuous
 62
               4
100
AcDbLine
 10
1188.7424242424179
 20
891.35743639921748
 30
0.0
 11
1148.7424242424179
 21
891.35743639921748
 31
0.0
  0
LINE
  5
3C0
100
AcDbEntity
  8
0
  6
Continuous
 62
               2
100
AcDbLine
 10
1488.7424242424252
 20
923.35743639921634
 30
0.0
 11
1448.7424242424204
 21
923.35743639921975
 31
0.0
  0
LINE
  5
3C1
100
AcDbEntity
  8
0
  6
Continuous
 62
               2
100
AcDbLine
 10
1448.7424242424204
 20
923.35743639921975
 30
0.0
 11
1448.7424242424204
 21
909.35743639921748
 31
0.0
  0
LINE
  5
3C2
100
AcDbEntity
  8
0
  6
Continuous
 62
               2
100
AcDbLine
 10
1788.7424242424286
 20
923.35743639921634
 30
0.0
 11
1748.7424242424236
 21
923.35743639921975
 31
0.0
  0
LINE
  5
3C3
100
AcDbEntity
  8
0
  6
Continuous
 62
               2
100
AcDbLine
 10
1748.7424242424236
 20
923.35743639921975
 30
0.0
 11
1748.7424242424236
 21
909.35743639921748
 31
0.0
  0
LINE
  5
3C4
100
AcDbEntity
  8
0
  6
Continuous
 62
               7
100
AcDbLine
 10
1503.754812156388
 20
951.35743467501493
 30
0.0
 11
1478.7548137639742
 21
926.35743628260127
 31
0.0
  0
LINE
  5
3C5
100
AcDbEntity
  8
0
  6
Continuous
 62
               7
100
AcDbLine
 10
1489.6126764148662
 20
951.357434557224
 30
0.0
 11
1473.9187768962784
 21
935.66353503863604
 31
0.0
  0
LINE
  5
3C6
100
AcDbEntity
  8
0
  6
Continuous
 62
               7
100
AcDbLine
 10
1475.4705406733447
 20
951.35743443943306
 30
0.0
 11
1473.9187768962784
 21
949.80567066236677
 31
0.0
  0
LINE
  5
3C7
100
AcDbEntity
  8
0
  6
Continuous
 62
               7
100
AcDbLine
 10
1203.7548131434066
 20
951.35743566203371
 30
0.0
 11
1178.7548139701044
 21
926.35743648873165
 31
0.0
  0
LINE
  5
3C8
100
AcDbEntity
  8
0
  6
Continuous
 62
               7
100
AcDbLine
 10
1189.6126775307207
 20
951.35743567307873
 30
0.0
 11
1173.9187768962781
 21
935.66353503863627
 31
0.0
  0
LINE
  5
3C9
100
AcDbEntity
  8
0
  6
Continuous
 62
               7
100
AcDbLine
 10
1175.4705419180345
 20
951.35743568412374
 30
0.0
 11
1173.9187768962781
 21
949.80567066236722
 31
0.0
  0
LINE
  5
3CA
100
AcDbEntity
  8
0
  6
Continuous
 62
               7
100
AcDbLine
 10
1800.739661978939
 20
951.3574363992127
 30
0.0
 11
1775.7396619789392
 21
926.35743639921259
 31
0.0
  0
LINE
  5
3CB
100
AcDbEntity
  8
0
  6
Continuous
 62
               7
100
AcDbLine
 10
1786.5975263552082
 20
951.3574363992127
 30
0.0
 11
1773.918776896282
 21
938.6786869402863
 31
0.0
  0
LINE
  5
3CC
100
AcDbEntity
  8
0
  6
Continuous
 62
               4
100
AcDbLine
 10
1080.2424242424072
 20
923.35743639921975
 30
0.0
 11
1142.7424242424179
 21
923.35743639921975
 31
0.0
  0
LINE
  5
3CD
100
AcDbEntity
  8
0
  6
Continuous
 62
               4
100
AcDbLine
 10
1083.2424242424072
 20
868.35743639922816
 30
0.0
 11
1083.2424242424072
 21
923.35743639921975
 31
0.0
  0
LINE
  5
3CE
100
AcDbEntity
  8
0
  6
Continuous
 62
               4
100
AcDbLine
 10
1083.2424242424072
 20
926.35743657478758
 30
0.0
 11
1083.2424242424072
 21
951.35743314209822
 31
0.0
  0
LINE
  5
3CF
100
AcDbEntity
  8
0
  6
Continuous
 62
               7
100
AcDbLine
 10
1117.0792202008131
 20
897.21313327224107
 30
0.0
 11
1117.0792202008149
 21
953.21313327224323
 31
0.0
  0
LINE
  5
3D0
100
AcDbEntity
  8
0
  6
Continuous
 62
               7
100
AcDbLine
 10
1121.0792202008131
 20
897.21313327224664
 30
0.0
 11
1121.0792202008131
 21
953.21313327224379
 31
0.0
  0
LINE
  5
3D1
100
AcDbEntity
  8
0
  6
Continuous
 62
               7
100
AcDbLine
 10
1119.079220200814
 20
893.21313327224345
 30
0.0
 11
1121.0792202008117
 21
897.21313327224391
 31
0.0
  0
LINE
  5
3D2
100
AcDbEntity
  8
0
  6
Continuous
 62
               7
100
AcDbLine
 10
1119.079220200814
 20
893.21313327224345
 30
0.0
 11
1117.0792202008117
 21
897.21313327224379
 31
0.0
  0
LINE
  5
3D3
100
AcDbEntity
  8
0
  6
Continuous
 62
               7
100
AcDbLine
 10
1417.0792202008133
 20
897.21313327224107
 30
0.0
 11
1417.0792202008151
 21
953.21313327224323
 31
0.0
  0
LINE
  5
3D4
100
AcDbEntity
  8
0
  6
Continuous
 62
               7
100
AcDbLine
 10
1421.0792202008133
 20
897.21313327224664
 30
0.0
 11
1421.0792202008133
 21
953.21313327224379
 31
0.0
  0
LINE
  5
3D5
100
AcDbEntity
  8
0
  6
Continuous
 62
               7
100
AcDbLine
 10
1419.0792202008142
 20
893.21313327224345
 30
0.0
 11
1421.079220200812
 21
897.21313327224391
 31
0.0
  0
LINE
  5
3D6
100
AcDbEntity
  8
0
  6
Continuous
 62
               7
100
AcDbLine
 10
1419.0792202008142
 20
893.21313327224345
 30
0.0
 11
1417.079220200812
 21
897.21313327224379
 31
0.0
  0
LINE
  5
3D7
100
AcDbEntity
  8
0
  6
Continuous
 62
               7
100
AcDbLine
 10
1717.079220200817
 20
897.21313327224107
 30
0.0
 11
1717.0792202008188
 21
953.21313327224323
 31
0.0
  0
LINE
  5
3D8
100
AcDbEntity
  8
0
  6
Continuous
 62
               7
100
AcDbLine
 10
1721.079220200817
 20
897.21313327224664
 30
0.0
 11
1721.079220200817
 21
953.21313327224379
 31
0.0
  0
LINE
  5
3D9
100
AcDbEntity
  8
0
  6
Continuous
 62
               7
100
AcDbLine
 10
1719.0792202008179
 20
893.21313327224345
 30
0.0
 11
1721.0792202008156
 21
897.21313327224391
 31
0.0
  0
LINE
  5
3DA
100
AcDbEntity
  8
0
  6
Continuous
 62
               7
100
AcDbLine
 10
1719.0792202008179
 20
893.21313327224345
 30
0.0
 11
1717.0792202008156
 21
897.21313327224379
 31
0.0
  0
LINE
  5
3DB
100
AcDbEntity
  8
0
  6
Continuous
 62
               7
100
AcDbLine
 10
2277.5013274581811
 20
904.05743639916
 30
0.0
 11
2277.5013274581829
 21
960.05743639916204
 31
0.0
  0
LINE
  5
3DC
100
AcDbEntity
  8
0
  6
Continuous
 62
               7
100
AcDbLine
 10
2281.5013274581811
 20
904.05743639916557
 30
0.0
 11
2281.5013274581811
 21
960.05743639916261
 31
0.0
  0
LINE
  5
3DD
100
AcDbEntity
  8
0
  6
Continuous
 62
               7
100
AcDbLine
 10
2279.501327458182
 20
900.05743639916238
 30
0.0
 11
2281.5013274581797
 21
904.05743639916284
 31
0.0
  0
LINE
  5
3DE
100
AcDbEntity
  8
0
  6
Continuous
 62
               7
100
AcDbLine
 10
2279.501327458182
 20
900.05743639916238
 30
0.0
 11
2277.5013274581797
 21
904.05743639916273
 31
0.0
  0
LINE
  5
3DF
100
AcDbEntity
  8
0
  6
Continuous
 62
               7
100
AcDbLine
 10
2577.5013274581811
 20
904.05743639916
 30
0.0
 11
2577.5013274581829
 21
960.05743639916216
 31
0.0
  0
LINE
  5
3E0
100
AcDbEntity
  8
0
  6
Continuous
 62
               7
100
AcDbLine
 10
2581.5013274581811
 20
904.05743639916557
 30
0.0
 11
2581.5013274581811
 21
960.05743639916273
 31
0.0
  0
LINE
  5
3E1
100
AcDbEntity
  8
0
  6
Continuous
 62
               7
100
AcDbLine
 10
2579.501327458182
 20
900.05743639916238
 30
0.0
 11
2581.5013274581797
 21
904.05743639916284
 31
0.0
  0
LINE
  5
3E2
100
AcDbEntity
  8
0
  6
Continuous
 62
               7
100
AcDbLine
 10
2579.501327458182
 20
900.05743639916238
 30
0.0
 11
2577.5013274581797
 21
904.05743639916273
 31
0.0
  0
LINE
  5
3E3
100
AcDbEntity
  8
0
  6
Continuous
 62
               7
100
AcDbLine
 10
2877.5013274581811
 20
904.05743639916
 30
0.0
 11
2877.5013274581829
 21
960.05743639916204
 31
0.0
  0
LINE
  5
3E4
100
AcDbEntity
  8
0
  6
Continuous
 62
               7
100
AcDbLine
 10
2881.5013274581811
 20
904.05743639916557
 30
0.0
 11
2881.5013274581811
 21
960.05743639916261
 31
0.0
  0
LINE
  5
3E5
100
AcDbEntity
  8
0
  6
Continuous
 62
               7
100
AcDbLine
 10
2879.501327458182
 20
900.05743639916238
 30
0.0
 11
2881.5013274581797
 21
904.05743639916284
 31
0.0
  0
LINE
  5
3E6
100
AcDbEntity
  8
0
  6
Continuous
 62
               7
100
AcDbLine
 10
2879.501327458182
 20
900.05743639916238
 30
0.0
 11
2877.5013274581797
 21
904.05743639916273
 31
0.0
  0
CIRCLE
  5
3E7
100
AcDbEntity
  8
0
  6
Continuous
 62
               4
100
AcDbCircle
 10
1820.103806003417
 20
1625.50371910076
 30
0.0
 40
1.0
  0
CIRCLE
  5
3E8
100
AcDbEntity
  8
0
  6
Continuous
 62
               4
100
AcDbCircle
 10
1820.103806003417
 20
1602.2873390366381
 30
0.0
 40
1.0
  0
CIRCLE
  5
3E9
100
AcDbEntity
  8
0
  6
Continuous
 62
               4
100
AcDbCircle
 10
1839.0990260558797
 20
1613.5437657343941
 30
0.0
 40
1.0
  0
CIRCLE
  5
3EA
100
AcDbEntity
  8
0
  6
Continuous
 62
               4
100
AcDbCircle
 10
1859.5012994455619
 20
1631.8354591182479
 30
0.0
 40
1.0
  0
CIRCLE
  5
3EB
100
AcDbEntity
  8
0
  6
Continuous
 62
               4
100
AcDbCircle
 10
1860.9083527827815
 20
1605.8049723796867
 30
0.0
 40
1.0
  0
CIRCLE
  5
3EC
100
AcDbEntity
  8
0
  6
Continuous
 62
               4
100
AcDbCircle
 10
1805.3297459626124
 20
1617.7649257460525
 30
0.0
 40
1.0
  0
CIRCLE
  5
3ED
100
AcDbEntity
  8
0
  6
Continuous
 62
               4
100
AcDbCircle
 10
1876.3859394921956
 20
1617.7649257460525
 30
0.0
 40
1.0
  0
CIRCLE
  5
3EE
100
AcDbEntity
  8
0
  6
Continuous
 62
               4
100
AcDbCircle
 10
1894.6776328760488
 20
1625.50371910076
 30
0.0
 40
1.0
  0
CIRCLE
  5
3EF
100
AcDbEntity
  8
0
  6
Continuous
 62
               4
100
AcDbCircle
 10
1894.6776328760488
 20
1602.2873390366381
 30
0.0
 40
1.0
  0
CIRCLE
  5
3F0
100
AcDbEntity
  8
0
  6
Continuous
 62
               4
100
AcDbCircle
 10
1520.1038060034136
 20
1625.5037191007596
 30
0.0
 40
1.0
  0
CIRCLE
  5
3F1
100
AcDbEntity
  8
0
  6
Continuous
 62
               4
100
AcDbCircle
 10
1520.1038060034136
 20
1602.2873390366381
 30
0.0
 40
1.0
  0
CIRCLE
  5
3F2
100
AcDbEntity
  8
0
  6
Continuous
 62
               4
100
AcDbCircle
 10
1539.0990260558765
 20
1613.5437657343937
 30
0.0
 40
1.0
  0
CIRCLE
  5
3F3
100
AcDbEntity
  8
0
  6
Continuous
 62
               4
100
AcDbCircle
 10
1559.5012994455587
 20
1631.8354591182474
 30
0.0
 40
1.0
  0
CIRCLE
  5
3F4
100
AcDbEntity
  8
0
  6
Continuous
 62
               4
100
AcDbCircle
 10
1560.9083527827784
 20
1605.8049723796867
 30
0.0
 40
1.0
  0
CIRCLE
  5
3F5
100
AcDbEntity
  8
0
  6
Continuous
 62
               4
100
AcDbCircle
 10
1505.3297459626092
 20
1617.7649257460525
 30
0.0
 40
1.0
  0
CIRCLE
  5
3F6
100
AcDbEntity
  8
0
  6
Continuous
 62
               4
100
AcDbCircle
 10
1594.6776328760457
 20
1625.5037191007596
 30
0.0
 40
1.0
  0
CIRCLE
  5
3F7
100
AcDbEntity
  8
0
  6
Continuous
 62
               4
100
AcDbCircle
 10
1594.6776328760457
 20
1602.2873390366381
 30
0.0
 40
1.0
  0
CIRCLE
  5
3F8
100
AcDbEntity
  8
0
  6
Continuous
 62
               4
100
AcDbCircle
 10
1613.6728529285083
 20
1613.5437657343937
 30
0.0
 40
1.0
  0
CIRCLE
  5
3F9
100
AcDbEntity
  8
0
  6
Continuous
 62
               4
100
AcDbCircle
 10
1634.075126318191
 20
1631.8354591182474
 30
0.0
 40
1.0
  0
CIRCLE
  5
3FA
100
AcDbEntity
  8
0
  6
Continuous
 62
               4
100
AcDbCircle
 10
1635.4821796554104
 20
1605.8049723796867
 30
0.0
 40
1.0
  0
CIRCLE
  5
3FB
100
AcDbEntity
  8
0
  6
Continuous
 62
               4
100
AcDbCircle
 10
1650.9597663648246
 20
1617.7649257460525
 30
0.0
 40
1.0
  0
CIRCLE
  5
3FC
100
AcDbEntity
  8
0
  6
Continuous
 62
               4
100
AcDbCircle
 10
1669.2514597486779
 20
1625.5037191007596
 30
0.0
 40
1.0
  0
CIRCLE
  5
3FD
100
AcDbEntity
  8
0
  6
Continuous
 62
               4
100
AcDbCircle
 10
1669.2514597486779
 20
1602.2873390366381
 30
0.0
 40
1.0
  0
CIRCLE
  5
3FE
100
AcDbEntity
  8
0
  6
Continuous
 62
               4
100
AcDbCircle
 10
1688.246679801141
 20
1613.5437657343937
 30
0.0
 40
1.0
  0
CIRCLE
  5
3FF
100
AcDbEntity
  8
0
  6
Continuous
 62
               4
100
AcDbCircle
 10
1708.6489531908237
 20
1631.8354591182474
 30
0.0
 40
1.0
  0
CIRCLE
  5
400
100
AcDbEntity
  8
0
  6
Continuous
 62
               4
100
AcDbCircle
 10
1710.0560065280431
 20
1605.8049723796867
 30
0.0
 40
1.0
  0
CIRCLE
  5
401
100
AcDbEntity
  8
0
  6
Continuous
 62
               4
100
AcDbCircle
 10
1725.5335932374587
 20
1617.7649257460525
 30
0.0
 40
1.0
  0
CIRCLE
  5
402
100
AcDbEntity
  8
0
  6
Continuous
 62
               4
100
AcDbCircle
 10
1743.825286621312
 20
1625.5037191007596
 30
0.0
 40
1.0
  0
CIRCLE
  5
403
100
AcDbEntity
  8
0
  6
Continuous
 62
               4
100
AcDbCircle
 10
1743.825286621312
 20
1602.2873390366381
 30
0.0
 40
1.0
  0
CIRCLE
  5
404
100
AcDbEntity
  8
0
  6
Continuous
 62
               4
100
AcDbCircle
 10
1762.8205066737753
 20
1613.5437657343937
 30
0.0
 40
1.0
  0
CIRCLE
  5
405
100
AcDbEntity
  8
0
  6
Continuous
 62
               4
100
AcDbCircle
 10
1488.2424242424283
 20
1504.3574363992921
 30
0.0
 40
1.5
  0
CIRCLE
  5
406
100
AcDbEntity
  8
0
  6
Continuous
 62
               4
100
AcDbCircle
 10
1788.2424242424318
 20
1504.3574363992921
 30
0.0
 40
1.5
  0
CIRCLE
  5
407
100
AcDbEntity
  8
0
  6
Continuous
 62
               4
100
AcDbCircle
 10
1913.4065603024551
 20
1611.815683542613
 30
0.0
 40
1.0
  0
CIRCLE
  5
408
100
AcDbEntity
  8
0
  6
Continuous
 62
               4
100
AcDbCircle
 10
1933.8088336921373
 20
1630.1073769264667
 30
0.0
 40
1.0
  0
CIRCLE
  5
409
100
AcDbEntity
  8
0
  6
Continuous
 62
               4
100
AcDbCircle
 10
1935.215887029357
 20
1604.076890187906
 30
0.0
 40
1.0
  0
CIRCLE
  5
40A
100
AcDbEntity
  8
0
  6
Continuous
 62
               4
100
AcDbCircle
 10
2620.1038060033925
 20
1625.5037086655193
 30
0.0
 40
1.0
  0
CIRCLE
  5
40B
100
AcDbEntity
  8
0
  6
Continuous
 62
               4
100
AcDbCircle
 10
2620.1038060033925
 20
1602.287339036613
 30
0.0
 40
1.0
  0
CIRCLE
  5
40C
100
AcDbEntity
  8
0
  6
Continuous
 62
               4
100
AcDbCircle
 10
2639.0990260558556
 20
1613.5437657343687
 30
0.0
 40
1.0
  0
CIRCLE
  5
40D
100
AcDbEntity
  8
0
  6
Continuous
 62
               4
100
AcDbCircle
 10
2659.5012994455378
 20
1631.8354591182224
 30
0.0
 40
1.0
  0
CIRCLE
  5
40E
100
AcDbEntity
  8
0
  6
Continuous
 62
               4
100
AcDbCircle
 10
2660.9083527827574
 20
1605.8049723796616
 30
0.0
 40
1.0
  0
CIRCLE
  5
40F
100
AcDbEntity
  8
0
  6
Continuous
 62
               4
100
AcDbCircle
 10
2605.3297459625883
 20
1617.7649257460275
 30
0.0
 40
1.0
  0
CIRCLE
  5
410
100
AcDbEntity
  8
0
  6
Continuous
 62
               4
100
AcDbCircle
 10
2676.3859394921715
 20
1617.7649257460275
 30
0.0
 40
1.0
  0
CIRCLE
  5
411
100
AcDbEntity
  8
0
  6
Continuous
 62
               4
100
AcDbCircle
 10
2694.6776328760247
 20
1625.5037191007345
 30
0.0
 40
1.0
  0
CIRCLE
  5
412
100
AcDbEntity
  8
0
  6
Continuous
 62
               4
100
AcDbCircle
 10
2694.6776328760247
 20
1602.287339036613
 30
0.0
 40
1.0
  0
CIRCLE
  5
413
100
AcDbEntity
  8
0
  6
Continuous
 62
               4
100
AcDbCircle
 10
2713.6728529284874
 20
1613.5437657343687
 30
0.0
 40
1.0
  0
CIRCLE
  5
414
100
AcDbEntity
  8
0
  6
Continuous
 62
               4
100
AcDbCircle
 10
2734.0751263181696
 20
1631.8354591182224
 30
0.0
 40
1.0
  0
CIRCLE
  5
415
100
AcDbEntity
  8
0
  6
Continuous
 62
               4
100
AcDbCircle
 10
2735.4821796553892
 20
1605.8049723796616
 30
0.0
 40
1.0
  0
CIRCLE
  5
416
100
AcDbEntity
  8
0
  6
Continuous
 62
               4
100
AcDbCircle
 10
2750.9597663648033
 20
1617.7649257460275
 30
0.0
 40
1.0
  0
CIRCLE
  5
417
100
AcDbEntity
  8
0
  6
Continuous
 62
               4
100
AcDbCircle
 10
2769.2514597486565
 20
1625.5037191007345
 30
0.0
 40
1.0
  0
CIRCLE
  5
418
100
AcDbEntity
  8
0
  6
Continuous
 62
               4
100
AcDbCircle
 10
2769.2514597486565
 20
1602.287339036613
 30
0.0
 40
1.0
  0
CIRCLE
  5
419
100
AcDbEntity
  8
0
  6
Continuous
 62
               4
100
AcDbCircle
 10
2788.2466798011196
 20
1613.5437657343687
 30
0.0
 40
1.0
  0
CIRCLE
  5
41A
100
AcDbEntity
  8
0
  6
Continuous
 62
               4
100
AcDbCircle
 10
2808.6489531908023
 20
1631.8354591182224
 30
0.0
 40
1.0
  0
CIRCLE
  5
41B
100
AcDbEntity
  8
0
  6
Continuous
 62
               4
100
AcDbCircle
 10
2810.0560065280215
 20
1605.8049723796616
 30
0.0
 40
1.0
  0
CIRCLE
  5
41C
100
AcDbEntity
  8
0
  6
Continuous
 62
               4
100
AcDbCircle
 10
2825.533593237436
 20
1617.7649257460275
 30
0.0
 40
1.0
  0
CIRCLE
  5
41D
100
AcDbEntity
  8
0
  6
Continuous
 62
               4
100
AcDbCircle
 10
2843.8252866212888
 20
1625.5037191007345
 30
0.0
 40
1.0
  0
CIRCLE
  5
41E
100
AcDbEntity
  8
0
  6
Continuous
 62
               4
100
AcDbCircle
 10
2843.8252866212888
 20
1602.287339036613
 30
0.0
 40
1.0
  0
CIRCLE
  5
41F
100
AcDbEntity
  8
0
  6
Continuous
 62
               4
100
AcDbCircle
 10
2862.8205066737514
 20
1613.5437657343687
 30
0.0
 40
1.0
  0
CIRCLE
  5
420
100
AcDbEntity
  8
0
  6
Continuous
 62
               4
100
AcDbCircle
 10
2920.1038060033934
 20
1625.5037191007345
 30
0.0
 40
1.0
  0
CIRCLE
  5
421
100
AcDbEntity
  8
0
  6
Continuous
 62
               4
100
AcDbCircle
 10
2920.1038060033934
 20
1602.287339036613
 30
0.0
 40
1.0
  0
CIRCLE
  5
422
100
AcDbEntity
  8
0
  6
Continuous
 62
               4
100
AcDbCircle
 10
2939.0990260558565
 20
1613.5437657343687
 30
0.0
 40
1.0
  0
CIRCLE
  5
423
100
AcDbEntity
  8
0
  6
Continuous
 62
               4
100
AcDbCircle
 10
2959.5012994455387
 20
1631.8354591182219
 30
0.0
 40
1.0
  0
CIRCLE
  5
424
100
AcDbEntity
  8
0
  6
Continuous
 62
               4
100
AcDbCircle
 10
2960.9083527827579
 20
1605.8049723796616
 30
0.0
 40
1.0
  0
CIRCLE
  5
425
100
AcDbEntity
  8
0
  6
Continuous
 62
               4
100
AcDbCircle
 10
2905.3297459625892
 20
1617.7649257460271
 30
0.0
 40
1.0
  0
CIRCLE
  5
426
100
AcDbEntity
  8
0
  6
Continuous
 62
               4
100
AcDbCircle
 10
2976.3859394921724
 20
1617.7649257460271
 30
0.0
 40
1.0
  0
CIRCLE
  5
427
100
AcDbEntity
  8
0
  6
Continuous
 62
               4
100
AcDbCircle
 10
2994.6776328760252
 20
1625.5037191007345
 30
0.0
 40
1.0
  0
CIRCLE
  5
428
100
AcDbEntity
  8
0
  6
Continuous
 62
               4
100
AcDbCircle
 10
2994.6776328760252
 20
1602.287339036613
 30
0.0
 40
1.0
  0
CIRCLE
  5
429
100
AcDbEntity
  8
0
  6
Continuous
 62
               4
100
AcDbCircle
 10
3013.6728529284883
 20
1613.5437657343687
 30
0.0
 40
1.0
  0
CIRCLE
  5
42A
100
AcDbEntity
  8
0
  6
Continuous
 62
               4
100
AcDbCircle
 10
3034.0751263181705
 20
1631.8354591182219
 30
0.0
 40
1.0
  0
CIRCLE
  5
42B
100
AcDbEntity
  8
0
  6
Continuous
 62
               4
100
AcDbCircle
 10
3035.4821796553902
 20
1605.8049723796616
 30
0.0
 40
1.0
  0
CIRCLE
  5
42C
100
AcDbEntity
  8
0
  6
Continuous
 62
               4
100
AcDbCircle
 10
2320.1038060033925
 20
1625.5037191007345
 30
0.0
 40
1.0
  0
CIRCLE
  5
42D
100
AcDbEntity
  8
0
  6
Continuous
 62
               4
100
AcDbCircle
 10
2320.1038060033925
 20
1602.287339036613
 30
0.0
 40
1.0
  0
CIRCLE
  5
42E
100
AcDbEntity
  8
0
  6
Continuous
 62
               4
100
AcDbCircle
 10
2339.0990260558556
 20
1613.5437657343687
 30
0.0
 40
1.0
  0
CIRCLE
  5
42F
100
AcDbEntity
  8
0
  6
Continuous
 62
               4
100
AcDbCircle
 10
2359.5012994455378
 20
1631.8354591182224
 30
0.0
 40
1.0
  0
CIRCLE
  5
430
100
AcDbEntity
  8
0
  6
Continuous
 62
               4
100
AcDbCircle
 10
2360.908352782757
 20
1605.8049723796616
 30
0.0
 40
1.0
  0
CIRCLE
  5
431
100
AcDbEntity
  8
0
  6
Continuous
 62
               4
100
AcDbCircle
 10
2305.3297459625883
 20
1617.7649257460271
 30
0.0
 40
1.0
  0
CIRCLE
  5
432
100
AcDbEntity
  8
0
  6
Continuous
 62
               4
100
AcDbCircle
 10
2376.3859394921715
 20
1617.7649257460271
 30
0.0
 40
1.0
  0
CIRCLE
  5
433
100
AcDbEntity
  8
0
  6
Continuous
 62
               4
100
AcDbCircle
 10
2394.6776328760243
 20
1625.5037191007345
 30
0.0
 40
1.0
  0
CIRCLE
  5
434
100
AcDbEntity
  8
0
  6
Continuous
 62
               4
100
AcDbCircle
 10
2394.6776328760243
 20
1602.287339036613
 30
0.0
 40
1.0
  0
CIRCLE
  5
435
100
AcDbEntity
  8
0
  6
Continuous
 62
               4
100
AcDbCircle
 10
2413.6728529284874
 20
1613.5437657343687
 30
0.0
 40
1.0
  0
CIRCLE
  5
436
100
AcDbEntity
  8
0
  6
Continuous
 62
               4
100
AcDbCircle
 10
2434.0751263181696
 20
1631.8354591182224
 30
0.0
 40
1.0
  0
CIRCLE
  5
437
100
AcDbEntity
  8
0
  6
Continuous
 62
               4
100
AcDbCircle
 10
2435.4821796553892
 20
1605.8049723796616
 30
0.0
 40
1.0
  0
CIRCLE
  5
438
100
AcDbEntity
  8
0
  6
Continuous
 62
               4
100
AcDbCircle
 10
2450.9597663648033
 20
1617.7649257460271
 30
0.0
 40
1.0
  0
CIRCLE
  5
439
100
AcDbEntity
  8
0
  6
Continuous
 62
               4
100
AcDbCircle
 10
2469.2514597486561
 20
1625.5037191007345
 30
0.0
 40
1.0
  0
CIRCLE
  5
43A
100
AcDbEntity
  8
0
  6
Continuous
 62
               4
100
AcDbCircle
 10
2469.2514597486561
 20
1602.287339036613
 30
0.0
 40
1.0
  0
CIRCLE
  5
43B
100
AcDbEntity
  8
0
  6
Continuous
 62
               4
100
AcDbCircle
 10
2488.2466798011192
 20
1613.5437657343687
 30
0.0
 40
1.0
  0
CIRCLE
  5
43C
100
AcDbEntity
  8
0
  6
Continuous
 62
               4
100
AcDbCircle
 10
2508.6489531908014
 20
1631.8354591182224
 30
0.0
 40
1.0
  0
CIRCLE
  5
43D
100
AcDbEntity
  8
0
  6
Continuous
 62
               4
100
AcDbCircle
 10
2510.056006528021
 20
1605.8049723796616
 30
0.0
 40
1.0
  0
CIRCLE
  5
43E
100
AcDbEntity
  8
0
  6
Continuous
 62
               4
100
AcDbCircle
 10
2525.5335932374351
 20
1617.7649257460271
 30
0.0
 40
1.0
  0
CIRCLE
  5
43F
100
AcDbEntity
  8
0
  6
Continuous
 62
               4
100
AcDbCircle
 10
2543.8252866212883
 20
1625.5037191007345
 30
0.0
 40
1.0
  0
CIRCLE
  5
440
100
AcDbEntity
  8
0
  6
Continuous
 62
               4
100
AcDbCircle
 10
2543.8252866212883
 20
1602.287339036613
 30
0.0
 40
1.0
  0
CIRCLE
  5
441
100
AcDbEntity
  8
0
  6
Continuous
 62
               4
100
AcDbCircle
 10
2562.820506673751
 20
1613.5437657343687
 30
0.0
 40
1.0
  0
CIRCLE
  5
442
100
AcDbEntity
  8
0
  6
Continuous
 62
               4
100
AcDbCircle
 10
2150.9597663648033
 20
1617.7649257460534
 30
0.0
 40
1.0
  0
CIRCLE
  5
443
100
AcDbEntity
  8
0
  6
Continuous
 62
               4
100
AcDbCircle
 10
2169.2514597486561
 20
1625.5037191007605
 30
0.0
 40
1.0
  0
CIRCLE
  5
444
100
AcDbEntity
  8
0
  6
Continuous
 62
               4
100
AcDbCircle
 10
2169.2514597486561
 20
1602.287339036639
 30
0.0
 40
1.0
  0
CIRCLE
  5
445
100
AcDbEntity
  8
0
  6
Continuous
 62
               4
100
AcDbCircle
 10
2188.2466798011192
 20
1613.5437657343946
 30
0.0
 40
1.0
  0
CIRCLE
  5
446
100
AcDbEntity
  8
0
  6
Continuous
 62
               4
100
AcDbCircle
 10
2208.6489531908014
 20
1631.8354591182483
 30
0.0
 40
1.0
  0
CIRCLE
  5
447
100
AcDbEntity
  8
0
  6
Continuous
 62
               4
100
AcDbCircle
 10
2210.056006528021
 20
1605.8049723796876
 30
0.0
 40
1.0
  0
CIRCLE
  5
448
100
AcDbEntity
  8
0
  6
Continuous
 62
               4
100
AcDbCircle
 10
2243.8252866212883
 20
1625.5037191007605
 30
0.0
 40
1.0
  0
CIRCLE
  5
449
100
AcDbEntity
  8
0
  6
Continuous
 62
               4
100
AcDbCircle
 10
2243.8252866212883
 20
1602.287339036639
 30
0.0
 40
1.0
  0
CIRCLE
  5
44A
100
AcDbEntity
  8
0
  6
Continuous
 62
               4
100
AcDbCircle
 10
2262.820506673751
 20
1613.5437657343946
 30
0.0
 40
1.0
  0
CIRCLE
  5
44B
100
AcDbEntity
  8
0
  6
Continuous
 62
               4
100
AcDbCircle
 10
2205.9924242424177
 20
1681.8574363992548
 30
0.0
 40
1.5
  0
CIRCLE
  5
44C
100
AcDbEntity
  8
0
  6
Continuous
 62
               4
100
AcDbCircle
 10
2205.9924242424177
 20
1656.8574363992548
 30
0.0
 40
1.5
  0
CIRCLE
  5
44D
100
AcDbEntity
  8
0
  6
Continuous
 62
               4
100
AcDbCircle
 10
2205.9924242424177
 20
1645.8574363992448
 30
0.0
 40
1.5
  0
CIRCLE
  5
44E
100
AcDbEntity
  8
0
  6
Continuous
 62
               4
100
AcDbCircle
 10
2205.9924242424177
 20
1590.8574363992548
 30
0.0
 40
1.5
  0
CIRCLE
  5
44F
100
AcDbEntity
  8
0
  6
Continuous
 62
               4
100
AcDbCircle
 10
2773.475893441112
 20
1590.8574363992234
 30
0.0
 40
1.5
  0
CIRCLE
  5
450
100
AcDbEntity
  8
0
  6
Continuous
 62
               4
100
AcDbCircle
 10
2773.475893441112
 20
1615.8574363992234
 30
0.0
 40
1.5
  0
CIRCLE
  5
451
100
AcDbEntity
  8
0
  6
Continuous
 62
               4
100
AcDbCircle
 10
2773.475893441112
 20
1669.3574363991979
 30
0.0
 40
1.5
  0
CIRCLE
  5
452
100
AcDbEntity
  8
0
  6
Continuous
 62
               4
100
AcDbCircle
 10
2773.475893441112
 20
1682.8574363991979
 30
0.0
 40
1.5
  0
CIRCLE
  5
453
100
AcDbEntity
  8
0
  6
Continuous
 62
               4
100
AcDbCircle
 10
2288.2424242424072
 20
1504.3574363992411
 30
0.0
 40
1.5
  0
CIRCLE
  5
454
100
AcDbEntity
  8
0
  6
Continuous
 62
               4
100
AcDbCircle
 10
2588.2424242424072
 20
1504.3574363992411
 30
0.0
 40
1.5
  0
CIRCLE
  5
455
100
AcDbEntity
  8
0
  6
Continuous
 62
               4
100
AcDbCircle
 10
2588.2424242424072
 20
1504.3574363992411
 30
0.0
 40
1.5
  0
CIRCLE
  5
456
100
AcDbEntity
  8
0
  6
Continuous
 62
               4
100
AcDbCircle
 10
2888.2424242424081
 20
1504.3574363992411
 30
0.0
 40
1.5
  0
CIRCLE
  5
457
100
AcDbEntity
  8
0
  6
Continuous
 62
               4
100
AcDbCircle
 10
2773.475893441112
 20
1651.3574363991975
 30
0.0
 40
1.5
  0
CIRCLE
  5
458
100
AcDbEntity
  8
0
  6
Continuous
 62
               4
100
AcDbCircle
 10
2205.9924242424177
 20
1646.3574363992489
 30
0.0
 40
1.5
  0
CIRCLE
  5
459
100
AcDbEntity
  8
0
  6
Continuous
 62
               4
100
AcDbCircle
 10
2205.9924242424177
 20
1656.3574363992489
 30
0.0
 40
1.5
  0
CIRCLE
  5
45A
100
AcDbEntity
  8
0
  6
Continuous
 62
               4
100
AcDbCircle
 10
1188.2424242424261
 20
1504.3574363993048
 30
0.0
 40
1.5
  0
CIRCLE
  5
45B
100
AcDbEntity
  8
0
  6
Continuous
 62
               4
100
AcDbCircle
 10
1488.2424242424283
 20
1504.3574363993048
 30
0.0
 40
1.5
  0
CIRCLE
  5
45C
100
AcDbEntity
  8
0
  6
Continuous
 62
               4
100
AcDbCircle
 10
1576.1966725918455
 20
1590.8574361635656
 30
0.0
 40
1.5
  0
CIRCLE
  5
45D
100
AcDbEntity
  8
0
  6
Continuous
 62
               4
100
AcDbCircle
 10
1576.1966725918455
 20
1615.8574361635656
 30
0.0
 40
1.5
  0
CIRCLE
  5
45E
100
AcDbEntity
  8
0
  6
Continuous
 62
               4
100
AcDbCircle
 10
1576.1966725918458
 20
1661.3574357236225
 30
0.0
 40
1.5
  0
CIRCLE
  5
45F
100
AcDbEntity
  8
0
  6
Continuous
 62
               4
100
AcDbCircle
 10
1576.1966725918458
 20
1674.8574359740001
 30
0.0
 40
1.5
  0
CIRCLE
  5
460
100
AcDbEntity
  8
0
  6
Continuous
 62
               4
100
AcDbCircle
 10
1576.1966725918458
 20
1677.8574359740364
 30
0.0
 40
1.5
  0
CIRCLE
  5
461
100
AcDbEntity
  8
0
  6
Continuous
 62
               4
100
AcDbCircle
 10
1576.1966725918455
 20
1647.3574361635374
 30
0.0
 40
1.5
  0
CIRCLE
  5
462
100
AcDbEntity
  8
0
  6
Continuous
 62
               4
100
AcDbCircle
 10
1220.1038060034114
 20
1625.5037191007741
 30
0.0
 40
1.0
  0
CIRCLE
  5
463
100
AcDbEntity
  8
0
  6
Continuous
 62
               4
100
AcDbCircle
 10
1220.1038060034114
 20
1602.2873390366526
 30
0.0
 40
1.0
  0
CIRCLE
  5
464
100
AcDbEntity
  8
0
  6
Continuous
 62
               4
100
AcDbCircle
 10
1239.0990260558742
 20
1613.5437657344082
 30
0.0
 40
1.0
  0
CIRCLE
  5
465
100
AcDbEntity
  8
0
  6
Continuous
 62
               4
100
AcDbCircle
 10
1259.5012994455567
 20
1631.835459118262
 30
0.0
 40
1.0
  0
CIRCLE
  5
466
100
AcDbEntity
  8
0
  6
Continuous
 62
               4
100
AcDbCircle
 10
1260.9083527827761
 20
1605.8049723797012
 30
0.0
 40
1.0
  0
CIRCLE
  5
467
100
AcDbEntity
  8
0
  6
Continuous
 62
               4
100
AcDbCircle
 10
1205.3297459626069
 20
1617.7649257460666
 30
0.0
 40
1.0
  0
CIRCLE
  5
468
100
AcDbEntity
  8
0
  6
Continuous
 62
               4
100
AcDbCircle
 10
1276.3859394921903
 20
1617.7649257460671
 30
0.0
 40
1.0
  0
CIRCLE
  5
469
100
AcDbEntity
  8
0
  6
Continuous
 62
               4
100
AcDbCircle
 10
1294.6776328760434
 20
1625.5037191007741
 30
0.0
 40
1.0
  0
CIRCLE
  5
46A
100
AcDbEntity
  8
0
  6
Continuous
 62
               4
100
AcDbCircle
 10
1294.6776328760434
 20
1602.2873390366526
 30
0.0
 40
1.0
  0
CIRCLE
  5
46B
100
AcDbEntity
  8
0
  6
Continuous
 62
               4
100
AcDbCircle
 10
1313.672852928506
 20
1613.5437657344082
 30
0.0
 40
1.0
  0
CIRCLE
  5
46C
100
AcDbEntity
  8
0
  6
Continuous
 62
               4
100
AcDbCircle
 10
1334.0751263181887
 20
1631.835459118262
 30
0.0
 40
1.0
  0
CIRCLE
  5
46D
100
AcDbEntity
  8
0
  6
Continuous
 62
               4
100
AcDbCircle
 10
1335.4821796554081
 20
1605.8049723797012
 30
0.0
 40
1.0
  0
CIRCLE
  5
46E
100
AcDbEntity
  8
0
  6
Continuous
 62
               4
100
AcDbCircle
 10
1350.9597663648224
 20
1617.7649257460671
 30
0.0
 40
1.0
  0
CIRCLE
  5
46F
100
AcDbEntity
  8
0
  6
Continuous
 62
               4
100
AcDbCircle
 10
1369.2514597486756
 20
1625.5037191007741
 30
0.0
 40
1.0
  0
CIRCLE
  5
470
100
AcDbEntity
  8
0
  6
Continuous
 62
               4
100
AcDbCircle
 10
1369.2514597486756
 20
1602.2873390366526
 30
0.0
 40
1.0
  0
CIRCLE
  5
471
100
AcDbEntity
  8
0
  6
Continuous
 62
               4
100
AcDbCircle
 10
1388.2466798011383
 20
1613.5437657344082
 30
0.0
 40
1.0
  0
CIRCLE
  5
472
100
AcDbEntity
  8
0
  6
Continuous
 62
               4
100
AcDbCircle
 10
1408.6489531908207
 20
1631.835459118262
 30
0.0
 40
1.0
  0
CIRCLE
  5
473
100
AcDbEntity
  8
0
  6
Continuous
 62
               4
100
AcDbCircle
 10
1410.0560065280404
 20
1605.8049723797012
 30
0.0
 40
1.0
  0
CIRCLE
  5
474
100
AcDbEntity
  8
0
  6
Continuous
 62
               4
100
AcDbCircle
 10
1425.533593237456
 20
1617.7649257460671
 30
0.0
 40
1.0
  0
CIRCLE
  5
475
100
AcDbEntity
  8
0
  6
Continuous
 62
               4
100
AcDbCircle
 10
1443.8252866213093
 20
1625.5037191007741
 30
0.0
 40
1.0
  0
CIRCLE
  5
476
100
AcDbEntity
  8
0
  6
Continuous
 62
               4
100
AcDbCircle
 10
1443.8252866213093
 20
1602.2873390366526
 30
0.0
 40
1.0
  0
CIRCLE
  5
477
100
AcDbEntity
  8
0
  6
Continuous
 62
               4
100
AcDbCircle
 10
1462.8205066737721
 20
1613.5437657344082
 30
0.0
 40
1.0
  0
CIRCLE
  5
478
100
AcDbEntity
  8
0
  6
Continuous
 62
               4
100
AcDbCircle
 10
1050.9597663648201
 20
1617.7649257460812
 30
0.0
 40
1.0
  0
CIRCLE
  5
479
100
AcDbEntity
  8
0
  6
Continuous
 62
               4
100
AcDbCircle
 10
1069.2514597486734
 20
1625.5037191007887
 30
0.0
 40
1.0
  0
CIRCLE
  5
47A
100
AcDbEntity
  8
0
  6
Continuous
 62
               4
100
AcDbCircle
 10
1069.2514597486734
 20
1602.2873390366672
 30
0.0
 40
1.0
  0
CIRCLE
  5
47B
100
AcDbEntity
  8
0
  6
Continuous
 62
               4
100
AcDbCircle
 10
1088.2466798011362
 20
1613.5437657344228
 30
0.0
 40
1.0
  0
CIRCLE
  5
47C
100
AcDbEntity
  8
0
  6
Continuous
 62
               4
100
AcDbCircle
 10
1108.6489531908187
 20
1631.8354591182765
 30
0.0
 40
1.0
  0
CIRCLE
  5
47D
100
AcDbEntity
  8
0
  6
Continuous
 62
               4
100
AcDbCircle
 10
1110.0560065280381
 20
1605.8049723797158
 30
0.0
 40
1.0
  0
CIRCLE
  5
47E
100
AcDbEntity
  8
0
  6
Continuous
 62
               4
100
AcDbCircle
 10
1125.5335932374537
 20
1617.7649257460812
 30
0.0
 40
1.0
  0
CIRCLE
  5
47F
100
AcDbEntity
  8
0
  6
Continuous
 62
               4
100
AcDbCircle
 10
1143.825286621307
 20
1625.5037191007887
 30
0.0
 40
1.0
  0
CIRCLE
  5
480
100
AcDbEntity
  8
0
  6
Continuous
 62
               4
100
AcDbCircle
 10
1143.825286621307
 20
1602.2873390366672
 30
0.0
 40
1.0
  0
CIRCLE
  5
481
100
AcDbEntity
  8
0
  6
Continuous
 62
               4
100
AcDbCircle
 10
1162.8205066737698
 20
1613.5437657344228
 30
0.0
 40
1.0
  0
CIRCLE
  5
482
100
AcDbEntity
  8
0
  6
Continuous
 62
               4
100
AcDbCircle
 10
1758.2424242424322
 20
1776.857436399293
 30
0.0
 40
1.5
  0
CIRCLE
  5
483
100
AcDbEntity
  8
0
  6
Continuous
 62
               4
100
AcDbCircle
 10
1458.2424242424286
 20
1776.857436399293
 30
0.0
 40
1.5
  0
CIRCLE
  5
484
100
AcDbEntity
  8
0
  6
Continuous
 62
               4
100
AcDbCircle
 10
1158.2424242424283
 20
1776.857436399293
 30
0.0
 40
1.5
  0
CIRCLE
  5
485
100
AcDbEntity
  8
0
  6
Continuous
 62
               4
100
AcDbCircle
 10
1458.2424242424286
 20
1776.857436399293
 30
0.0
 40
1.5
  0
CIRCLE
  5
486
100
AcDbEntity
  8
0
  6
Continuous
 62
               4
100
AcDbCircle
 10
2258.2424242424099
 20
1776.857436399293
 30
0.0
 40
1.5
  0
CIRCLE
  5
487
100
AcDbEntity
  8
0
  6
Continuous
 62
               4
100
AcDbCircle
 10
2558.2424242424099
 20
1776.857436399293
 30
0.0
 40
1.5
  0
CIRCLE
  5
488
100
AcDbEntity
  8
0
  6
Continuous
 62
               4
100
AcDbCircle
 10
2558.2424242424099
 20
1776.857436399293
 30
0.0
 40
1.5
  0
CIRCLE
  5
489
100
AcDbEntity
  8
0
  6
Continuous
 62
               4
100
AcDbCircle
 10
2858.2424242424095
 20
1776.857436399293
 30
0.0
 40
1.5
  0
CIRCLE
  5
48A
100
AcDbEntity
  8
0
  6
Continuous
 62
               4
100
AcDbCircle
 10
2205.9924242424177
 20
1685.8574363992548
 30
0.0
 40
1.5
  0
CIRCLE
  5
48B
100
AcDbEntity
  8
0
  6
Continuous
 62
               4
100
AcDbCircle
 10
2205.9924242424177
 20
1740.9074363992122
 30
0.0
 40
1.5
  0
CIRCLE
  5
48C
100
AcDbEntity
  8
0
  6
Continuous
 62
               4
100
AcDbCircle
 10
2843.2424242424081
 20
1448.6076742201103
 30
0.0
 40
1.5
  0
CIRCLE
  5
48D
100
AcDbEntity
  8
0
  6
Continuous
 62
               4
100
AcDbCircle
 10
2843.2424242424081
 20
1393.6076742201103
 30
0.0
 40
1.5
  0
CIRCLE
  5
48E
100
AcDbEntity
  8
0
  6
Continuous
 62
               4
100
AcDbCircle
 10
1188.7424242424272
 20
1613.8574363992693
 30
0.0
 40
1.5
  0
CIRCLE
  5
48F
100
AcDbEntity
  8
0
  6
Continuous
 62
               4
100
AcDbCircle
 10
1148.7424242424272
 20
1613.8574363992693
 30
0.0
 40
1.5
  0
CIRCLE
  5
490
100
AcDbEntity
  8
0
  6
Continuous
 62
               4
100
AcDbCircle
 10
1083.2424242424163
 20
1590.8574363992798
 30
0.0
 40
1.5
  0
CIRCLE
  5
491
100
AcDbEntity
  8
0
  6
Continuous
 62
               4
100
AcDbCircle
 10
1083.2424242424163
 20
1645.8574363992716
 30
0.0
 40
1.5
  0
CIRCLE
  5
492
100
AcDbEntity
  8
0
  6
Continuous
 62
               4
100
AcDbCircle
 10
1083.2424242424163
 20
1648.8574365748395
 30
0.0
 40
1.5
  0
CIRCLE
  5
493
100
AcDbEntity
  8
0
  6
Continuous
 62
               4
100
AcDbCircle
 10
1083.2424242424163
 20
1673.8574331421501
 30
0.0
 40
1.5
  0
CIRCLE
  5
494
100
AcDbEntity
  8
0
  6
Continuous
 62
               4
100
AcDbCircle
 10
1820.1038060034075
 20
903.00371910070805
 30
0.0
 40
1.0
  0
CIRCLE
  5
495
100
AcDbEntity
  8
0
  6
Continuous
 62
               4
100
AcDbCircle
 10
1820.1038060034075
 20
879.78733903658622
 30
0.0
 40
1.0
  0
CIRCLE
  5
496
100
AcDbEntity
  8
0
  6
Continuous
 62
               4
100
AcDbCircle
 10
1839.0990260558706
 20
891.04376573434206
 30
0.0
 40
1.0
  0
CIRCLE
  5
497
100
AcDbEntity
  8
0
  6
Continuous
 62
               4
100
AcDbCircle
 10
1859.5012994455528
 20
909.33545911819579
 30
0.0
 40
1.0
  0
CIRCLE
  5
498
100
AcDbEntity
  8
0
  6
Continuous
 62
               4
100
AcDbCircle
 10
1860.9083527827725
 20
883.30497237963493
 30
0.0
 40
1.0
  0
CIRCLE
  5
499
100
AcDbEntity
  8
0
  6
Continuous
 62
               4
100
AcDbCircle
 10
1805.3297459626033
 20
895.2649257460007
 30
0.0
 40
1.0
  0
CIRCLE
  5
49A
100
AcDbEntity
  8
0
  6
Continuous
 62
               4
100
AcDbCircle
 10
1876.3859394921865
 20
895.2649257460007
 30
0.0
 40
1.0
  0
CIRCLE
  5
49B
100
AcDbEntity
  8
0
  6
Continuous
 62
               4
100
AcDbCircle
 10
1894.6776328760398
 20
903.00371910070805
 30
0.0
 40
1.0
  0
CIRCLE
  5
49C
100
AcDbEntity
  8
0
  6
Continuous
 62
               4
100
AcDbCircle
 10
1894.6776328760398
 20
879.78733903658622
 30
0.0
 40
1.0
  0
CIRCLE
  5
49D
100
AcDbEntity
  8
0
  6
Continuous
 62
               4
100
AcDbCircle
 10
1520.1038060034043
 20
903.00371910070783
 30
0.0
 40
1.0
  0
CIRCLE
  5
49E
100
AcDbEntity
  8
0
  6
Continuous
 62
               4
100
AcDbCircle
 10
1520.1038060034043
 20
879.78733903658622
 30
0.0
 40
1.0
  0
CIRCLE
  5
49F
100
AcDbEntity
  8
0
  6
Continuous
 62
               4
100
AcDbCircle
 10
1539.0990260558672
 20
891.04376573434206
 30
0.0
 40
1.0
  0
CIRCLE
  5
4A0
100
AcDbEntity
  8
0
  6
Continuous
 62
               4
100
AcDbCircle
 10
1559.5012994455496
 20
909.33545911819556
 30
0.0
 40
1.0
  0
CIRCLE
  5
4A1
100
AcDbEntity
  8
0
  6
Continuous
 62
               4
100
AcDbCircle
 10
1560.9083527827688
 20
883.30497237963493
 30
0.0
 40
1.0
  0
CIRCLE
  5
4A2
100
AcDbEntity
  8
0
  6
Continuous
 62
               4
100
AcDbCircle
 10
1505.3297459625999
 20
895.26492574600047
 30
0.0
 40
1.0
  0
CIRCLE
  5
4A3
100
AcDbEntity
  8
0
  6
Continuous
 62
               4
100
AcDbCircle
 10
1594.6776328760361
 20
903.00371910070783
 30
0.0
 40
1.0
  0
CIRCLE
  5
4A4
100
AcDbEntity
  8
0
  6
Continuous
 62
               4
100
AcDbCircle
 10
1594.6776328760361
 20
879.78733903658622
 30
0.0
 40
1.0
  0
CIRCLE
  5
4A5
100
AcDbEntity
  8
0
  6
Continuous
 62
               4
100
AcDbCircle
 10
1613.6728529284992
 20
891.04376573434206
 30
0.0
 40
1.0
  0
CIRCLE
  5
4A6
100
AcDbEntity
  8
0
  6
Continuous
 62
               4
100
AcDbCircle
 10
1634.0751263181814
 20
909.33545911819556
 30
0.0
 40
1.0
  0
CIRCLE
  5
4A7
100
AcDbEntity
  8
0
  6
Continuous
 62
               4
100
AcDbCircle
 10
1635.4821796554011
 20
883.30497237963493
 30
0.0
 40
1.0
  0
CIRCLE
  5
4A8
100
AcDbEntity
  8
0
  6
Continuous
 62
               4
100
AcDbCircle
 10
1650.9597663648153
 20
895.26492574600047
 30
0.0
 40
1.0
  0
CIRCLE
  5
4A9
100
AcDbEntity
  8
0
  6
Continuous
 62
               4
100
AcDbCircle
 10
1669.2514597486688
 20
903.00371910070783
 30
0.0
 40
1.0
  0
CIRCLE
  5
4AA
100
AcDbEntity
  8
0
  6
Continuous
 62
               4
100
AcDbCircle
 10
1669.2514597486688
 20
879.78733903658622
 30
0.0
 40
1.0
  0
CIRCLE
  5
4AB
100
AcDbEntity
  8
0
  6
Continuous
 62
               4
100
AcDbCircle
 10
1688.2466798011314
 20
891.04376573434206
 30
0.0
 40
1.0
  0
CIRCLE
  5
4AC
100
AcDbEntity
  8
0
  6
Continuous
 62
               4
100
AcDbCircle
 10
1708.6489531908142
 20
909.33545911819556
 30
0.0
 40
1.0
  0
CIRCLE
  5
4AD
100
AcDbEntity
  8
0
  6
Continuous
 62
               4
100
AcDbCircle
 10
1710.0560065280338
 20
883.30497237963493
 30
0.0
 40
1.0
  0
CIRCLE
  5
4AE
100
AcDbEntity
  8
0
  6
Continuous
 62
               4
100
AcDbCircle
 10
1725.5335932374496
 20
895.26492574600047
 30
0.0
 40
1.0
  0
CIRCLE
  5
4AF
100
AcDbEntity
  8
0
  6
Continuous
 62
               4
100
AcDbCircle
 10
1743.8252866213029
 20
903.00371910070783
 30
0.0
 40
1.0
  0
CIRCLE
  5
4B0
100
AcDbEntity
  8
0
  6
Continuous
 62
               4
100
AcDbCircle
 10
1743.8252866213029
 20
879.78733903658622
 30
0.0
 40
1.0
  0
CIRCLE
  5
4B1
100
AcDbEntity
  8
0
  6
Continuous
 62
               4
100
AcDbCircle
 10
1762.820506673766
 20
891.04376573434206
 30
0.0
 40
1.0
  0
CIRCLE
  5
4B2
100
AcDbEntity
  8
0
  6
Continuous
 62
               4
100
AcDbCircle
 10
1488.242424242419
 20
781.85743639924021
 30
0.0
 40
1.5
  0
CIRCLE
  5
4B3
100
AcDbEntity
  8
0
  6
Continuous
 62
               4
100
AcDbCircle
 10
1788.2424242424222
 20
781.85743639924021
 30
0.0
 40
1.5
  0
CIRCLE
  5
4B4
100
AcDbEntity
  8
0
  6
Continuous
 62
               4
100
AcDbCircle
 10
1913.406560302446
 20
889.31568354256126
 30
0.0
 40
1.0
  0
CIRCLE
  5
4B5
100
AcDbEntity
  8
0
  6
Continuous
 62
               4
100
AcDbCircle
 10
1933.8088336921282
 20
907.60737692641499
 30
0.0
 40
1.0
  0
CIRCLE
  5
4B6
100
AcDbEntity
  8
0
  6
Continuous
 62
               4
100
AcDbCircle
 10
1935.2158870293479
 20
881.57689018785413
 30
0.0
 40
1.0
  0
CIRCLE
  5
4B7
100
AcDbEntity
  8
0
  6
Continuous
 62
               4
100
AcDbCircle
 10
2620.1038060033834
 20
903.00370866546734
 30
0.0
 40
1.0
  0
CIRCLE
  5
4B8
100
AcDbEntity
  8
0
  6
Continuous
 62
               4
100
AcDbCircle
 10
2620.1038060033834
 20
879.78733903656109
 30
0.0
 40
1.0
  0
CIRCLE
  5
4B9
100
AcDbEntity
  8
0
  6
Continuous
 62
               4
100
AcDbCircle
 10
2639.099026055846
 20
891.04376573431693
 30
0.0
 40
1.0
  0
CIRCLE
  5
4BA
100
AcDbEntity
  8
0
  6
Continuous
 62
               4
100
AcDbCircle
 10
2659.5012994455283
 20
909.33545911817055
 30
0.0
 40
1.0
  0
CIRCLE
  5
4BB
100
AcDbEntity
  8
0
  6
Continuous
 62
               4
100
AcDbCircle
 10
2660.9083527827479
 20
883.30497237960981
 30
0.0
 40
1.0
  0
CIRCLE
  5
4BC
100
AcDbEntity
  8
0
  6
Continuous
 62
               4
100
AcDbCircle
 10
2605.3297459625787
 20
895.26492574597546
 30
0.0
 40
1.0
  0
CIRCLE
  5
4BD
100
AcDbEntity
  8
0
  6
Continuous
 62
               4
100
AcDbCircle
 10
2676.3859394921619
 20
895.26492574597557
 30
0.0
 40
1.0
  0
CIRCLE
  5
4BE
100
AcDbEntity
  8
0
  6
Continuous
 62
               4
100
AcDbCircle
 10
2694.6776328760152
 20
903.00371910068293
 30
0.0
 40
1.0
  0
CIRCLE
  5
4BF
100
AcDbEntity
  8
0
  6
Continuous
 62
               4
100
AcDbCircle
 10
2694.6776328760152
 20
879.78733903656109
 30
0.0
 40
1.0
  0
CIRCLE
  5
4C0
100
AcDbEntity
  8
0
  6
Continuous
 62
               4
100
AcDbCircle
 10
2713.6728529284778
 20
891.04376573431693
 30
0.0
 40
1.0
  0
CIRCLE
  5
4C1
100
AcDbEntity
  8
0
  6
Continuous
 62
               4
100
AcDbCircle
 10
2734.0751263181605
 20
909.33545911817055
 30
0.0
 40
1.0
  0
CIRCLE
  5
4C2
100
AcDbEntity
  8
0
  6
Continuous
 62
               4
100
AcDbCircle
 10
2735.4821796553797
 20
883.30497237960981
 30
0.0
 40
1.0
  0
CIRCLE
  5
4C3
100
AcDbEntity
  8
0
  6
Continuous
 62
               4
100
AcDbCircle
 10
2750.9597663647942
 20
895.26492574597557
 30
0.0
 40
1.0
  0
CIRCLE
  5
4C4
100
AcDbEntity
  8
0
  6
Continuous
 62
               4
100
AcDbCircle
 10
2769.251459748647
 20
903.00371910068293
 30
0.0
 40
1.0
  0
CIRCLE
  5
4C5
100
AcDbEntity
  8
0
  6
Continuous
 62
               4
100
AcDbCircle
 10
2769.251459748647
 20
879.78733903656109
 30
0.0
 40
1.0
  0
CIRCLE
  5
4C6
100
AcDbEntity
  8
0
  6
Continuous
 62
               4
100
AcDbCircle
 10
2788.2466798011101
 20
891.04376573431693
 30
0.0
 40
1.0
  0
CIRCLE
  5
4C7
100
AcDbEntity
  8
0
  6
Continuous
 62
               4
100
AcDbCircle
 10
2808.6489531907928
 20
909.33545911817055
 30
0.0
 40
1.0
  0
CIRCLE
  5
4C8
100
AcDbEntity
  8
0
  6
Continuous
 62
               4
100
AcDbCircle
 10
2810.0560065280124
 20
883.30497237960981
 30
0.0
 40
1.0
  0
CIRCLE
  5
4C9
100
AcDbEntity
  8
0
  6
Continuous
 62
               4
100
AcDbCircle
 10
2825.5335932374264
 20
895.26492574597557
 30
0.0
 40
1.0
  0
CIRCLE
  5
4CA
100
AcDbEntity
  8
0
  6
Continuous
 62
               4
100
AcDbCircle
 10
2843.8252866212792
 20
903.00371910068293
 30
0.0
 40
1.0
  0
CIRCLE
  5
4CB
100
AcDbEntity
  8
0
  6
Continuous
 62
               4
100
AcDbCircle
 10
2843.8252866212792
 20
879.78733903656109
 30
0.0
 40
1.0
  0
CIRCLE
  5
4CC
100
AcDbEntity
  8
0
  6
Continuous
 62
               4
100
AcDbCircle
 10
2862.8205066737423
 20
891.04376573431693
 30
0.0
 40
1.0
  0
CIRCLE
  5
4CD
100
AcDbEntity
  8
0
  6
Continuous
 62
               4
100
AcDbCircle
 10
2920.1038060033843
 20
903.00371910068259
 30
0.0
 40
1.0
  0
CIRCLE
  5
4CE
100
AcDbEntity
  8
0
  6
Continuous
 62
               4
100
AcDbCircle
 10
2920.1038060033843
 20
879.78733903656109
 30
0.0
 40
1.0
  0
CIRCLE
  5
4CF
100
AcDbEntity
  8
0
  6
Continuous
 62
               4
100
AcDbCircle
 10
2939.0990260558469
 20
891.04376573431682
 30
0.0
 40
1.0
  0
CIRCLE
  5
4D0
100
AcDbEntity
  8
0
  6
Continuous
 62
               4
100
AcDbCircle
 10
2959.5012994455292
 20
909.33545911817021
 30
0.0
 40
1.0
  0
CIRCLE
  5
4D1
100
AcDbEntity
  8
0
  6
Continuous
 62
               4
100
AcDbCircle
 10
2960.9083527827488
 20
883.30497237960981
 30
0.0
 40
1.0
  0
CIRCLE
  5
4D2
100
AcDbEntity
  8
0
  6
Continuous
 62
               4
100
AcDbCircle
 10
2905.3297459625796
 20
895.26492574597523
 30
0.0
 40
1.0
  0
CIRCLE
  5
4D3
100
AcDbEntity
  8
0
  6
Continuous
 62
               4
100
AcDbCircle
 10
2976.3859394921628
 20
895.26492574597523
 30
0.0
 40
1.0
  0
CIRCLE
  5
4D4
100
AcDbEntity
  8
0
  6
Continuous
 62
               4
100
AcDbCircle
 10
2994.6776328760161
 20
903.00371910068259
 30
0.0
 40
1.0
  0
CIRCLE
  5
4D5
100
AcDbEntity
  8
0
  6
Continuous
 62
               4
100
AcDbCircle
 10
2994.6776328760161
 20
879.78733903656109
 30
0.0
 40
1.0
  0
CIRCLE
  5
4D6
100
AcDbEntity
  8
0
  6
Continuous
 62
               4
100
AcDbCircle
 10
3013.6728529284787
 20
891.04376573431682
 30
0.0
 40
1.0
  0
CIRCLE
  5
4D7
100
AcDbEntity
  8
0
  6
Continuous
 62
               4
100
AcDbCircle
 10
3034.075126318161
 20
909.33545911817021
 30
0.0
 40
1.0
  0
CIRCLE
  5
4D8
100
AcDbEntity
  8
0
  6
Continuous
 62
               4
100
AcDbCircle
 10
3035.4821796553806
 20
883.30497237960981
 30
0.0
 40
1.0
  0
CIRCLE
  5
4D9
100
AcDbEntity
  8
0
  6
Continuous
 62
               4
100
AcDbCircle
 10
2320.1038060033834
 20
903.0037191006827
 30
0.0
 40
1.0
  0
CIRCLE
  5
4DA
100
AcDbEntity
  8
0
  6
Continuous
 62
               4
100
AcDbCircle
 10
2320.1038060033834
 20
879.78733903656109
 30
0.0
 40
1.0
  0
CIRCLE
  5
4DB
100
AcDbEntity
  8
0
  6
Continuous
 62
               4
100
AcDbCircle
 10
2339.099026055846
 20
891.04376573431682
 30
0.0
 40
1.0
  0
CIRCLE
  5
4DC
100
AcDbEntity
  8
0
  6
Continuous
 62
               4
100
AcDbCircle
 10
2359.5012994455283
 20
909.33545911817032
 30
0.0
 40
1.0
  0
CIRCLE
  5
4DD
100
AcDbEntity
  8
0
  6
Continuous
 62
               4
100
AcDbCircle
 10
2360.9083527827479
 20
883.30497237960981
 30
0.0
 40
1.0
  0
CIRCLE
  5
4DE
100
AcDbEntity
  8
0
  6
Continuous
 62
               4
100
AcDbCircle
 10
2305.3297459625787
 20
895.26492574597523
 30
0.0
 40
1.0
  0
CIRCLE
  5
4DF
100
AcDbEntity
  8
0
  6
Continuous
 62
               4
100
AcDbCircle
 10
2376.3859394921619
 20
895.26492574597535
 30
0.0
 40
1.0
  0
CIRCLE
  5
4E0
100
AcDbEntity
  8
0
  6
Continuous
 62
               4
100
AcDbCircle
 10
2394.6776328760152
 20
903.0037191006827
 30
0.0
 40
1.0
  0
CIRCLE
  5
4E1
100
AcDbEntity
  8
0
  6
Continuous
 62
               4
100
AcDbCircle
 10
2394.6776328760152
 20
879.78733903656109
 30
0.0
 40
1.0
  0
CIRCLE
  5
4E2
100
AcDbEntity
  8
0
  6
Continuous
 62
               4
100
AcDbCircle
 10
2413.6728529284778
 20
891.04376573431682
 30
0.0
 40
1.0
  0
CIRCLE
  5
4E3
100
AcDbEntity
  8
0
  6
Continuous
 62
               4
100
AcDbCircle
 10
2434.0751263181601
 20
909.33545911817032
 30
0.0
 40
1.0
  0
CIRCLE
  5
4E4
100
AcDbEntity
  8
0
  6
Continuous
 62
               4
100
AcDbCircle
 10
2435.4821796553797
 20
883.30497237960981
 30
0.0
 40
1.0
  0
CIRCLE
  5
4E5
100
AcDbEntity
  8
0
  6
Continuous
 62
               4
100
AcDbCircle
 10
2450.9597663647937
 20
895.26492574597535
 30
0.0
 40
1.0
  0
CIRCLE
  5
4E6
100
AcDbEntity
  8
0
  6
Continuous
 62
               4
100
AcDbCircle
 10
2469.251459748647
 20
903.0037191006827
 30
0.0
 40
1.0
  0
CIRCLE
  5
4E7
100
AcDbEntity
  8
0
  6
Continuous
 62
               4
100
AcDbCircle
 10
2469.251459748647
 20
879.78733903656109
 30
0.0
 40
1.0
  0
CIRCLE
  5
4E8
100
AcDbEntity
  8
0
  6
Continuous
 62
               4
100
AcDbCircle
 10
2488.2466798011096
 20
891.04376573431682
 30
0.0
 40
1.0
  0
CIRCLE
  5
4E9
100
AcDbEntity
  8
0
  6
Continuous
 62
               4
100
AcDbCircle
 10
2508.6489531907919
 20
909.33545911817032
 30
0.0
 40
1.0
  0
CIRCLE
  5
4EA
100
AcDbEntity
  8
0
  6
Continuous
 62
               4
100
AcDbCircle
 10
2510.0560065280115
 20
883.30497237960981
 30
0.0
 40
1.0
  0
CIRCLE
  5
4EB
100
AcDbEntity
  8
0
  6
Continuous
 62
               4
100
AcDbCircle
 10
2525.5335932374255
 20
895.26492574597535
 30
0.0
 40
1.0
  0
CIRCLE
  5
4EC
100
AcDbEntity
  8
0
  6
Continuous
 62
               4
100
AcDbCircle
 10
2543.8252866212788
 20
903.0037191006827
 30
0.0
 40
1.0
  0
CIRCLE
  5
4ED
100
AcDbEntity
  8
0
  6
Continuous
 62
               4
100
AcDbCircle
 10
2543.8252866212788
 20
879.78733903656109
 30
0.0
 40
1.0
  0
CIRCLE
  5
4EE
100
AcDbEntity
  8
0
  6
Continuous
 62
               4
100
AcDbCircle
 10
2562.8205066737419
 20
891.04376573431682
 30
0.0
 40
1.0
  0
CIRCLE
  5
4EF
100
AcDbEntity
  8
0
  6
Continuous
 62
               4
100
AcDbCircle
 10
2150.9597663647937
 20
895.26492574600138
 30
0.0
 40
1.0
  0
CIRCLE
  5
4F0
100
AcDbEntity
  8
0
  6
Continuous
 62
               4
100
AcDbCircle
 10
2169.251459748647
 20
903.00371910070874
 30
0.0
 40
1.0
  0
CIRCLE
  5
4F1
100
AcDbEntity
  8
0
  6
Continuous
 62
               4
100
AcDbCircle
 10
2169.251459748647
 20
879.7873390365869
 30
0.0
 40
1.0
  0
CIRCLE
  5
4F2
100
AcDbEntity
  8
0
  6
Continuous
 62
               4
100
AcDbCircle
 10
2188.2466798011096
 20
891.04376573434286
 30
0.0
 40
1.0
  0
CIRCLE
  5
4F3
100
AcDbEntity
  8
0
  6
Continuous
 62
               4
100
AcDbCircle
 10
2208.6489531907919
 20
909.33545911819647
 30
0.0
 40
1.0
  0
CIRCLE
  5
4F4
100
AcDbEntity
  8
0
  6
Continuous
 62
               4
100
AcDbCircle
 10
2210.0560065280115
 20
883.30497237963561
 30
0.0
 40
1.0
  0
CIRCLE
  5
4F5
100
AcDbEntity
  8
0
  6
Continuous
 62
               4
100
AcDbCircle
 10
2243.8252866212788
 20
903.00371910070874
 30
0.0
 40
1.0
  0
CIRCLE
  5
4F6
100
AcDbEntity
  8
0
  6
Continuous
 62
               4
100
AcDbCircle
 10
2243.8252866212788
 20
879.7873390365869
 30
0.0
 40
1.0
  0
CIRCLE
  5
4F7
100
AcDbEntity
  8
0
  6
Continuous
 62
               4
100
AcDbCircle
 10
2262.8205066737419
 20
891.04376573434286
 30
0.0
 40
1.0
  0
CIRCLE
  5
4F8
100
AcDbEntity
  8
0
  6
Continuous
 62
               4
100
AcDbCircle
 10
2205.9924242424086
 20
959.35743639920304
 30
0.0
 40
1.5
  0
CIRCLE
  5
4F9
100
AcDbEntity
  8
0
  6
Continuous
 62
               4
100
AcDbCircle
 10
2205.9924242424086
 20
934.35743639920304
 30
0.0
 40
1.5
  0
CIRCLE
  5
4FA
100
AcDbEntity
  8
0
  6
Continuous
 62
               4
100
AcDbCircle
 10
2205.9924242424086
 20
923.35743639919269
 30
0.0
 40
1.5
  0
CIRCLE
  5
4FB
100
AcDbEntity
  8
0
  6
Continuous
 62
               4
100
AcDbCircle
 10
2205.9924242424086
 20
868.35743639920292
 30
0.0
 40
1.5
  0
CIRCLE
  5
4FC
100
AcDbEntity
  8
0
  6
Continuous
 62
               4
100
AcDbCircle
 10
2773.4758934411029
 20
868.35743639917155
 30
0.0
 40
1.5
  0
CIRCLE
  5
4FD
100
AcDbEntity
  8
0
  6
Continuous
 62
               4
100
AcDbCircle
 10
2773.4758934411029
 20
893.35743639917166
 30
0.0
 40
1.5
  0
CIRCLE
  5
4FE
100
AcDbEntity
  8
0
  6
Continuous
 62
               4
100
AcDbCircle
 10
2773.4758934411029
 20
946.85743639914608
 30
0.0
 40
1.5
  0
CIRCLE
  5
4FF
100
AcDbEntity
  8
0
  6
Continuous
 62
               4
100
AcDbCircle
 10
2773.4758934411029
 20
960.35743639914608
 30
0.0
 40
1.5
  0
CIRCLE
  5
500
100
AcDbEntity
  8
0
  6
Continuous
 62
               4
100
AcDbCircle
 10
2288.2424242423981
 20
781.85743639918928
 30
0.0
 40
1.5
  0
CIRCLE
  5
501
100
AcDbEntity
  8
0
  6
Continuous
 62
               4
100
AcDbCircle
 10
2588.2424242423981
 20
781.85743639918928
 30
0.0
 40
1.5
  0
CIRCLE
  5
502
100
AcDbEntity
  8
0
  6
Continuous
 62
               4
100
AcDbCircle
 10
2588.2424242423981
 20
781.85743639918928
 30
0.0
 40
1.5
  0
CIRCLE
  5
503
100
AcDbEntity
  8
0
  6
Continuous
 62
               4
100
AcDbCircle
 10
2888.2424242423986
 20
781.85743639918928
 30
0.0
 40
1.5
  0
CIRCLE
  5
504
100
AcDbEntity
  8
0
  6
Continuous
 62
               4
100
AcDbCircle
 10
2773.4758934411029
 20
928.85743639914563
 30
0.0
 40
1.5
  0
CIRCLE
  5
505
100
AcDbEntity
  8
0
  6
Continuous
 62
               4
100
AcDbCircle
 10
2205.9924242424086
 20
923.85743639919713
 30
0.0
 40
1.5
  0
CIRCLE
  5
506
100
AcDbEntity
  8
0
  6
Continuous
 62
               4
100
AcDbCircle
 10
2205.9924242424086
 20
933.85743639919713
 30
0.0
 40
1.5
  0
CIRCLE
  5
507
100
AcDbEntity
  8
0
  6
Continuous
 62
               4
100
AcDbCircle
 10
1188.2424242424167
 20
781.85743639925317
 30
0.0
 40
1.5
  0
CIRCLE
  5
508
100
AcDbEntity
  8
0
  6
Continuous
 62
               4
100
AcDbCircle
 10
1488.242424242419
 20
781.85743639925317
 30
0.0
 40
1.5
  0
CIRCLE
  5
509
100
AcDbEntity
  8
0
  6
Continuous
 62
               4
100
AcDbCircle
 10
1576.1966725918455
 20
868.35743639923112
 30
0.0
 40
1.5
  0
CIRCLE
  5
50A
100
AcDbEntity
  8
0
  6
Continuous
 62
               4
100
AcDbCircle
 10
1576.1966725918455
 20
893.35743639923123
 30
0.0
 40
1.5
  0
CIRCLE
  5
50B
100
AcDbEntity
  8
0
  6
Continuous
 62
               4
100
AcDbCircle
 10
1576.1966725918455
 20
938.85743595928818
 30
0.0
 40
1.5
  0
CIRCLE
  5
50C
100
AcDbEntity
  8
0
  6
Continuous
 62
               4
100
AcDbCircle
 10
1576.1966725918455
 20
952.35743620966548
 30
0.0
 40
1.5
  0
CIRCLE
  5
50D
100
AcDbEntity
  8
0
  6
Continuous
 62
               4
100
AcDbCircle
 10
1576.1966725918455
 20
955.35743620970231
 30
0.0
 40
1.5
  0
CIRCLE
  5
50E
100
AcDbEntity
  8
0
  6
Continuous
 62
               4
100
AcDbCircle
 10
1576.1966725918455
 20
924.85743639920292
 30
0.0
 40
1.5
  0
CIRCLE
  5
50F
100
AcDbEntity
  8
0
  6
Continuous
 62
               4
100
AcDbCircle
 10
1220.103806003402
 20
903.00371910072238
 30
0.0
 40
1.0
  0
CIRCLE
  5
510
100
AcDbEntity
  8
0
  6
Continuous
 62
               4
100
AcDbCircle
 10
1220.103806003402
 20
879.78733903660077
 30
0.0
 40
1.0
  0
CIRCLE
  5
511
100
AcDbEntity
  8
0
  6
Continuous
 62
               4
100
AcDbCircle
 10
1239.0990260558649
 20
891.0437657343565
 30
0.0
 40
1.0
  0
CIRCLE
  5
512
100
AcDbEntity
  8
0
  6
Continuous
 62
               4
100
AcDbCircle
 10
1259.5012994455474
 20
909.33545911821011
 30
0.0
 40
1.0
  0
CIRCLE
  5
513
100
AcDbEntity
  8
0
  6
Continuous
 62
               4
100
AcDbCircle
 10
1260.9083527827668
 20
883.30497237964937
 30
0.0
 40
1.0
  0
CIRCLE
  5
514
100
AcDbEntity
  8
0
  6
Continuous
 62
               4
100
AcDbCircle
 10
1205.3297459625976
 20
895.26492574601502
 30
0.0
 40
1.0
  0
CIRCLE
  5
515
100
AcDbEntity
  8
0
  6
Continuous
 62
               4
100
AcDbCircle
 10
1276.385939492181
 20
895.26492574601502
 30
0.0
 40
1.0
  0
CIRCLE
  5
516
100
AcDbEntity
  8
0
  6
Continuous
 62
               4
100
AcDbCircle
 10
1294.6776328760341
 20
903.00371910072238
 30
0.0
 40
1.0
  0
CIRCLE
  5
517
100
AcDbEntity
  8
0
  6
Continuous
 62
               4
100
AcDbCircle
 10
1294.6776328760341
 20
879.78733903660077
 30
0.0
 40
1.0
  0
CIRCLE
  5
518
100
AcDbEntity
  8
0
  6
Continuous
 62
               4
100
AcDbCircle
 10
1313.6728529284969
 20
891.0437657343565
 30
0.0
 40
1.0
  0
CIRCLE
  5
519
100
AcDbEntity
  8
0
  6
Continuous
 62
               4
100
AcDbCircle
 10
1334.0751263181792
 20
909.33545911821011
 30
0.0
 40
1.0
  0
CIRCLE
  5
51A
100
AcDbEntity
  8
0
  6
Continuous
 62
               4
100
AcDbCircle
 10
1335.4821796553988
 20
883.30497237964937
 30
0.0
 40
1.0
  0
CIRCLE
  5
51B
100
AcDbEntity
  8
0
  6
Continuous
 62
               4
100
AcDbCircle
 10
1350.959766364813
 20
895.26492574601502
 30
0.0
 40
1.0
  0
CIRCLE
  5
51C
100
AcDbEntity
  8
0
  6
Continuous
 62
               4
100
AcDbCircle
 10
1369.2514597486661
 20
903.00371910072238
 30
0.0
 40
1.0
  0
CIRCLE
  5
51D
100
AcDbEntity
  8
0
  6
Continuous
 62
               4
100
AcDbCircle
 10
1369.2514597486661
 20
879.78733903660077
 30
0.0
 40
1.0
  0
CIRCLE
  5
51E
100
AcDbEntity
  8
0
  6
Continuous
 62
               4
100
AcDbCircle
 10
1388.2466798011292
 20
891.0437657343565
 30
0.0
 40
1.0
  0
CIRCLE
  5
51F
100
AcDbEntity
  8
0
  6
Continuous
 62
               4
100
AcDbCircle
 10
1408.6489531908114
 20
909.33545911821011
 30
0.0
 40
1.0
  0
CIRCLE
  5
520
100
AcDbEntity
  8
0
  6
Continuous
 62
               4
100
AcDbCircle
 10
1410.056006528031
 20
883.30497237964937
 30
0.0
 40
1.0
  0
CIRCLE
  5
521
100
AcDbEntity
  8
0
  6
Continuous
 62
               4
100
AcDbCircle
 10
1425.5335932374464
 20
895.26492574601502
 30
0.0
 40
1.0
  0
CIRCLE
  5
522
100
AcDbEntity
  8
0
  6
Continuous
 62
               4
100
AcDbCircle
 10
1443.8252866212997
 20
903.00371910072238
 30
0.0
 40
1.0
  0
CIRCLE
  5
523
100
AcDbEntity
  8
0
  6
Continuous
 62
               4
100
AcDbCircle
 10
1443.8252866212997
 20
879.78733903660077
 30
0.0
 40
1.0
  0
CIRCLE
  5
524
100
AcDbEntity
  8
0
  6
Continuous
 62
               4
100
AcDbCircle
 10
1462.8205066737628
 20
891.0437657343565
 30
0.0
 40
1.0
  0
CIRCLE
  5
525
100
AcDbEntity
  8
0
  6
Continuous
 62
               4
100
AcDbCircle
 10
1050.9597663648108
 20
895.26492574602958
 30
0.0
 40
1.0
  0
CIRCLE
  5
526
100
AcDbEntity
  8
0
  6
Continuous
 62
               4
100
AcDbCircle
 10
1069.251459748664
 20
903.00371910073682
 30
0.0
 40
1.0
  0
CIRCLE
  5
527
100
AcDbEntity
  8
0
  6
Continuous
 62
               4
100
AcDbCircle
 10
1069.251459748664
 20
879.78733903661532
 30
0.0
 40
1.0
  0
CIRCLE
  5
528
100
AcDbEntity
  8
0
  6
Continuous
 62
               4
100
AcDbCircle
 10
1088.2466798011269
 20
891.04376573437105
 30
0.0
 40
1.0
  0
CIRCLE
  5
529
100
AcDbEntity
  8
0
  6
Continuous
 62
               4
100
AcDbCircle
 10
1108.6489531908092
 20
909.33545911822455
 30
0.0
 40
1.0
  0
CIRCLE
  5
52A
100
AcDbEntity
  8
0
  6
Continuous
 62
               4
100
AcDbCircle
 10
1110.0560065280288
 20
883.30497237966392
 30
0.0
 40
1.0
  0
CIRCLE
  5
52B
100
AcDbEntity
  8
0
  6
Continuous
 62
               4
100
AcDbCircle
 10
1125.5335932374444
 20
895.26492574602958
 30
0.0
 40
1.0
  0
CIRCLE
  5
52C
100
AcDbEntity
  8
0
  6
Continuous
 62
               4
100
AcDbCircle
 10
1143.8252866212977
 20
903.00371910073682
 30
0.0
 40
1.0
  0
CIRCLE
  5
52D
100
AcDbEntity
  8
0
  6
Continuous
 62
               4
100
AcDbCircle
 10
1143.8252866212977
 20
879.78733903661532
 30
0.0
 40
1.0
  0
CIRCLE
  5
52E
100
AcDbEntity
  8
0
  6
Continuous
 62
               4
100
AcDbCircle
 10
1162.8205066737605
 20
891.04376573437105
 30
0.0
 40
1.0
  0
CIRCLE
  5
52F
100
AcDbEntity
  8
0
  6
Continuous
 62
               4
100
AcDbCircle
 10
2258.2424242424004
 20
1054.3574363992411
 30
0.0
 40
1.5
  0
CIRCLE
  5
530
100
AcDbEntity
  8
0
  6
Continuous
 62
               4
100
AcDbCircle
 10
2558.2424242424004
 20
1054.3574363992411
 30
0.0
 40
1.5
  0
CIRCLE
  5
531
100
AcDbEntity
  8
0
  6
Continuous
 62
               4
100
AcDbCircle
 10
2558.2424242424004
 20
1054.3574363992411
 30
0.0
 40
1.5
  0
CIRCLE
  5
532
100
AcDbEntity
  8
0
  6
Continuous
 62
               4
100
AcDbCircle
 10
2858.2424242424004
 20
1054.3574363992411
 30
0.0
 40
1.5
  0
CIRCLE
  5
533
100
AcDbEntity
  8
0
  6
Continuous
 62
               4
100
AcDbCircle
 10
2205.9924242424086
 20
963.35743639920304
 30
0.0
 40
1.5
  0
CIRCLE
  5
534
100
AcDbEntity
  8
0
  6
Continuous
 62
               4
100
AcDbCircle
 10
2205.9924242424086
 20
1018.4074363991602
 30
0.0
 40
1.5
  0
CIRCLE
  5
535
100
AcDbEntity
  8
0
  6
Continuous
 62
               4
100
AcDbCircle
 10
2773.4758934411029
 20
869.35743639917155
 30
0.0
 40
1.5
  0
CIRCLE
  5
536
100
AcDbEntity
  8
0
  6
Continuous
 62
               4
100
AcDbCircle
 10
2633.742424242399
 20
914.35743639918996
 30
0.0
 40
1.5
  0
CIRCLE
  5
537
100
AcDbEntity
  8
0
  6
Continuous
 62
               4
100
AcDbCircle
 10
2633.742424242399
 20
869.35743639918928
 30
0.0
 40
1.5
  0
CIRCLE
  5
538
100
AcDbEntity
  8
0
  6
Continuous
 62
               4
100
AcDbCircle
 10
1576.1966725918455
 20
869.35743639923112
 30
0.0
 40
1.5
  0
CIRCLE
  5
539
100
AcDbEntity
  8
0
  6
Continuous
 62
               4
100
AcDbCircle
 10
1533.7424242424199
 20
914.35743639921498
 30
0.0
 40
1.5
  0
CIRCLE
  5
53A
100
AcDbEntity
  8
0
  6
Continuous
 62
               4
100
AcDbCircle
 10
1533.7424242424199
 20
869.35743639921429
 30
0.0
 40
1.5
  0
CIRCLE
  5
53B
100
AcDbEntity
  8
0
  6
Continuous
 62
               4
100
AcDbCircle
 10
1576.1966725918364
 20
938.85743572357069
 30
0.0
 40
1.5
  0
CIRCLE
  5
53C
100
AcDbEntity
  8
0
  6
Continuous
 62
               4
100
AcDbCircle
 10
1576.1966725918364
 20
952.35743597394799
 30
0.0
 40
1.5
  0
CIRCLE
  5
53D
100
AcDbEntity
  8
0
  6
Continuous
 62
               4
100
AcDbCircle
 10
1576.1966725918364
 20
955.35743597398482
 30
0.0
 40
1.5
  0
CIRCLE
  5
53E
100
AcDbEntity
  8
0
  6
Continuous
 62
               4
100
AcDbCircle
 10
1758.2424242424229
 20
1054.3574363992411
 30
0.0
 40
1.5
  0
CIRCLE
  5
53F
100
AcDbEntity
  8
0
  6
Continuous
 62
               4
100
AcDbCircle
 10
1458.2424242424192
 20
1054.3574363992411
 30
0.0
 40
1.5
  0
CIRCLE
  5
540
100
AcDbEntity
  8
0
  6
Continuous
 62
               4
100
AcDbCircle
 10
1158.242424242419
 20
1054.3574363992411
 30
0.0
 40
1.5
  0
CIRCLE
  5
541
100
AcDbEntity
  8
0
  6
Continuous
 62
               4
100
AcDbCircle
 10
1458.2424242424192
 20
1054.3574363992411
 30
0.0
 40
1.5
  0
CIRCLE
  5
542
100
AcDbEntity
  8
0
  6
Continuous
 62
               4
100
AcDbCircle
 10
1188.7424242424179
 20
891.35743639921748
 30
0.0
 40
1.5
  0
CIRCLE
  5
543
100
AcDbEntity
  8
0
  6
Continuous
 62
               4
100
AcDbCircle
 10
1148.7424242424179
 20
891.35743639921748
 30
0.0
 40
1.5
  0
CIRCLE
  5
544
100
AcDbEntity
  8
0
  6
Continuous
 62
               4
100
AcDbCircle
 10
1083.2424242424072
 20
868.35743639922816
 30
0.0
 40
1.5
  0
CIRCLE
  5
545
100
AcDbEntity
  8
0
  6
Continuous
 62
               4
100
AcDbCircle
 10
1083.2424242424072
 20
923.35743639921975
 30
0.0
 40
1.5
  0
CIRCLE
  5
546
100
AcDbEntity
  8
0
  6
Continuous
 62
               4
100
AcDbCircle
 10
1083.2424242424072
 20
926.35743657478758
 30
0.0
 40
1.5
  0
CIRCLE
  5
547
100
AcDbEntity
  8
0
  6
Continuous
 62
               4
100
AcDbCircle
 10
1083.2424242424072
 20
951.35743314209822
 30
0.0
 40
1.5
  0
ARC
  5
548
100
AcDbEntity
  8
0
  6
Continuous
 62
               2
100
AcDbCircle
 10
1728.9187768962902
 20
1676.857436399257
 30
0.0
 40
0.5
100
AcDbArc
 50
11.768288932020623
 51
89.999999999999957
  0
ARC
  5
549
100
AcDbEntity
  8
0
  6
Continuous
 62
               2
100
AcDbCircle
 10
1733.231914452301
 20
1665.857436399257
 30
0.0
 40
0.5
100
AcDbArc
 50
191.76828893202065
 51
269.99999999999994
  0
ARC
  5
54A
100
AcDbEntity
  8
0
  6
Continuous
 62
               2
100
AcDbCircle
 10
1742.2424242424322
 20
1665.857436399257
 30
0.0
 40
0.5
100
AcDbArc
 50
270.0
 51
0.0
  0
ARC
  5
54B
100
AcDbEntity
  8
0
  6
Continuous
 62
               2
100
AcDbCircle
 10
1743.7424242424322
 20
1665.857436399257
 30
0.0
 40
0.5
100
AcDbArc
 50
180.0
 51
269.99999999999994
  0
ARC
  5
54C
100
AcDbEntity
  8
0
  6
Continuous
 62
               2
100
AcDbCircle
 10
1743.7424242424322
 20
1676.357436399257
 30
0.0
 40
0.5
100
AcDbArc
 50
89.999999999999957
 51
180.0
  0
ARC
  5
54D
100
AcDbEntity
  8
0
  6
Continuous
 62
               2
100
AcDbCircle
 10
1743.2424242424322
 20
1676.857436399257
 30
0.0
 40
0.5
100
AcDbArc
 50
89.999999999999957
 51
180.0
  0
ARC
  5
54E
100
AcDbEntity
  8
0
  6
Continuous
 62
               2
100
AcDbCircle
 10
1757.7424242424322
 20
1677.107436399257
 30
0.0
 40
0.25
100
AcDbArc
 50
269.99999999999994
 51
90.0
  0
ARC
  5
54F
100
AcDbEntity
  8
0
  6
Continuous
 62
               2
100
AcDbCircle
 10
1765.2529340325634
 20
1665.857436399257
 30
0.0
 40
0.5
100
AcDbArc
 50
269.99999999999994
 51
348.23171106797946
  0
ARC
  5
550
100
AcDbEntity
  8
0
  6
Continuous
 62
               2
100
AcDbCircle
 10
1757.9424242424307
 20
1666.1110262377483
 30
0.0
 40
0.3
100
AcDbArc
 50
209.99999999999994
 51
0.0
  0
ARC
  5
551
100
AcDbEntity
  8
0
  6
Continuous
 62
               2
100
AcDbCircle
 10
1757.7424242424322
 20
1677.3574363992625
 30
0.0
 40
0.5
100
AcDbArc
 50
0.0
 51
89.999999999999915
  0
ARC
  5
552
100
AcDbEntity
  8
0
  6
Continuous
 62
               2
100
AcDbCircle
 10
1769.7166980212032
 20
1677.3574363992648
 30
0.0
 40
0.5
100
AcDbArc
 50
89.999999999999844
 51
163.42765084593708
  0
ARC
  5
553
100
AcDbEntity
  8
0
  6
DASHED
 62
               6
100
AcDbCircle
 10
1773.7166980212035
 20
1672.8574362097156
 30
0.0
 40
2.0
100
AcDbArc
 50
90.000000000000028
 51
180.0
  0
ARC
  5
554
100
AcDbEntity
  8
0
  6
DASHED
 62
               6
100
AcDbCircle
 10
1769.7166980212032
 20
1664.5574362097154
 30
0.0
 40
2.0
100
AcDbArc
 50
269.99999999999994
 51
0.0
  0
ARC
  5
555
100
AcDbEntity
  8
0
  6
DASHED
 62
               6
100
AcDbCircle
 10
1727.9187768962902
 20
1664.5574484167487
 30
0.0
 40
2.0
100
AcDbArc
 50
179.99999134857799
 51
269.99999066533269
  0
ARC
  5
556
100
AcDbEntity
  8
0
  6
DASHED
 62
               6
100
AcDbCircle
 10
1723.91877689629
 20
1672.8574362097174
 30
0.0
 40
2.0
100
AcDbArc
 50
0.0
 51
89.999999999999957
  0
ARC
  5
557
100
AcDbEntity
  8
0
  6
Continuous
 62
               2
100
AcDbCircle
 10
1428.9187768962865
 20
1676.857436399257
 30
0.0
 40
0.5
100
AcDbArc
 50
11.768288932020623
 51
89.999999999999957
  0
ARC
  5
558
100
AcDbEntity
  8
0
  6
Continuous
 62
               2
100
AcDbCircle
 10
1433.2319144522974
 20
1665.857436399257
 30
0.0
 40
0.5
100
AcDbArc
 50
191.76828893202065
 51
269.99999999999994
  0
ARC
  5
559
100
AcDbEntity
  8
0
  6
Continuous
 62
               2
100
AcDbCircle
 10
1442.2424242424286
 20
1665.857436399257
 30
0.0
 40
0.5
100
AcDbArc
 50
270.0
 51
0.0
  0
ARC
  5
55A
100
AcDbEntity
  8
0
  6
Continuous
 62
               2
100
AcDbCircle
 10
1443.7424242424286
 20
1665.857436399257
 30
0.0
 40
0.5
100
AcDbArc
 50
180.0
 51
269.99999999999994
  0
ARC
  5
55B
100
AcDbEntity
  8
0
  6
Continuous
 62
               2
100
AcDbCircle
 10
1443.7424242424286
 20
1676.357436399257
 30
0.0
 40
0.5
100
AcDbArc
 50
89.999999999999957
 51
180.0
  0
ARC
  5
55C
100
AcDbEntity
  8
0
  6
Continuous
 62
               2
100
AcDbCircle
 10
1443.2424242424286
 20
1676.857436399257
 30
0.0
 40
0.5
100
AcDbArc
 50
89.999999999999957
 51
180.0
  0
ARC
  5
55D
100
AcDbEntity
  8
0
  6
Continuous
 62
               2
100
AcDbCircle
 10
1457.7424242424286
 20
1677.107436399257
 30
0.0
 40
0.25
100
AcDbArc
 50
269.99999999999994
 51
90.0
  0
ARC
  5
55E
100
AcDbEntity
  8
0
  6
Continuous
 62
               2
100
AcDbCircle
 10
1465.2529340325598
 20
1665.857436399257
 30
0.0
 40
0.5
100
AcDbArc
 50
269.99999999999994
 51
348.23171106797946
  0
ARC
  5
55F
100
AcDbEntity
  8
0
  6
Continuous
 62
               2
100
AcDbCircle
 10
1457.9424242424273
 20
1666.1110262377483
 30
0.0
 40
0.3
100
AcDbArc
 50
209.99999999999994
 51
0.0
  0
ARC
  5
560
100
AcDbEntity
  8
0
  6
Continuous
 62
               2
100
AcDbCircle
 10
1457.7424242424286
 20
1677.3574363992625
 30
0.0
 40
0.5
100
AcDbArc
 50
0.0
 51
89.999999999999915
  0
ARC
  5
561
100
AcDbEntity
  8
0
  6
Continuous
 62
               2
100
AcDbCircle
 10
1469.7166980211998
 20
1677.3574363992648
 30
0.0
 40
0.5
100
AcDbArc
 50
89.999999999999844
 51
163.42765084593708
  0
ARC
  5
562
100
AcDbEntity
  8
0
  6
DASHED
 62
               6
100
AcDbCircle
 10
1473.7166980212
 20
1672.8574362097156
 30
0.0
 40
2.0
100
AcDbArc
 50
90.000000000000028
 51
180.0
  0
ARC
  5
563
100
AcDbEntity
  8
0
  6
DASHED
 62
               6
100
AcDbCircle
 10
1469.7166980211998
 20
1664.5574362097154
 30
0.0
 40
2.0
100
AcDbArc
 50
269.99999999999994
 51
0.0
  0
ARC
  5
564
100
AcDbEntity
  8
0
  6
DASHED
 62
               6
100
AcDbCircle
 10
1427.9187768962865
 20
1664.5574484167487
 30
0.0
 40
2.0
100
AcDbArc
 50
179.99999134857799
 51
269.99999066533269
  0
ARC
  5
565
100
AcDbEntity
  8
0
  6
DASHED
 62
               6
100
AcDbCircle
 10
1423.9187768962865
 20
1672.8574362097174
 30
0.0
 40
2.0
100
AcDbArc
 50
0.0
 51
89.999999999999957
  0
ARC
  5
566
100
AcDbEntity
  8
0
  6
Continuous
 62
               2
100
AcDbCircle
 10
1128.9187768962863
 20
1676.857436399257
 30
0.0
 40
0.5
100
AcDbArc
 50
11.768288932020623
 51
89.999999999999957
  0
ARC
  5
567
100
AcDbEntity
  8
0
  6
Continuous
 62
               2
100
AcDbCircle
 10
1133.2319144522971
 20
1665.857436399257
 30
0.0
 40
0.5
100
AcDbArc
 50
191.76828893202065
 51
269.99999999999994
  0
ARC
  5
568
100
AcDbEntity
  8
0
  6
Continuous
 62
               2
100
AcDbCircle
 10
1142.2424242424283
 20
1665.857436399257
 30
0.0
 40
0.5
100
AcDbArc
 50
270.0
 51
0.0
  0
ARC
  5
569
100
AcDbEntity
  8
0
  6
Continuous
 62
               2
100
AcDbCircle
 10
1143.7424242424283
 20
1665.857436399257
 30
0.0
 40
0.5
100
AcDbArc
 50
180.0
 51
269.99999999999994
  0
ARC
  5
56A
100
AcDbEntity
  8
0
  6
Continuous
 62
               2
100
AcDbCircle
 10
1143.7424242424283
 20
1676.357436399257
 30
0.0
 40
0.5
100
AcDbArc
 50
89.999999999999957
 51
180.0
  0
ARC
  5
56B
100
AcDbEntity
  8
0
  6
Continuous
 62
               2
100
AcDbCircle
 10
1143.2424242424283
 20
1676.857436399257
 30
0.0
 40
0.5
100
AcDbArc
 50
89.999999999999957
 51
180.0
  0
ARC
  5
56C
100
AcDbEntity
  8
0
  6
Continuous
 62
               2
100
AcDbCircle
 10
1157.7424242424283
 20
1677.107436399257
 30
0.0
 40
0.25
100
AcDbArc
 50
269.99999999999994
 51
90.0
  0
ARC
  5
56D
100
AcDbEntity
  8
0
  6
Continuous
 62
               2
100
AcDbCircle
 10
1165.2529340325596
 20
1665.857436399257
 30
0.0
 40
0.5
100
AcDbArc
 50
269.99999999999994
 51
348.23171106797946
  0
ARC
  5
56E
100
AcDbEntity
  8
0
  6
Continuous
 62
               2
100
AcDbCircle
 10
1157.942424242427
 20
1666.1110262377483
 30
0.0
 40
0.3
100
AcDbArc
 50
209.99999999999994
 51
0.0
  0
ARC
  5
56F
100
AcDbEntity
  8
0
  6
Continuous
 62
               2
100
AcDbCircle
 10
1157.7424242424283
 20
1677.3574363992625
 30
0.0
 40
0.5
100
AcDbArc
 50
0.0
 51
89.999999999999915
  0
ARC
  5
570
100
AcDbEntity
  8
0
  6
Continuous
 62
               2
100
AcDbCircle
 10
1169.7166980211996
 20
1677.3574363992648
 30
0.0
 40
0.5
100
AcDbArc
 50
89.999999999999844
 51
163.42765084593708
  0
ARC
  5
571
100
AcDbEntity
  8
0
  6
DASHED
 62
               6
100
AcDbCircle
 10
1173.7166980211996
 20
1672.8574362097156
 30
0.0
 40
2.0
100
AcDbArc
 50
90.000000000000028
 51
180.0
  0
ARC
  5
572
100
AcDbEntity
  8
0
  6
DASHED
 62
               6
100
AcDbCircle
 10
1169.7166980211996
 20
1664.5574362097154
 30
0.0
 40
2.0
100
AcDbArc
 50
269.99999999999994
 51
0.0
  0
ARC
  5
573
100
AcDbEntity
  8
0
  6
DASHED
 62
               6
100
AcDbCircle
 10
1127.9187768962863
 20
1664.5574484167487
 30
0.0
 40
2.0
100
AcDbArc
 50
179.99999134857799
 51
269.99999066533269
  0
ARC
  5
574
100
AcDbEntity
  8
0
  6
DASHED
 62
               6
100
AcDbCircle
 10
1123.9187768962863
 20
1672.8574362097174
 30
0.0
 40
2.0
100
AcDbArc
 50
0.0
 51
89.999999999999957
  0
ARC
  5
575
100
AcDbEntity
  8
0
  6
Continuous
 62
               2
100
AcDbCircle
 10
2555.1674242424097
 20
1720.857436399212
 30
0.0
 40
1.125
100
AcDbArc
 50
180.0
 51
0.0
  0
ARC
  5
576
100
AcDbEntity
  8
0
  6
Continuous
 62
               2
100
AcDbCircle
 10
2556.7424242424099
 20
1738.2074363992119
 30
0.0
 40
2.6999999999999891
100
AcDbArc
 50
0.0
 51
180.0
  0
ARC
  5
577
100
AcDbEntity
  8
0
  6
Continuous
 62
               4
100
AcDbCircle
 10
2556.51742424241
 20
1737.9574363992119
 30
0.0
 40
1.7249999999999659
100
AcDbArc
 50
0.0
 51
180.0
  0
ARC
  5
578
100
AcDbEntity
  8
0
  6
Continuous
 62
               2
100
AcDbCircle
 10
2556.2924242424097
 20
1737.7074363992119
 30
0.0
 40
0.75
100
AcDbArc
 50
0.0
 51
180.0
  0
ARC
  5
579
100
AcDbEntity
  8
0
  6
Continuous
 62
               2
100
AcDbCircle
 10
2855.1674242424097
 20
1720.857436399212
 30
0.0
 40
1.125
100
AcDbArc
 50
180.0
 51
0.0
  0
ARC
  5
57A
100
AcDbEntity
  8
0
  6
Continuous
 62
               2
100
AcDbCircle
 10
2856.7424242424095
 20
1738.2074363992119
 30
0.0
 40
2.6999999999999891
100
AcDbArc
 50
0.0
 51
180.0
  0
ARC
  5
57B
100
AcDbEntity
  8
0
  6
Continuous
 62
               4
100
AcDbCircle
 10
2856.5174242424096
 20
1737.9574363992119
 30
0.0
 40
1.7249999999999659
100
AcDbArc
 50
0.0
 51
180.0
  0
ARC
  5
57C
100
AcDbEntity
  8
0
  6
Continuous
 62
               2
100
AcDbCircle
 10
2856.2924242424097
 20
1737.7074363992119
 30
0.0
 40
0.75
100
AcDbArc
 50
0.0
 51
180.0
  0
ARC
  5
57D
100
AcDbEntity
  8
0
  6
Continuous
 62
               2
100
AcDbCircle
 10
2255.1674242424097
 20
1720.857436399212
 30
0.0
 40
1.125
100
AcDbArc
 50
180.0
 51
0.0
  0
ARC
  5
57E
100
AcDbEntity
  8
0
  6
Continuous
 62
               2
100
AcDbCircle
 10
2256.7424242424099
 20
1738.2074363992119
 30
0.0
 40
2.6999999999999891
100
AcDbArc
 50
0.0
 51
180.0
  0
ARC
  5
57F
100
AcDbEntity
  8
0
  6
Continuous
 62
               4
100
AcDbCircle
 10
2256.51742424241
 20
1737.9574363992119
 30
0.0
 40
1.7249999999999659
100
AcDbArc
 50
0.0
 51
180.0
  0
ARC
  5
580
100
AcDbEntity
  8
0
  6
Continuous
 62
               2
100
AcDbCircle
 10
2256.2924242424097
 20
1737.7074363992119
 30
0.0
 40
0.75
100
AcDbArc
 50
0.0
 51
180.0
  0
ARC
  5
581
100
AcDbEntity
  8
0
  6
Continuous
 62
               2
100
AcDbCircle
 10
1186.7424242424286
 20
1591.857436399267
 30
0.0
 40
1.0
100
AcDbArc
 50
269.999999999995
 51
0.0
  0
ARC
  5
582
100
AcDbEntity
  8
0
  6
Continuous
 62
               2
100
AcDbCircle
 10
1189.7424242424272
 20
1591.857436399268
 30
0.0
 40
1.0
100
AcDbArc
 50
180.0
 51
269.99999999999994
  0
ARC
  5
583
100
AcDbEntity
  8
0
  6
Continuous
 62
               2
100
AcDbCircle
 10
1486.7424242424308
 20
1591.857436399268
 30
0.0
 40
1.0
100
AcDbArc
 50
269.99999999999994
 51
0.0
  0
ARC
  5
584
100
AcDbEntity
  8
0
  6
Continuous
 62
               2
100
AcDbCircle
 10
1489.7424242424295
 20
1591.8574363992707
 30
0.0
 40
1.0
100
AcDbArc
 50
180.0
 51
269.99999999999426
  0
ARC
  5
585
100
AcDbEntity
  8
0
  6
Continuous
 62
               2
100
AcDbCircle
 10
1786.742424242434
 20
1591.8574363992411
 30
0.0
 40
1.0
100
AcDbArc
 50
269.99999999999426
 51
0.0
  0
ARC
  5
586
100
AcDbEntity
  8
0
  6
Continuous
 62
               2
100
AcDbCircle
 10
1789.7424242424327
 20
1591.857436399267
 30
0.0
 40
1.0
100
AcDbArc
 50
180.0
 51
269.999999999995
  0
ARC
  5
587
100
AcDbEntity
  8
0
  6
Continuous
 62
               2
100
AcDbCircle
 10
2286.7424242424095
 20
1591.857436399242
 30
0.0
 40
1.0
100
AcDbArc
 50
269.99999999999511
 51
0.0
  0
ARC
  5
588
100
AcDbEntity
  8
0
  6
Continuous
 62
               2
100
AcDbCircle
 10
2289.7424242424081
 20
1591.857436399242
 30
0.0
 40
1.0
100
AcDbArc
 50
180.0
 51
269.999999999995
  0
ARC
  5
589
100
AcDbEntity
  8
0
  6
Continuous
 62
               2
100
AcDbCircle
 10
2586.7424242424095
 20
1591.8574363992161
 30
0.0
 40
1.0
100
AcDbArc
 50
269.999999999995
 51
0.0
  0
ARC
  5
58A
100
AcDbEntity
  8
0
  6
Continuous
 62
               2
100
AcDbCircle
 10
2589.7424242424081
 20
1591.857436399242
 30
0.0
 40
1.0
100
AcDbArc
 50
180.0
 51
269.999999999995
  0
ARC
  5
58B
100
AcDbEntity
  8
0
  6
Continuous
 62
               2
100
AcDbCircle
 10
2886.7424242424104
 20
1591.8574363992161
 30
0.0
 40
1.0
100
AcDbArc
 50
269.999999999995
 51
0.0
  0
ARC
  5
58C
100
AcDbEntity
  8
0
  6
Continuous
 62
               2
100
AcDbCircle
 10
2889.742424242409
 20
1591.857436399242
 30
0.0
 40
1.0
100
AcDbArc
 50
180.0
 51
269.999999999995
  0
ARC
  5
58D
100
AcDbEntity
  8
0
  6
Continuous
 62
               2
100
AcDbCircle
 10
2555.1674242424006
 20
998.35743639916029
 30
0.0
 40
1.125
100
AcDbArc
 50
180.0
 51
0.0
  0
ARC
  5
58E
100
AcDbEntity
  8
0
  6
Continuous
 62
               2
100
AcDbCircle
 10
2556.7424242424004
 20
1015.7074363991603
 30
0.0
 40
2.6999999999999891
100
AcDbArc
 50
0.0
 51
180.0
  0
ARC
  5
58F
100
AcDbEntity
  8
0
  6
Continuous
 62
               4
100
AcDbCircle
 10
2556.5174242424005
 20
1015.4574363991603
 30
0.0
 40
1.7249999999999659
100
AcDbArc
 50
0.0
 51
180.0
  0
ARC
  5
590
100
AcDbEntity
  8
0
  6
Continuous
 62
               2
100
AcDbCircle
 10
2556.2924242424006
 20
1015.2074363991603
 30
0.0
 40
0.75
100
AcDbArc
 50
0.0
 51
180.0
  0
ARC
  5
591
100
AcDbEntity
  8
0
  6
Continuous
 62
               2
100
AcDbCircle
 10
2855.1674242424001
 20
998.35743639916029
 30
0.0
 40
1.125
100
AcDbArc
 50
180.0
 51
0.0
  0
ARC
  5
592
100
AcDbEntity
  8
0
  6
Continuous
 62
               2
100
AcDbCircle
 10
2856.7424242424004
 20
1015.7074363991603
 30
0.0
 40
2.6999999999999891
100
AcDbArc
 50
0.0
 51
180.0
  0
ARC
  5
593
100
AcDbEntity
  8
0
  6
Continuous
 62
               4
100
AcDbCircle
 10
2856.5174242424005
 20
1015.4574363991603
 30
0.0
 40
1.7249999999999659
100
AcDbArc
 50
0.0
 51
180.0
  0
ARC
  5
594
100
AcDbEntity
  8
0
  6
Continuous
 62
               2
100
AcDbCircle
 10
2856.2924242424001
 20
1015.2074363991603
 30
0.0
 40
0.75
100
AcDbArc
 50
0.0
 51
180.0
  0
ARC
  5
595
100
AcDbEntity
  8
0
  6
Continuous
 62
               2
100
AcDbCircle
 10
2255.1674242424006
 20
998.35743639916029
 30
0.0
 40
1.125
100
AcDbArc
 50
180.0
 51
0.0
  0
ARC
  5
596
100
AcDbEntity
  8
0
  6
Continuous
 62
               2
100
AcDbCircle
 10
2256.7424242424004
 20
1015.7074363991603
 30
0.0
 40
2.6999999999999891
100
AcDbArc
 50
0.0
 51
180.0
  0
ARC
  5
597
100
AcDbEntity
  8
0
  6
Continuous
 62
               4
100
AcDbCircle
 10
2256.5174242424005
 20
1015.4574363991603
 30
0.0
 40
1.7249999999999659
100
AcDbArc
 50
0.0
 51
180.0
  0
ARC
  5
598
100
AcDbEntity
  8
0
  6
Continuous
 62
               2
100
AcDbCircle
 10
2256.2924242424006
 20
1015.2074363991603
 30
0.0
 40
0.75
100
AcDbArc
 50
0.0
 51
180.0
  0
ARC
  5
599
100
AcDbEntity
  8
0
  6
Continuous
 62
               2
100
AcDbCircle
 10
1186.742424242419
 20
869.35743639921543
 30
0.0
 40
1.0
100
AcDbArc
 50
269.999999999995
 51
0.0
  0
ARC
  5
59A
100
AcDbEntity
  8
0
  6
Continuous
 62
               2
100
AcDbCircle
 10
1189.7424242424177
 20
869.35743639921611
 30
0.0
 40
1.0
100
AcDbArc
 50
180.0
 51
269.99999999999994
  0
ARC
  5
59B
100
AcDbEntity
  8
0
  6
Continuous
 62
               2
100
AcDbCircle
 10
1486.7424242424213
 20
869.35743639921611
 30
0.0
 40
1.0
100
AcDbArc
 50
269.99999999999994
 51
0.0
  0
ARC
  5
59C
100
AcDbEntity
  8
0
  6
Continuous
 62
               2
100
AcDbCircle
 10
1489.7424242424199
 20
869.35743639921895
 30
0.0
 40
1.0
100
AcDbArc
 50
180.0
 51
269.99999999999426
  0
ARC
  5
59D
100
AcDbEntity
  8
0
  6
Continuous
 62
               2
100
AcDbCircle
 10
1786.7424242424247
 20
869.35743639918928
 30
0.0
 40
1.0
100
AcDbArc
 50
269.99999999999426
 51
0.0
  0
ARC
  5
59E
100
AcDbEntity
  8
0
  6
Continuous
 62
               2
100
AcDbCircle
 10
1789.7424242424233
 20
869.3574363992152
 30
0.0
 40
1.0
100
AcDbArc
 50
180.0
 51
269.999999999995
  0
ARC
  5
59F
100
AcDbEntity
  8
0
  6
Continuous
 62
               2
100
AcDbCircle
 10
2286.7424242424004
 20
869.35743639919019
 30
0.0
 40
1.0
100
AcDbArc
 50
269.99999999999511
 51
0.0
  0
ARC
  5
5A0
100
AcDbEntity
  8
0
  6
Continuous
 62
               2
100
AcDbCircle
 10
2289.742424242399
 20
869.35743639918996
 30
0.0
 40
1.0
100
AcDbArc
 50
180.0
 51
269.999999999995
  0
ARC
  5
5A1
100
AcDbEntity
  8
0
  6
Continuous
 62
               2
100
AcDbCircle
 10
2586.7424242424004
 20
869.35743639916427
 30
0.0
 40
1.0
100
AcDbArc
 50
269.999999999995
 51
0.0
  0
ARC
  5
5A2
100
AcDbEntity
  8
0
  6
Continuous
 62
               2
100
AcDbCircle
 10
2589.742424242399
 20
869.35743639918996
 30
0.0
 40
1.0
100
AcDbArc
 50
180.0
 51
269.999999999995
  0
ARC
  5
5A3
100
AcDbEntity
  8
0
  6
Continuous
 62
               2
100
AcDbCircle
 10
2886.7424242424008
 20
869.35743639916427
 30
0.0
 40
1.0
100
AcDbArc
 50
269.999999999995
 51
0.0
  0
ARC
  5
5A4
100
AcDbEntity
  8
0
  6
Continuous
 62
               2
100
AcDbCircle
 10
2889.7424242423995
 20
869.35743639918996
 30
0.0
 40
1.0
100
AcDbArc
 50
180.0
 51
269.999999999995
  0
ARC
  5
5A5
100
AcDbEntity
  8
0
  6
Continuous
 62
               2
100
AcDbCircle
 10
1728.9187768962806
 20
954.35743639920531
 30
0.0
 40
0.5
100
AcDbArc
 50
11.768288932020623
 51
89.999999999999957
  0
ARC
  5
5A6
100
AcDbEntity
  8
0
  6
Continuous
 62
               2
100
AcDbCircle
 10
1733.2319144522917
 20
943.35743639920508
 30
0.0
 40
0.5
100
AcDbArc
 50
191.76828893202065
 51
269.99999999999994
  0
ARC
  5
5A7
100
AcDbEntity
  8
0
  6
Continuous
 62
               2
100
AcDbCircle
 10
1742.2424242424229
 20
943.35743639920508
 30
0.0
 40
0.5
100
AcDbArc
 50
270.0
 51
0.0
  0
ARC
  5
5A8
100
AcDbEntity
  8
0
  6
Continuous
 62
               2
100
AcDbCircle
 10
1743.7424242424229
 20
943.3574363992052
 30
0.0
 40
0.5
100
AcDbArc
 50
180.0
 51
269.99999999999994
  0
ARC
  5
5A9
100
AcDbEntity
  8
0
  6
Continuous
 62
               2
100
AcDbCircle
 10
1743.7424242424229
 20
953.85743639920531
 30
0.0
 40
0.5
100
AcDbArc
 50
89.999999999999957
 51
180.0
  0
ARC
  5
5AA
100
AcDbEntity
  8
0
  6
Continuous
 62
               2
100
AcDbCircle
 10
1743.2424242424229
 20
954.35743639920531
 30
0.0
 40
0.5
100
AcDbArc
 50
89.999999999999957
 51
180.0
  0
ARC
  5
5AB
100
AcDbEntity
  8
0
  6
Continuous
 62
               2
100
AcDbCircle
 10
1757.7424242424229
 20
954.60743639920531
 30
0.0
 40
0.25
100
AcDbArc
 50
269.99999999999994
 51
90.0
  0
ARC
  5
5AC
100
AcDbEntity
  8
0
  6
Continuous
 62
               2
100
AcDbCircle
 10
1765.2529340325541
 20
943.35743639920508
 30
0.0
 40
0.5
100
AcDbArc
 50
269.99999999999994
 51
348.23171106797946
  0
ARC
  5
5AD
100
AcDbEntity
  8
0
  6
Continuous
 62
               2
100
AcDbCircle
 10
1757.9424242424216
 20
943.61102623769659
 30
0.0
 40
0.3
100
AcDbArc
 50
209.99999999999994
 51
0.0
  0
ARC
  5
5AE
100
AcDbEntity
  8
0
  6
Continuous
 62
               2
100
AcDbCircle
 10
1757.7424242424229
 20
954.85743639921054
 30
0.0
 40
0.5
100
AcDbArc
 50
0.0
 51
89.999999999999915
  0
ARC
  5
5AF
100
AcDbEntity
  8
0
  6
Continuous
 62
               2
100
AcDbCircle
 10
1769.7166980211941
 20
954.85743639921293
 30
0.0
 40
0.5
100
AcDbArc
 50
89.999999999999844
 51
163.42765084593708
  0
ARC
  5
5B0
100
AcDbEntity
  8
0
  6
DASHED
 62
               6
100
AcDbCircle
 10
1773.7166980211941
 20
950.35743620966377
 30
0.0
 40
2.0
100
AcDbArc
 50
90.000000000000028
 51
180.0
  0
ARC
  5
5B1
100
AcDbEntity
  8
0
  6
DASHED
 62
               6
100
AcDbCircle
 10
1769.7166980211941
 20
942.05743620966359
 30
0.0
 40
2.0
100
AcDbArc
 50
269.99999999999994
 51
0.0
  0
ARC
  5
5B2
100
AcDbEntity
  8
0
  6
DASHED
 62
               6
100
AcDbCircle
 10
1727.9187768962806
 20
942.05744841669673
 30
0.0
 40
2.0
100
AcDbArc
 50
179.99999134857799
 51
269.99999066533269
  0
ARC
  5
5B3
100
AcDbEntity
  8
0
  6
DASHED
 62
               6
100
AcDbCircle
 10
1723.9187768962806
 20
950.35743620966559
 30
0.0
 40
2.0
100
AcDbArc
 50
0.0
 51
89.999999999999957
  0
ARC
  5
5B4
100
AcDbEntity
  8
0
  6
Continuous
 62
               2
100
AcDbCircle
 10
1428.918776896277
 20
954.35743639920531
 30
0.0
 40
0.5
100
AcDbArc
 50
11.768288932020623
 51
89.999999999999957
  0
ARC
  5
5B5
100
AcDbEntity
  8
0
  6
Continuous
 62
               2
100
AcDbCircle
 10
1433.231914452288
 20
943.35743639920508
 30
0.0
 40
0.5
100
AcDbArc
 50
191.76828893202065
 51
269.99999999999994
  0
ARC
  5
5B6
100
AcDbEntity
  8
0
  6
Continuous
 62
               2
100
AcDbCircle
 10
1442.2424242424192
 20
943.35743639920508
 30
0.0
 40
0.5
100
AcDbArc
 50
270.0
 51
0.0
  0
ARC
  5
5B7
100
AcDbEntity
  8
0
  6
Continuous
 62
               2
100
AcDbCircle
 10
1443.7424242424192
 20
943.3574363992052
 30
0.0
 40
0.5
100
AcDbArc
 50
180.0
 51
269.99999999999994
  0
ARC
  5
5B8
100
AcDbEntity
  8
0
  6
Continuous
 62
               2
100
AcDbCircle
 10
1443.7424242424192
 20
953.85743639920531
 30
0.0
 40
0.5
100
AcDbArc
 50
89.999999999999957
 51
180.0
  0
ARC
  5
5B9
100
AcDbEntity
  8
0
  6
Continuous
 62
               2
100
AcDbCircle
 10
1443.2424242424195
 20
954.35743639920531
 30
0.0
 40
0.5
100
AcDbArc
 50
89.999999999999957
 51
180.0
  0
ARC
  5
5BA
100
AcDbEntity
  8
0
  6
Continuous
 62
               2
100
AcDbCircle
 10
1457.7424242424195
 20
954.60743639920531
 30
0.0
 40
0.25
100
AcDbArc
 50
269.99999999999994
 51
90.0
  0
ARC
  5
5BB
100
AcDbEntity
  8
0
  6
Continuous
 62
               2
100
AcDbCircle
 10
1465.2529340325505
 20
943.35743639920508
 30
0.0
 40
0.5
100
AcDbArc
 50
269.99999999999994
 51
348.23171106797946
  0
ARC
  5
5BC
100
AcDbEntity
  8
0
  6
Continuous
 62
               2
100
AcDbCircle
 10
1457.9424242424179
 20
943.61102623769659
 30
0.0
 40
0.3
100
AcDbArc
 50
209.99999999999994
 51
0.0
  0
ARC
  5
5BD
100
AcDbEntity
  8
0
  6
Continuous
 62
               2
100
AcDbCircle
 10
1457.7424242424192
 20
954.85743639921054
 30
0.0
 40
0.5
100
AcDbArc
 50
0.0
 51
89.999999999999915
  0
ARC
  5
5BE
100
AcDbEntity
  8
0
  6
Continuous
 62
               2
100
AcDbCircle
 10
1469.7166980211905
 20
954.85743639921293
 30
0.0
 40
0.5
100
AcDbArc
 50
89.999999999999844
 51
163.42765084593708
  0
ARC
  5
5BF
100
AcDbEntity
  8
0
  6
DASHED
 62
               6
100
AcDbCircle
 10
1473.7166980211905
 20
950.35743620966377
 30
0.0
 40
2.0
100
AcDbArc
 50
90.000000000000028
 51
180.0
  0
ARC
  5
5C0
100
AcDbEntity
  8
0
  6
DASHED
 62
               6
100
AcDbCircle
 10
1469.7166980211905
 20
942.05743620966359
 30
0.0
 40
2.0
100
AcDbArc
 50
269.99999999999994
 51
0.0
  0
ARC
  5
5C1
100
AcDbEntity
  8
0
  6
DASHED
 62
               6
100
AcDbCircle
 10
1427.918776896277
 20
942.05744841669673
 30
0.0
 40
2.0
100
AcDbArc
 50
179.99999134857799
 51
269.99999066533269
  0
ARC
  5
5C2
100
AcDbEntity
  8
0
  6
DASHED
 62
               6
100
AcDbCircle
 10
1423.918776896277
 20
950.35743620966559
 30
0.0
 40
2.0
100
AcDbArc
 50
0.0
 51
89.999999999999957
  0
ARC
  5
5C3
100
AcDbEntity
  8
0
  6
Continuous
 62
               2
100
AcDbCircle
 10
1128.918776896277
 20
954.35743639920531
 30
0.0
 40
0.5
100
AcDbArc
 50
11.768288932020623
 51
89.999999999999957
  0
ARC
  5
5C4
100
AcDbEntity
  8
0
  6
Continuous
 62
               2
100
AcDbCircle
 10
1133.2319144522878
 20
943.35743639920508
 30
0.0
 40
0.5
100
AcDbArc
 50
191.76828893202065
 51
269.99999999999994
  0
ARC
  5
5C5
100
AcDbEntity
  8
0
  6
Continuous
 62
               2
100
AcDbCircle
 10
1142.242424242419
 20
943.35743639920508
 30
0.0
 40
0.5
100
AcDbArc
 50
270.0
 51
0.0
  0
ARC
  5
5C6
100
AcDbEntity
  8
0
  6
Continuous
 62
               2
100
AcDbCircle
 10
1143.742424242419
 20
943.3574363992052
 30
0.0
 40
0.5
100
AcDbArc
 50
180.0
 51
269.99999999999994
  0
ARC
  5
5C7
100
AcDbEntity
  8
0
  6
Continuous
 62
               2
100
AcDbCircle
 10
1143.742424242419
 20
953.85743639920531
 30
0.0
 40
0.5
100
AcDbArc
 50
89.999999999999957
 51
180.0
  0
ARC
  5
5C8
100
AcDbEntity
  8
0
  6
Continuous
 62
               2
100
AcDbCircle
 10
1143.242424242419
 20
954.35743639920531
 30
0.0
 40
0.5
100
AcDbArc
 50
89.999999999999957
 51
180.0
  0
ARC
  5
5C9
100
AcDbEntity
  8
0
  6
Continuous
 62
               2
100
AcDbCircle
 10
1157.742424242419
 20
954.60743639920531
 30
0.0
 40
0.25
100
AcDbArc
 50
269.99999999999994
 51
90.0
  0
ARC
  5
5CA
100
AcDbEntity
  8
0
  6
Continuous
 62
               2
100
AcDbCircle
 10
1165.2529340325502
 20
943.35743639920508
 30
0.0
 40
0.5
100
AcDbArc
 50
269.99999999999994
 51
348.23171106797946
  0
ARC
  5
5CB
100
AcDbEntity
  8
0
  6
Continuous
 62
               2
100
AcDbCircle
 10
1157.9424242424175
 20
943.61102623769659
 30
0.0
 40
0.3
100
AcDbArc
 50
209.99999999999994
 51
0.0
  0
ARC
  5
5CC
100
AcDbEntity
  8
0
  6
Continuous
 62
               2
100
AcDbCircle
 10
1157.742424242419
 20
954.85743639921054
 30
0.0
 40
0.5
100
AcDbArc
 50
0.0
 51
89.999999999999915
  0
ARC
  5
5CD
100
AcDbEntity
  8
0
  6
Continuous
 62
               2
100
AcDbCircle
 10
1169.7166980211903
 20
954.85743639921293
 30
0.0
 40
0.5
100
AcDbArc
 50
89.999999999999844
 51
163.42765084593708
  0
ARC
  5
5CE
100
AcDbEntity
  8
0
  6
DASHED
 62
               6
100
AcDbCircle
 10
1173.7166980211903
 20
950.35743620966377
 30
0.0
 40
2.0
100
AcDbArc
 50
90.000000000000028
 51
180.0
  0
ARC
  5
5CF
100
AcDbEntity
  8
0
  6
DASHED
 62
               6
100
AcDbCircle
 10
1169.7166980211903
 20
942.05743620966359
 30
0.0
 40
2.0
100
AcDbArc
 50
269.99999999999994
 51
0.0
  0
ARC
  5
5D0
100
AcDbEntity
  8
0
  6
DASHED
 62
               6
100
AcDbCircle
 10
1127.918776896277
 20
942.05744841669673
 30
0.0
 40
2.0
100
AcDbArc
 50
179.99999134857799
 51
269.99999066533269
  0
ARC
  5
5D1
100
AcDbEntity
  8
0
  6
DASHED
 62
               6
100
AcDbCircle
 10
1123.918776896277
 20
950.35743620966559
 30
0.0
 40
2.0
100
AcDbArc
 50
0.0
 51
89.999999999999957
  0
TEXT
  5
5D2
100
AcDbEntity
  8
0
 62
               7
100
AcDbText
 10
1836.2753514720653
 20
1778.3631991425887
 30
0.0
 40
12.000000000000012
  1
@300
 41
0.7695
  7
FontTableH_0
 72
               5
 11
1860.2753514720653
 21
1778.3631991425887
 31
0.0
100
AcDbText
  0
TEXT
  5
5D3
100
AcDbEntity
  8
0
 62
               7
100
AcDbText
 10
1086.2480992747996
 20
1778.3602694550887
 30
0.0
 40
12.000000000000012
  1
@300
 50
359.99998269715599
 41
0.7695
  7
FontTableH_0
 72
               5
 11
1110.2480992747985
 21
1778.3602622072904
 31
0.0
100
AcDbText
  0
TEXT
  5
5D4
100
AcDbEntity
  8
0
 62
               7
100
AcDbText
 10
1629.2460545970653
 20
1505.8570956269637
 30
0.0
 40
12.000000000000012
  1
300
 41
0.7695
  7
FontTableH_0
 72
               5
 11
1647.2460545970653
 21
1505.8570956269637
 31
0.0
100
AcDbText
  0
TEXT
  5
5D5
100
AcDbEntity
  8
0
 62
               7
100
AcDbText
 10
1851.2589940501903
 20
1505.8600253144637
 30
0.0
 40
12.000000000000012
  1
@300
 50
359.99998269715599
 41
0.7695
  7
FontTableH_0
 72
               5
 11
1875.2589940501891
 21
1505.8600180666654
 31
0.0
100
AcDbText
  0
TEXT
  5
5D6
100
AcDbEntity
  8
0
 62
               7
100
AcDbText
 10
2421.1975926830028
 20
1901.8476962129012
 30
0.0
 40
12.000000000000012
  1
ハ－パ－ズストロングル－フ300：カラ－ガルバリウム鋼板 t0.4
 41
0.7695
  7
FontTableH_0
 72
               5
 11
2769.1975926830032
 21
1901.8476962129012
 31
0.0
100
AcDbText
  0
TEXT
  5
5D7
100
AcDbEntity
  8
0
 62
               7
100
AcDbText
 10
2421.1975926830028
 20
1886.8476962129012
 30
0.0
 40
12.000000000000012
  1
ゴムアスファルトル－フィング t1.0
 41
0.7695
  7
FontTableH_0
 72
               5
 11
2619.1975926830032
 21
1886.8476962129012
 31
0.0
100
AcDbText
  0
TEXT
  5
5D8
100
AcDbEntity
  8
0
 62
               7
100
AcDbText
 10
2421.1975926830028
 20
1871.8483065644637
 30
0.0
 40
12.000000000000012
  1
木毛セメント板 t25
 41
0.7695
  7
FontTableH_0
 72
               5
 11
2529.1975926830028
 21
1871.8483065644637
 31
0.0
100
AcDbText
  0
TEXT
  5
5D9
100
AcDbEntity
  8
0
 62
               7
100
AcDbText
 10
2204.4966649486278
 20
1663.3563632050887
 30
0.0
 40
12.000000000000012
  1
25
 50
90.000002504478189
 41
0.7695
  7
FontTableH_0
 72
               5
 11
2204.4966644240913
 21
1675.3563632050887
 31
0.0
100
AcDbText
  0
TEXT
  5
5DA
100
AcDbEntity
  8
0
 62
               7
100
AcDbText
 10
2204.4966649486278
 20
1612.3563632050887
 30
0.0
 40
12.000000000000012
  1
55
 50
90.000002504478189
 41
0.7695
  7
FontTableH_0
 72
               5
 11
2204.4966644240913
 21
1624.3563632050887
 31
0.0
100
AcDbText
  0
TEXT
  5
5DB
100
AcDbEntity
  8
0
 62
               7
100
AcDbText
 10
2429.2466649486278
 20
1505.8601473847762
 30
0.0
 40
12.000000000000012
  1
300
 41
0.7695
  7
FontTableH_0
 72
               5
 11
2447.2466649486278
 21
1505.8601473847762
 31
0.0
100
AcDbText
  0
TEXT
  5
5DC
100
AcDbEntity
  8
0
 62
               7
100
AcDbText
 10
2729.2466649486278
 20
1505.8601473847762
 30
0.0
 40
12.000000000000012
  1
300
 41
0.7695
  7
FontTableH_0
 72
               5
 11
2747.2466649486278
 21
1505.8601473847762
 31
0.0
100
AcDbText
  0
TEXT
  5
5DD
100
AcDbEntity
  8
0
 62
               7
100
AcDbText
 10
2951.2505711986278
 20
1505.8601473847762
 30
0.0
 40
12.000000000000012
  1
@300
 41
0.7695
  7
FontTableH_0
 72
               5
 11
2975.2505711986278
 21
1505.8601473847762
 31
0.0
100
AcDbText
  0
TEXT
  5
5DE
100
AcDbEntity
  8
0
 62
               7
100
AcDbText
 10
2201.2464208080028
 20
1505.8601473847762
 30
0.0
 40
12.000000000000012
  1
@300
 50
359.99998269715599
 41
0.7695
  7
FontTableH_0
 72
               5
 11
2225.2464208080014
 21
1505.8601401369779
 31
0.0
100
AcDbText
  0
TEXT
  5
5DF
100
AcDbEntity
  8
0
 62
               7
100
AcDbText
 10
2421.1975926830028
 20
1826.8531893769637
 30
0.0
 40
12.000000000000012
  1
ハ－パ－ズストロングル－フ300：ガルバリウム鋼板 t1.0
 41
0.7695
  7
FontTableH_0
 72
               5
 11
2733.1975926830032
 21
1826.8531893769637
 31
0.0
100
AcDbText
  0
TEXT
  5
5E0
100
AcDbEntity
  8
0
 62
               7
100
AcDbText
 10
2421.1975926830028
 20
1841.8541659394637
 30
0.0
 40
12.000000000000012
  1
グラスウ－ル t50,64kg/㎡
 41
0.7695
  7
FontTableH_0
 72
               5
 11
2565.1975926830032
 21
1841.8541659394637
 31
0.0
100
AcDbText
  0
TEXT
  5
5E1
100
AcDbEntity
  8
0
 62
               7
100
AcDbText
 10
2421.1975926830028
 20
1856.8524569550887
 30
0.0
 40
12.000000000000012
  1
金属垂木：ガルバリウム鋼板 t1.0,@300
 41
0.7695
  7
FontTableH_0
 72
               5
 11
2637.1975926830028
 21
1856.8524569550887
 31
0.0
100
AcDbText
  0
TEXT
  5
5E2
100
AcDbEntity
  8
0
 62
               7
100
AcDbText
 10
2204.4992284251903
 20
1645.3575839082137
 30
0.0
 40
12.000000000000012
  1
10
 50
90.000002504478189
 41
0.7695
  7
FontTableH_0
 72
               5
 11
2204.4992279006538
 21
1657.3575839082137
 31
0.0
100
AcDbText
  0
TEXT
  5
5E3
100
AcDbEntity
  8
0
 62
               7
100
AcDbText
 10
1101.2514562083934
 20
1505.8570956269637
 30
0.0
 40
12.000000000000012
  1
@300
 41
0.7695
  7
FontTableH_0
 72
               5
 11
1125.2514562083934
 21
1505.8570956269637
 31
0.0
100
AcDbText
  0
TEXT
  5
5E4
100
AcDbEntity
  8
0
 62
               7
100
AcDbText
 10
1329.2460545970653
 20
1505.8570956269637
 30
0.0
 40
12.000000000000012
  1
300
 41
0.7695
  7
FontTableH_0
 72
               5
 11
1347.2460545970653
 21
1505.8570956269637
 31
0.0
100
AcDbText
  0
TEXT
  5
5E5
100
AcDbEntity
  8
0
 62
               7
100
AcDbText
 10
1229.920065827534
 20
1901.8492831269637
 30
0.0
 40
12.000000000000012
  1
プロムナ－ル－フジャストワン：カラ－ガルバリウム鋼板 t0.4
 41
0.7695
  7
FontTableH_0
 72
               5
 11
1571.9200658275345
 21
1901.8492831269637
 31
0.0
100
AcDbText
  0
TEXT
  5
5E6
100
AcDbEntity
  8
0
 62
               7
100
AcDbText
 10
1229.9201878978465
 20
1886.8492831269637
 30
0.0
 40
12.000000000000012
  1
ゴムアスファルトル－フィング t1.0
 41
0.7695
  7
FontTableH_0
 72
               5
 11
1427.9201878978467
 21
1886.8492831269637
 31
0.0
100
AcDbText
  0
TEXT
  5
5E7
100
AcDbEntity
  8
0
 62
               7
100
AcDbText
 10
1229.9201878978465
 20
1871.8498934785262
 30
0.0
 40
12.000000000000012
  1
木毛セメント板 t25
 41
0.7695
  7
FontTableH_0
 72
               5
 11
1337.9201878978465
 21
1871.8498934785262
 31
0.0
100
AcDbText
  0
TEXT
  5
5E8
100
AcDbEntity
  8
0
 62
               7
100
AcDbText
 10
1229.9201878978465
 20
1826.8553866425887
 30
0.0
 40
12.000000000000012
  1
ハ－パ－ズストロングル－フ300：ガルバリウム鋼板 t1.0
 41
0.7695
  7
FontTableH_0
 72
               5
 11
1541.9201878978467
 21
1826.8553866425887
 31
0.0
100
AcDbText
  0
TEXT
  5
5E9
100
AcDbEntity
  8
0
 62
               7
100
AcDbText
 10
1229.9201878978465
 20
1841.8561190644637
 30
0.0
 40
12.000000000000012
  1
グラスウ－ル t50,64kg/㎡
 41
0.7695
  7
FontTableH_0
 72
               5
 11
1373.9201878978465
 21
1841.8561190644637
 31
0.0
100
AcDbText
  0
TEXT
  5
5EA
100
AcDbEntity
  8
0
 62
               7
100
AcDbText
 10
1229.9201878978465
 20
1856.8540438691512
 30
0.0
 40
12.000000000000012
  1
帯板：ガルバリウム鋼板 t1.0,@300
 41
0.7695
  7
FontTableH_0
 72
               5
 11
1421.9201878978467
 21
1856.8540438691512
 31
0.0
100
AcDbText
  0
TEXT
  5
5EB
100
AcDbEntity
  8
0
 62
               7
100
AcDbText
 10
1431.2486180736278
 20
1402.8616122285262
 30
0.0
 40
12.000000000000012
  1
ａ断面詳細図：S=1/3
 41
0.7695
  7
FontTableH_0
 72
               5
 11
1545.248618073628
 21
1402.8616122285262
 31
0.0
100
AcDbText
  0
TEXT
  5
5EC
100
AcDbEntity
  8
0
 62
               7
100
AcDbText
 10
2531.2486180736278
 20
1402.8616122285262
 30
0.0
 40
12.000000000000012
  1
ｂ断面詳細図：S=1/3
 41
0.7695
  7
FontTableH_0
 72
               5
 11
2645.2486180736278
 21
1402.8616122285262
 31
0.0
100
AcDbText
  0
TEXT
  5
5ED
100
AcDbEntity
  8
0
 62
               7
100
AcDbText
 10
1599.247946686909
 20
1778.3613680879012
 30
0.0
 40
12.000000000000012
  1
300
 41
0.7695
  7
FontTableH_0
 72
               5
 11
1617.247946686909
 21
1778.3613680879012
 31
0.0
100
AcDbText
  0
TEXT
  5
5EE
100
AcDbEntity
  8
0
 62
               7
100
AcDbText
 10
1299.2478246165965
 20
1778.3613680879012
 30
0.0
 40
12.000000000000012
  1
300
 41
0.7695
  7
FontTableH_0
 72
               5
 11
1317.2478246165965
 21
1778.3613680879012
 31
0.0
100
AcDbText
  0
TEXT
  5
5EF
100
AcDbEntity
  8
0
 62
               7
100
AcDbText
 10
2399.2458104564403
 20
1778.3595370332137
 30
0.0
 40
12.000000000000012
  1
300
 41
0.7695
  7
FontTableH_0
 72
               5
 11
2417.2458104564403
 21
1778.3595370332137
 31
0.0
100
AcDbText
  0
TEXT
  5
5F0
100
AcDbEntity
  8
0
 62
               7
100
AcDbText
 10
2699.2458104564403
 20
1778.3595370332137
 30
0.0
 40
12.000000000000012
  1
300
 41
0.7695
  7
FontTableH_0
 72
               5
 11
2717.2458104564403
 21
1778.3595370332137
 31
0.0
100
AcDbText
  0
TEXT
  5
5F1
100
AcDbEntity
  8
0
 62
               7
100
AcDbText
 10
2936.2732762767528
 20
1778.3607577363387
 30
0.0
 40
12.000000000000012
  1
@300
 41
0.7695
  7
FontTableH_0
 72
               5
 11
2960.2732762767528
 21
1778.3607577363387
 31
0.0
100
AcDbText
  0
TEXT
  5
5F2
100
AcDbEntity
  8
0
 62
               7
100
AcDbText
 10
2186.2467870189403
 20
1778.3602694550887
 30
0.0
 40
12.000000000000012
  1
@300
 41
0.7695
  7
FontTableH_0
 72
               5
 11
2210.2467870189403
 21
1778.3602694550887
 31
0.0
100
AcDbText
  0
TEXT
  5
5F3
100
AcDbEntity
  8
0
 62
               7
100
AcDbText
 10
2204.4958104564403
 20
1707.3845614472762
 30
0.0
 40
12.000000000000012
  1
55
 50
90.000002504478189
 41
0.7695
  7
FontTableH_0
 72
               5
 11
2204.4958099319038
 21
1719.3845614472762
 31
0.0
100
AcDbText
  0
TEXT
  5
5F4
100
AcDbEntity
  8
0
 62
               7
100
AcDbText
 10
2469.7057713939403
 20
1735.6099032441512
 30
0.0
 40
12.000000000000012
  1
通し吊り子
 41
0.7695
  7
FontTableH_0
 72
               5
 11
2529.7057713939403
 21
1735.6099032441512
 31
0.0
100
AcDbText
  0
TEXT
  5
5F5
100
AcDbEntity
  8
0
 62
               7
100
AcDbText
 10
2609.4318456126903
 20
1734.3151034394637
 30
0.0
 40
12.000000000000012
  1
ビス：φ5X60,@300
 41
0.7695
  7
FontTableH_0
 72
               5
 11
2711.4318456126903
 21
1734.3151034394637
 31
0.0
100
AcDbText
  0
TEXT
  5
5F6
100
AcDbEntity
  8
0
 62
               7
100
AcDbText
 10
2841.7459325267528
 20
1415.1092928925887
 30
0.0
 40
12.000000000000012
  1
55
 50
90.000002504478189
 41
0.7695
  7
FontTableH_0
 72
               5
 11
2841.7459320022163
 21
1427.1092928925887
 31
0.0
100
AcDbText
  0
TEXT
  5
5F7
100
AcDbEntity
  8
0
 62
               7
100
AcDbText
 10
2858.2456883861278
 20
1355.8602694550887
 30
0.0
 40
12.000000000000012
  1
通し吊り子
 41
0.7695
  7
FontTableH_0
 72
               5
 11
2918.2456883861278
 21
1355.8602694550887
 31
0.0
100
AcDbText
  0
TEXT
  5
5F8
100
AcDbEntity
  8
0
 62
               7
100
AcDbText
 10
1749.0042333080028
 20
1727.4717196504012
 30
0.0
 40
12.000000000000012
  1
ビス：φ5X60,@300
 41
0.7695
  7
FontTableH_0
 72
               5
 11
1851.0042333080028
 21
1727.4717196504012
 31
0.0
100
AcDbText
  0
TEXT
  5
5F9
100
AcDbEntity
  8
0
 62
               7
100
AcDbText
 10
1162.7435826732371
 20
1615.3590487519637
 30
0.0
 40
12.000000000000012
  1
40
 41
0.7695
  7
FontTableH_0
 72
               5
 11
1174.7435826732371
 21
1615.3590487519637
 31
0.0
100
AcDbText
  0
TEXT
  5
5FA
100
AcDbEntity
  8
0
 62
               7
100
AcDbText
 10
1081.7435826732371
 20
1612.3590487519637
 30
0.0
 40
12.000000000000012
  1
55
 50
90.000002504478189
 41
0.7695
  7
FontTableH_0
 72
               5
 11
1081.7435821487004
 21
1624.3590487519637
 31
0.0
100
AcDbText
  0
TEXT
  5
5FB
100
AcDbEntity
  8
0
 62
               7
100
AcDbText
 10
1081.7435826732371
 20
1655.3590487519637
 30
0.0
 40
12.000000000000012
  1
25
 50
90.000002504478189
 41
0.7695
  7
FontTableH_0
 72
               5
 11
1081.7435821487004
 21
1667.3590487519637
 31
0.0
100
AcDbText
  0
TEXT
  5
5FC
100
AcDbEntity
  8
0
 62
               7
100
AcDbText
 10
1629.2453221751903
 20
783.35691252149479
 30
0.0
 40
12.000000000000012
  1
300
 41
0.7695
  7
FontTableH_0
 72
               5
 11
1647.2453221751903
 21
783.35691252149479
 31
0.0
100
AcDbText
  0
TEXT
  5
5FD
100
AcDbEntity
  8
0
 62
               7
100
AcDbText
 10
1851.2585057689403
 20
783.35984220899479
 30
0.0
 40
12.000000000000012
  1
@300
 41
0.7695
  7
FontTableH_0
 72
               5
 11
1875.2585057689403
 21
783.35984220899479
 31
0.0
100
AcDbText
  0
TEXT
  5
5FE
100
AcDbEntity
  8
0
 62
               7
100
AcDbText
 10
2421.1969823314403
 20
1194.3473300019637
 30
0.0
 40
12.000000000000012
  1
ハ－パ－ズストロングル－フ300：カラ－ガルバリウム鋼板 t0.4
 41
0.7695
  7
FontTableH_0
 72
               5
 11
2769.1969823314407
 21
1194.3473300019637
 31
0.0
100
AcDbText
  0
TEXT
  5
5FF
100
AcDbEntity
  8
0
 62
               7
100
AcDbText
 10
2421.1969823314403
 20
1179.3473300019637
 30
0.0
 40
12.000000000000012
  1
ゴムアスファルトル－フィング t1.0
 41
0.7695
  7
FontTableH_0
 72
               5
 11
2619.1969823314407
 21
1179.3473300019637
 31
0.0
100
AcDbText
  0
TEXT
  5
600
100
AcDbEntity
  8
0
 62
               7
100
AcDbText
 10
2421.1969823314403
 20
1164.3479403535262
 30
0.0
 40
12.000000000000012
  1
木毛セメント板 t25
 41
0.7695
  7
FontTableH_0
 72
               5
 11
2529.1969823314403
 21
1164.3479403535262
 31
0.0
100
AcDbText
  0
TEXT
  5
601
100
AcDbEntity
  8
0
 62
               7
100
AcDbText
 10
2204.4961766673778
 20
940.85599699415104
 30
0.0
 40
12.000000000000012
  1
25
 50
90.000002504478189
 41
0.7695
  7
FontTableH_0
 72
               5
 11
2204.4961761428413
 21
952.85599699415104
 31
0.0
100
AcDbText
  0
TEXT
  5
602
100
AcDbEntity
  8
0
 62
               7
100
AcDbText
 10
2204.4961766673778
 20
889.85599699415104
 30
0.0
 40
12.000000000000012
  1
55
 50
90.000002504478189
 41
0.7695
  7
FontTableH_0
 72
               5
 11
2204.4961761428413
 21
901.85599699415104
 31
0.0
100
AcDbText
  0
TEXT
  5
603
100
AcDbEntity
  8
0
 62
               7
100
AcDbText
 10
2429.2461766673778
 20
783.35996427930729
 30
0.0
 40
12.000000000000012
  1
300
 41
0.7695
  7
FontTableH_0
 72
               5
 11
2447.2461766673778
 21
783.35996427930729
 31
0.0
100
AcDbText
  0
TEXT
  5
604
100
AcDbEntity
  8
0
 62
               7
100
AcDbText
 10
2729.2461766673778
 20
783.35996427930729
 30
0.0
 40
12.000000000000012
  1
300
 41
0.7695
  7
FontTableH_0
 72
               5
 11
2747.2461766673778
 21
783.35996427930729
 31
0.0
100
AcDbText
  0
TEXT
  5
605
100
AcDbEntity
  8
0
 62
               7
100
AcDbText
 10
2951.2498387767528
 20
783.35996427930729
 30
0.0
 40
12.000000000000012
  1
@300
 41
0.7695
  7
FontTableH_0
 72
               5
 11
2975.2498387767528
 21
783.35996427930729
 31
0.0
100
AcDbText
  0
TEXT
  5
606
100
AcDbEntity
  8
0
 62
               7
100
AcDbText
 10
2201.2459325267528
 20
783.35996427930729
 30
0.0
 40
12.000000000000012
  1
@300
 41
0.7695
  7
FontTableH_0
 72
               5
 11
2225.2459325267528
 21
783.35996427930729
 31
0.0
100
AcDbText
  0
TEXT
  5
607
100
AcDbEntity
  8
0
 62
               7
100
AcDbText
 10
2421.1971044017528
 20
1104.3528231660262
 30
0.0
 40
12.000000000000012
  1
ハ－パ－ズストロングル－フ300：ガルバリウム鋼板 t1.0
 41
0.7695
  7
FontTableH_0
 72
               5
 11
2733.1971044017532
 21
1104.3528231660262
 31
0.0
100
AcDbText
  0
TEXT
  5
608
100
AcDbEntity
  8
0
 62
               7
100
AcDbText
 10
2421.1967381908153
 20
1134.3537386933699
 30
0.0
 40
12.000000000000012
  1
グラスウ－ル t50,64kg/㎡
 41
0.7695
  7
FontTableH_0
 72
               5
 11
2565.1967381908157
 21
1134.3537386933699
 31
0.0
100
AcDbText
  0
TEXT
  5
609
100
AcDbEntity
  8
0
 62
               7
100
AcDbText
 10
2421.1969823314403
 20
1149.3520907441512
 30
0.0
 40
12.000000000000012
  1
金属垂木：ガルバリウム鋼板 t1.0,@300
 41
0.7695
  7
FontTableH_0
 72
               5
 11
2637.1969823314403
 21
1149.3520907441512
 31
0.0
100
AcDbText
  0
TEXT
  5
60A
100
AcDbEntity
  8
0
 62
               7
100
AcDbText
 10
2204.4987401439403
 20
922.85721769727604
 30
0.0
 40
12.000000000000012
  1
10
 50
90.000002504478189
 41
0.7695
  7
FontTableH_0
 72
               5
 11
2204.4987396194038
 21
934.85721769727604
 31
0.0
100
AcDbText
  0
TEXT
  5
60B
100
AcDbEntity
  8
0
 62
               7
100
AcDbText
 10
1101.250876374409
 20
783.35691252149479
 30
0.0
 40
12.000000000000012
  1
@300
 41
0.7695
  7
FontTableH_0
 72
               5
 11
1125.250876374409
 21
783.35691252149479
 31
0.0
100
AcDbText
  0
TEXT
  5
60C
100
AcDbEntity
  8
0
 62
               7
100
AcDbText
 10
1329.2453221751903
 20
783.35691252149479
 30
0.0
 40
12.000000000000012
  1
300
 41
0.7695
  7
FontTableH_0
 72
               5
 11
1347.2453221751903
 21
783.35691252149479
 31
0.0
100
AcDbText
  0
TEXT
  5
60D
100
AcDbEntity
  8
0
 62
               7
100
AcDbText
 10
1229.9190587474559
 20
1194.3482455293074
 30
0.0
 40
12.000000000000012
  1
プロムナ－ル－フジャストワン：カラ－ガルバリウム鋼板 t0.4
 41
0.7695
  7
FontTableH_0
 72
               5
 11
1571.9190587474563
 21
1194.3482455293074
 31
0.0
100
AcDbText
  0
TEXT
  5
60E
100
AcDbEntity
  8
0
 62
               7
100
AcDbText
 10
1229.9190587474559
 20
1179.3482455293074
 30
0.0
 40
12.000000000000012
  1
ゴムアスファルトル－フィング t1.0
 41
0.7695
  7
FontTableH_0
 72
               5
 11
1427.9190587474561
 21
1179.3482455293074
 31
0.0
100
AcDbText
  0
TEXT
  5
60F
100
AcDbEntity
  8
0
 62
               7
100
AcDbText
 10
1229.9190587474559
 20
1164.3488558808699
 30
0.0
 40
12.000000000000012
  1
木毛セメント板 t25
 41
0.7695
  7
FontTableH_0
 72
               5
 11
1337.9190587474559
 21
1164.3488558808699
 31
0.0
100
AcDbText
  0
TEXT
  5
610
100
AcDbEntity
  8
0
 62
               7
100
AcDbText
 10
1229.9190587474559
 20
1104.3544100800887
 30
0.0
 40
12.000000000000012
  1
ハ－パ－ズストロングル－フ300：ガルバリウム鋼板 t1.0
 41
0.7695
  7
FontTableH_0
 72
               5
 11
1541.9190587474561
 21
1104.3544100800887
 31
0.0
100
AcDbText
  0
TEXT
  5
611
100
AcDbEntity
  8
0
 62
               7
100
AcDbText
 10
1229.9190587474559
 20
1134.3550814668074
 30
0.0
 40
12.000000000000012
  1
グラスウ－ル t50,64kg/㎡
 41
0.7695
  7
FontTableH_0
 72
               5
 11
1373.9190587474559
 21
1134.3550814668074
 31
0.0
100
AcDbText
  0
TEXT
  5
612
100
AcDbEntity
  8
0
 62
               7
100
AcDbText
 10
1229.9190587474559
 20
1149.3530062714949
 30
0.0
 40
12.000000000000012
  1
帯板：ガルバリウム鋼板 t1.0,@300
 41
0.7695
  7
FontTableH_0
 72
               5
 11
1421.9190587474561
 21
1149.3530062714949
 31
0.0
100
AcDbText
  0
TEXT
  5
613
100
AcDbEntity
  8
0
 62
               7
100
AcDbText
 10
1425.2478856517528
 20
680.36136808790104
 30
0.0
 40
12.000000000000012
  1
ａ’断面詳細図：S=1/3
 41
0.7695
  7
FontTableH_0
 72
               5
 11
1551.2478856517528
 21
680.36136808790104
 31
0.0
100
AcDbText
  0
TEXT
  5
614
100
AcDbEntity
  8
0
 62
               7
100
AcDbText
 10
2525.2481297923778
 20
680.36136808790104
 30
0.0
 40
12.000000000000012
  1
ｂ’断面詳細図：S=1/3
 41
0.7695
  7
FontTableH_0
 72
               5
 11
2651.2481297923778
 21
680.36136808790104
 31
0.0
100
AcDbText
  0
TEXT
  5
615
100
AcDbEntity
  8
0
 62
               7
100
AcDbText
 10
2399.2453221751903
 20
1055.8591708222762
 30
0.0
 40
12.000000000000012
  1
300
 41
0.7695
  7
FontTableH_0
 72
               5
 11
2417.2453221751903
 21
1055.8591708222762
 31
0.0
100
AcDbText
  0
TEXT
  5
616
100
AcDbEntity
  8
0
 62
               7
100
AcDbText
 10
2699.2453221751903
 20
1055.8591708222762
 30
0.0
 40
12.000000000000012
  1
300
 41
0.7695
  7
FontTableH_0
 72
               5
 11
2717.2453221751903
 21
1055.8591708222762
 31
0.0
100
AcDbText
  0
TEXT
  5
617
100
AcDbEntity
  8
0
 62
               7
100
AcDbText
 10
2936.2725438548778
 20
1055.8603915254012
 30
0.0
 40
12.000000000000012
  1
@300
 41
0.7695
  7
FontTableH_0
 72
               5
 11
2960.2725438548778
 21
1055.8603915254012
 31
0.0
100
AcDbText
  0
TEXT
  5
618
100
AcDbEntity
  8
0
 62
               7
100
AcDbText
 10
2186.2462987376903
 20
1055.8599032441512
 30
0.0
 40
12.000000000000012
  1
@300
 41
0.7695
  7
FontTableH_0
 72
               5
 11
2210.2462987376903
 21
1055.8599032441512
 31
0.0
100
AcDbText
  0
TEXT
  5
619
100
AcDbEntity
  8
0
 62
               7
100
AcDbText
 10
2204.4953221751903
 20
984.88419523633854
 30
0.0
 40
12.000000000000012
  1
55
 50
90.000002504478189
 41
0.7695
  7
FontTableH_0
 72
               5
 11
2204.4953216506538
 21
996.88419523633854
 31
0.0
100
AcDbText
  0
TEXT
  5
61A
100
AcDbEntity
  8
0
 62
               7
100
AcDbText
 10
2469.7052831126903
 20
1013.1095370332135
 30
0.0
 40
12.000000000000012
  1
通し吊り子
 41
0.7695
  7
FontTableH_0
 72
               5
 11
2529.7052831126903
 21
1013.1095370332135
 31
0.0
100
AcDbText
  0
TEXT
  5
61B
100
AcDbEntity
  8
0
 62
               7
100
AcDbText
 10
2609.4313573314403
 20
1011.814737228526
 30
0.0
 40
12.000000000000012
  1
ビス：φ5X60,@300
 41
0.7695
  7
FontTableH_0
 72
               5
 11
2711.4313573314403
 21
1011.814737228526
 31
0.0
100
AcDbText
  0
TEXT
  5
61C
100
AcDbEntity
  8
0
 62
               7
100
AcDbText
 10
2632.2417821361278
 20
885.85624113477604
 30
0.0
 40
12.000000000000012
  1
45
 50
90.000002504478189
 41
0.7695
  7
FontTableH_0
 72
               5
 11
2632.2417816115913
 21
897.85624113477604
 31
0.0
100
AcDbText
  0
TEXT
  5
61D
100
AcDbEntity
  8
0
 62
               7
100
AcDbText
 10
2421.1942967845653
 20
1119.3545321504012
 30
0.0
 40
12.000000000000012
  1
補強材：ガルバリウム鋼板 t1.0
 41
0.7695
  7
FontTableH_0
 72
               5
 11
2595.1942967845657
 21
1119.3545321504012
 31
0.0
100
AcDbText
  0
TEXT
  5
61E
100
AcDbEntity
  8
0
 62
               7
100
AcDbText
 10
1229.9190587474559
 20
1119.3537997285262
 30
0.0
 40
12.000000000000012
  1
補強材：ガルバリウム鋼板 t1.0
 41
0.7695
  7
FontTableH_0
 72
               5
 11
1403.9190587474561
 21
1119.3537997285262
 31
0.0
100
AcDbText
  0
TEXT
  5
61F
100
AcDbEntity
  8
0
 62
               7
100
AcDbText
 10
1532.2417821361278
 20
885.85624113477604
 30
0.0
 40
12.000000000000012
  1
45
 50
90.000002504478189
 41
0.7695
  7
FontTableH_0
 72
               5
 11
1532.241781611591
 21
897.85624113477604
 31
0.0
100
AcDbText
  0
TEXT
  5
620
100
AcDbEntity
  8
0
 62
               7
100
AcDbText
 10
1836.2753514720653
 20
1055.8632601777449
 30
0.0
 40
12.000000000000012
  1
@300
 41
0.7695
  7
FontTableH_0
 72
               5
 11
1860.2753514720653
 21
1055.8632601777449
 31
0.0
100
AcDbText
  0
TEXT
  5
621
100
AcDbEntity
  8
0
 62
               7
100
AcDbText
 10
1086.2480992747996
 20
1055.8603304902449
 30
0.0
 40
12.000000000000012
  1
@300
 41
0.7695
  7
FontTableH_0
 72
               5
 11
1110.2480992747996
 21
1055.8603304902449
 31
0.0
100
AcDbText
  0
TEXT
  5
622
100
AcDbEntity
  8
0
 62
               7
100
AcDbText
 10
1599.247946686909
 20
1055.8614291230574
 30
0.0
 40
12.000000000000012
  1
300
 41
0.7695
  7
FontTableH_0
 72
               5
 11
1617.247946686909
 21
1055.8614291230574
 31
0.0
100
AcDbText
  0
TEXT
  5
623
100
AcDbEntity
  8
0
 62
               7
100
AcDbText
 10
1299.2478246165965
 20
1055.8614291230574
 30
0.0
 40
12.000000000000012
  1
300
 41
0.7695
  7
FontTableH_0
 72
               5
 11
1317.2478246165965
 21
1055.8614291230574
 31
0.0
100
AcDbText
  0
TEXT
  5
624
100
AcDbEntity
  8
0
 62
               7
100
AcDbText
 10
1749.004294343159
 20
1004.9717806855573
 30
0.0
 40
12.000000000000012
  1
ビス：φ5X60,@300
 41
0.7695
  7
FontTableH_0
 72
               5
 11
1851.004294343159
 21
1004.9717806855573
 31
0.0
100
AcDbText
  0
TEXT
  5
625
100
AcDbEntity
  8
0
 62
               7
100
AcDbText
 10
1162.7435826732371
 20
892.85910978711979
 30
0.0
 40
12.000000000000012
  1
40
 41
0.7695
  7
FontTableH_0
 72
               5
 11
1174.7435826732371
 21
892.85910978711979
 31
0.0
100
AcDbText
  0
TEXT
  5
626
100
AcDbEntity
  8
0
 62
               7
100
AcDbText
 10
1081.7435826732371
 20
889.85910978711979
 30
0.0
 40
12.000000000000012
  1
55
 50
90.000002504478189
 41
0.7695
  7
FontTableH_0
 72
               5
 11
1081.7435821487004
 21
901.85910978711979
 31
0.0
100
AcDbText
  0
TEXT
  5
627
100
AcDbEntity
  8
0
 62
               7
100
AcDbText
 10
1081.7435826732371
 20
932.85910978711979
 30
0.0
 40
12.000000000000012
  1
25
 50
90.000002504478189
 41
0.7695
  7
FontTableH_0
 72
               5
 11
1081.7435821487004
 21
944.85910978711979
 31
0.0
100
AcDbText
  0
ENDSEC
  0
SECTION
  2
OBJECTS
  0
DICTIONARY
  5
19
100
AcDbDictionary
  3
ACAD_GROUP
350
1A
  3
ACAD_MLINESTYLE
350
1B
  3
DWGPROPS
350
628
  0
DICTIONARY
  5
1A
102
{ACAD_REACTORS
330
19
102
}
100
AcDbDictionary
  0
DICTIONARY
  5
1B
102
{ACAD_REACTORS
330
19
102
}
100
AcDbDictionary
  3
STANDARD
350
1C
  0
MLINESTYLE
  5
1C
102
{ACAD_REACTORS
330
1B
102
}
100
AcDbMlineStyle
  2
Standard
 70
               0
  3

 62
               0
 51
90.0
 52
90.0
 71
               2
 49
0.5
 62
             256
  6
ByLayer
 49
-0.5
 62
             256
  6
ByLayer
  0
XRECORD
  5
628
100
AcDbXrecord
  1
DWGPROPS COOKIE
  2

  3

  4

  6

  7

  0
ENDSEC
  0
EOF
