  0
SECTION
  2
HEADER
  9
$ACADVER
  1
AC1014
  9
$ACADMAINTVER
 70
               0
  9
$DWGCODEPAGE
  3
ANSI_932
  9
$INSBASE
 10
0.0
 20
0.0
 30
0.0
  9
$EXTMIN
 10
0.0
 20
0.0
 30
0.0
  9
$EXTMAX
 10
891.00000000000091
 20
630.00000000000068
 30
0.0
  9
$LIMMIN
 10
0.0
 20
0.0
  9
$LIMMAX
 10
891.00000000000091
 20
630.00000000000068
  9
$ORTHOMODE
 70
               0
  9
$REGENMODE
 70
               1
  9
$FILLMODE
 70
               1
  9
$QTEXTMODE
 70
               0
  9
$MIRRTEXT
 70
               1
  9
$DRAGMODE
 70
               2
  9
$LTSCALE
 40
3.0000000000000031
  9
$OSMODE
 70
               0
  9
$ATTMODE
 70
               1
  9
$TEXTSIZE
 40
0.2
  9
$TRACEWID
 40
0.05
  9
$TEXTSTYLE
  7
Standard
  9
$CLAYER
  8
0
  9
$CELTYPE
  6
Continuous
  9
$CECOLOR
 62
             256
  9
$CELTSCALE
 40
1.0
  9
$DELOBJ
 70
               1
  9
$DISPSILH
 70
               0
  9
$DIMSCALE
 40
1.0
  9
$DIMASZ
 40
0.18
  9
$DIMEXO
 40
0.0625
  9
$DIMDLI
 40
0.38
  9
$DIMRND
 40
0.0
  9
$DIMDLE
 40
0.0
  9
$DIMEXE
 40
0.18
  9
$DIMTP
 40
0.0
  9
$DIMTM
 40
0.0
  9
$DIMTXT
 40
0.18
  9
$DIMCEN
 40
0.09
  9
$DIMTSZ
 40
0.0
  9
$DIMTOL
 70
               0
  9
$DIMLIM
 70
               0
  9
$DIMTIH
 70
               1
  9
$DIMTOH
 70
               1
  9
$DIMSE1
 70
               0
  9
$DIMSE2
 70
               0
  9
$DIMTAD
 70
               0
  9
$DIMZIN
 70
               0
  9
$DIMBLK
  1

  9
$DIMASO
 70
               1
  9
$DIMSHO
 70
               1
  9
$DIMPOST
  1

  9
$DIMAPOST
  1

  9
$DIMALT
 70
               0
  9
$DIMALTD
 70
               2
  9
$DIMALTF
 40
25.399999999999999
  9
$DIMLFAC
 40
1.0
  9
$DIMTOFL
 70
               0
  9
$DIMTVP
 40
0.0
  9
$DIMTIX
 70
               0
  9
$DIMSOXD
 70
               0
  9
$DIMSAH
 70
               0
  9
$DIMBLK1
  1

  9
$DIMBLK2
  1

  9
$DIMSTYLE
  2
Standard
  9
$DIMCLRD
 70
               0
  9
$DIMCLRE
 70
               0
  9
$DIMCLRT
 70
               0
  9
$DIMTFAC
 40
1.0
  9
$DIMGAP
 40
0.09
  9
$DIMJUST
 70
               0
  9
$DIMSD1
 70
               0
  9
$DIMSD2
 70
               0
  9
$DIMTOLJ
 70
               1
  9
$DIMTZIN
 70
               0
  9
$DIMALTZ
 70
               0
  9
$DIMALTTZ
 70
               0
  9
$DIMFIT
 70
               3
  9
$DIMUPT
 70
               0
  9
$DIMUNIT
 70
               2
  9
$DIMDEC
 70
               4
  9
$DIMTDEC
 70
               4
  9
$DIMALTU
 70
               2
  9
$DIMALTTD
 70
               2
  9
$DIMTXSTY
  7
Standard
  9
$DIMAUNIT
 70
               0
  9
$LUNITS
 70
               2
  9
$LUPREC
 70
               4
  9
$SKETCHINC
 40
0.1
  9
$FILLETRAD
 40
0.0
  9
$AUNITS
 70
               0
  9
$AUPREC
 70
               0
  9
$MENU
  1
acad
  9
$ELEVATION
 40
0.0
  9
$PELEVATION
 40
0.0
  9
$THICKNESS
 40
0.0
  9
$LIMCHECK
 70
               0
  9
$BLIPMODE
 70
               1
  9
$CHAMFERA
 40
0.0
  9
$CHAMFERB
 40
0.0
  9
$CHAMFERC
 40
0.0
  9
$CHAMFERD
 40
0.0
  9
$SKPOLY
 70
               0
  9
$TDCREATE
 40
0.000000000
  9
$TDUPDATE
 40
0.000000000
  9
$TDINDWG
 40
0.0000000000
  9
$TDUSRTIMER
 40
0.0000000000
  9
$USRTIMER
 70
               1
  9
$ANGBASE
 50
0.0
  9
$ANGDIR
 70
               0
  9
$PDMODE
 70
               0
  9
$PDSIZE
 40
0.0
  9
$PLINEWID
 40
0.0
  9
$COORDS
 70
               0
  9
$SPLFRAME
 70
               0
  9
$SPLINETYPE
 70
               6
  9
$SPLINESEGS
 70
               8
  9
$ATTDIA
 70
               0
  9
$ATTREQ
 70
               1
  9
$HANDLING
 70
               1
  9
$HANDSEED
  5
21D
  9
$SURFTAB1
 70
               6
  9
$SURFTAB2
 70
               6
  9
$SURFTYPE
 70
               6
  9
$SURFU
 70
               6
  9
$SURFV
 70
               6
  9
$UCSNAME
  2

  9
$UCSORG
 10
0.0
 20
0.0
 30
0.0
  9
$UCSXDIR
 10
1.0
 20
0.0
 30
0.0
  9
$UCSYDIR
 10
0.0
 20
1.0
 30
0.0
  9
$PUCSNAME
  2

  9
$PUCSORG
 10
0.0
 20
0.0
 30
0.0
  9
$PUCSXDIR
 10
1.0
 20
0.0
 30
0.0
  9
$PUCSYDIR
 10
0.0
 20
1.0
 30
0.0
  9
$USERI1
 70
               0
  9
$USERI2
 70
               0
  9
$USERI3
 70
               0
  9
$USERI4
 70
               0
  9
$USERI5
 70
               0
  9
$USERR1
 40
0.0
  9
$USERR2
 40
0.0
  9
$USERR3
 40
0.0
  9
$USERR4
 40
0.0
  9
$USERR5
 40
0.0
  9
$WORLDVIEW
 70
               1
  9
$SHADEDGE
 70
               3
  9
$SHADEDIF
 70
              70
  9
$TILEMODE
 70
               1
  9
$MAXACTVP
 70
              16
  9
$PINSBASE
 10
0.0
 20
0.0
 30
0.0
  9
$PLIMCHECK
 70
               0
  9
$PEXTMIN
 10
1.0000000000000000E+20
 20
1.0000000000000000E+20
 30
1.0000000000000000E+20
  9
$PEXTMAX
 10
-1.0000000000000000E+20
 20
-1.0000000000000000E+20
 30
-1.0000000000000000E+20
  9
$PLIMMIN
 10
0.0
 20
0.0
  9
$PLIMMAX
 10
12.0
 20
9.0
  9
$UNITMODE
 70
               0
  9
$VISRETAIN
 70
               0
  9
$PLINEGEN
 70
               1
  9
$PSLTSCALE
 70
               0
  9
$TREEDEPTH
 70
            3020
  9
$PICKSTYLE
 70
               1
  9
$CMLSTYLE
  2
Standard
  9
$CMLJUST
 70
               0
  9
$CMLSCALE
 40
1.0
  9
$PROXYGRAPHICS
 70
               0
  9
$MEASUREMENT
 70
               0
  0
ENDSEC
  0
SECTION
  2
CLASSES
  0
CLASS
  1
LWPOLYLINE
  2
AcDbPolyline
  3
"AutoCAD"
 90
        0
280
               0
281
               1
  0
CLASS
  1
IMAGE
  2
AcDbRasterImage
  3
ISM
 90
      127
280
               0
281
               1
  0
CLASS
  1
OLE2FRAME
  2
AcDbOle2Frame
  3
""
 90
        0
280
               0
281
               1
  0
CLASS
  1
HATCH
  2
AcDbHatch
  3
"ACAD_SEDONA"
 90
        0
280
               0
281
               1
  0
CLASS
  1
DICTIONARYVAR
  2
AcDbDictionaryVar
  3
"AutoCAD"
 90
        0
280
               0
281
               0
  0
CLASS
  1
RASTERVARIABLES
  2
AcDbRasterVariables
  3
ISM
 90
        0
280
               0
281
               0
  0
CLASS
  1
IMAGEDEF
  2
AcDbRasterImageDef
  3
ISM
 90
        0
280
               0
281
               0
  0
CLASS
  1
IMAGEDEF_REACTOR
  2
AcDbRasterImageDefReactor
  3
ISM
 90
        1
280
               0
281
               0
  0
CLASS
  1
IDBUFFER
  2
AcDbIdBuffer
  3
"Acad"
 90
        0
280
               0
281
               0
  0
CLASS
  1
SPATIAL_FILTER
  2
AcDbSpatialFilter
  3
"Acad"
 90
        0
280
               0
281
               0
  0
CLASS
  1
XRECORD
  2
AcDbXrecord
  3
"<Built In>"
 90
        0
280
               0
281
               0
  0
CLASS
  1
SORTENTSTABLE
  2
AcDbSortentsTable
  3
"AutoCAD"
 90
        0
280
               0
281
               0
  0
CLASS
  1
LAYER_INDEX
  2
AcDbLayerIndex
  3
"Acad"
 90
        0
280
               0
281
               0
  0
CLASS
  1
SPATIAL_INDEX
  2
AcDbSpatialIndex
  3
"Acad"
 90
        0
280
               0
281
               0
  0
CLASS
  1
OBJECT_PTR
  2
CAseDLPNTableRecord
  3
"ASE-LPNTableRecord"
 90
        1
280
               0
281
               0
  0
CLASS
  1
LAYOUT
  2
AcDbLayout
  3
"AutoCAD 2000"
 90
        0
280
               0
281
               0
  0
CLASS
  1
PLOTSETTINGS
  2
AcDbPlotSettings
  3
"AutoCAD 2000"
 90
        0
280
               0
281
               0
  0
CLASS
  1
ACDBDICTIONARYWDFLT
  2
AcDbDictionaryWithDefault
  3
"AutoCAD 2000"
 90
        0
280
               0
281
               0
  0
CLASS
  1
ACDBPLACEHOLDER
  2
AcDbPlaceHolder
  3
"AutoCAD 2000"
 90
        0
280
               0
281
               0
  0
CLASS
  1
VBA_PROJECT
  2
AcDbVbaProject
  3
"acadvba"
 90
        0
280
               0
281
               0
  0
CLASS
  1
WIPEOUT
  2
AcDbWipeout
  3
WipeOut|AutoCAD Express Tool|expresstools@autodesk.com
 90
      127
280
               0
281
               1
  0
CLASS
  1
WIPEOUTVARIABLES
  2
AcDbWipeoutVariables
  3
WipeOut|AutoCAD Express Tool|expresstools@autodesk.com
 90
        0
280
               0
281
               0
  0
CLASS
  1
RTEXT
  2
RText
  3
RText|AutoCAD Express Tool|expresstools@autodesk.com
 90
        0
280
               0
281
               1
  0
CLASS
  1
ARCALIGNEDTEXT
  2
AcDbArcAlignedText
  3
ATEXT|AutoCAD Express Tool|expresstools@autodesk.com
 90
        0
280
               0
281
               1
  0
ENDSEC
  0
SECTION
  2
TABLES
  0
TABLE
  2
VPORT
  5
7
100
AcDbSymbolTable
 70
               1
  0
VPORT
  5
15
100
AcDbSymbolTableRecord
100
AcDbViewportTableRecord
  2
*ACTIVE
 70
               0
 10
0.0
 20
0.0
 11
1.0
 21
1.0
 12
445.50000000000045
 22
315.00000000000034
 13
0.0
 23
0.0
 14
10.0
 24
10.0
 15
10.0
 25
10.0
 16
0.0
 26
0.0
 36
1.0
 17
0.0
 27
0.0
 37
0.0
 40
630.00000000000068
 41
1.4142857142857141
 42
50.0
 43
0.0
 44
0.0
 50
0.0
 51
0.0
 71
               0
 72
             100
 73
               1
 74
               1
 75
               0
 76
               0
 77
               0
 78
               0
  0
ENDTAB
  0
TABLE
  2
LTYPE
  5
4
100
AcDbSymbolTable
 70
              24
  0
LTYPE
  5
11
100
AcDbSymbolTableRecord
100
AcDbLinetypeTableRecord
  2
ByBlock
 70
              64
  3

 72
              65
 73
               0
 40
0.0
  0
LTYPE
  5
12
100
AcDbSymbolTableRecord
100
AcDbLinetypeTableRecord
  2
ByLayer
 70
              64
  3

 72
              65
 73
               0
 40
0.0
  0
LTYPE
  5
13
100
AcDbSymbolTableRecord
100
AcDbLinetypeTableRecord
  2
Continuous
 70
              64
  3
Solid line
 72
              65
 73
               0
 40
0.0
  0
LTYPE
  5
1D
100
AcDbSymbolTableRecord
100
AcDbLinetypeTableRecord
  2
DOT
 70
              64
  3
Dot . . . . . . . . . . . . . . . . . . . . . .
 72
              65
 73
               2
 40
6.3499999999999996
 49
0.35
 74
               0
 49
-6.0
 74
               0
  0
LTYPE
  5
1E
100
AcDbSymbolTableRecord
100
AcDbLinetypeTableRecord
  2
DASHED
 70
              64
  3
Dashed __ __ __ __ __ __ __ __ __ __ __ __ __ _
 72
              65
 73
               2
 40
12.699999999999999
 49
6.3499999999999996
 74
               0
 49
-6.3499999999999996
 74
               0
  0
LTYPE
  5
1F
100
AcDbSymbolTableRecord
100
AcDbLinetypeTableRecord
  2
DASHDOT
 70
              64
  3
Dash dot __ . __ . __ . __ . __ . __ . __ . __
 72
              65
 73
               4
 40
25.399999999999999
 49
12.699999999999999
 74
               0
 49
-6.0
 74
               0
 49
0.7
 74
               0
 49
-6.0
 74
               0
  0
LTYPE
  5
20
100
AcDbSymbolTableRecord
100
AcDbLinetypeTableRecord
  2
DIVIDE
 70
              64
  3
Divide ____ . . ____ . . ____ . . ____ . . ____
 72
              65
 73
               6
 40
31.75
 49
12.699999999999999
 74
               0
 49
-6.0
 74
               0
 49
0.875
 74
               0
 49
-6.0
 74
               0
 49
0.875
 74
               0
 49
-6.0
 74
               0
  0
LTYPE
  5
21
100
AcDbSymbolTableRecord
100
AcDbLinetypeTableRecord
  2
HIDDEN
 70
              64
  3
Hidden __ __ __ __ __ __ __ __ __ __ __ __ __ _
 72
              65
 73
               2
 40
9.5250000000000004
 49
6.3499999999999996
 74
               0
 49
-3.1749999999999998
 74
               0
  0
LTYPE
  5
22
100
AcDbSymbolTableRecord
100
AcDbLinetypeTableRecord
  2
CENTER
 70
              64
  3
Center ____ _ ____ _ ____ _ ____ _ ____ _ ____
 72
              65
 73
               4
 40
50.799999999999997
 49
31.75
 74
               0
 49
-6.3499999999999996
 74
               0
 49
6.3499999999999996
 74
               0
 49
-6.3499999999999996
 74
               0
  0
LTYPE
  5
23
100
AcDbSymbolTableRecord
100
AcDbLinetypeTableRecord
  2
PHANTOM
 70
              64
  3
Phantom ______  __  __  ______  __  __  ______
 72
              65
 73
               6
 40
63.5
 49
31.75
 74
               0
 49
-6.3499999999999996
 74
               0
 49
6.3499999999999996
 74
               0
 49
-6.3499999999999996
 74
               0
 49
6.3499999999999996
 74
               0
 49
-6.3499999999999996
 74
               0
  0
LTYPE
  5
24
100
AcDbSymbolTableRecord
100
AcDbLinetypeTableRecord
  2
ACAD_ISO02W100
 70
              64
  3
ISO dash __ __ __ __ __ __ __ __ __ __ __ __ __
 72
              65
 73
               2
 40
15.0
 49
12.0
 74
               0
 49
-3.0
 74
               0
  0
LTYPE
  5
25
100
AcDbSymbolTableRecord
100
AcDbLinetypeTableRecord
  2
ACAD_ISO03W100
 70
              64
  3
ISO dash space __ __ __ __ __ __ __ __ __ __ __ __ __ __
 72
              65
 73
               2
 40
30.0
 49
12.0
 74
               0
 49
-18.0
 74
               0
  0
LTYPE
  5
26
100
AcDbSymbolTableRecord
100
AcDbLinetypeTableRecord
  2
ACAD_ISO04W100
 70
              64
  3
ISO long-dash dot ____ . ____ . ____ . ____ . _
 72
              65
 73
               4
 40
30.0
 49
24.0
 74
               0
 49
-3.0
 74
               0
 49
0.0
 74
               0
 49
-3.0
 74
               0
  0
LTYPE
  5
27
100
AcDbSymbolTableRecord
100
AcDbLinetypeTableRecord
  2
ACAD_ISO05W100
 70
              64
  3
ISO long-dash double-dot ____ .. ____ .. ____ .
 72
              65
 73
               6
 40
33.0
 49
24.0
 74
               0
 49
-3.0
 74
               0
 49
0.0
 74
               0
 49
-3.0
 74
               0
 49
0.0
 74
               0
 49
-3.0
 74
               0
  0
LTYPE
  5
28
100
AcDbSymbolTableRecord
100
AcDbLinetypeTableRecord
  2
ACAD_ISO06W100
 70
              64
  3
ISO long-dash triple-dot ____ ... ____ ... ____
 72
              65
 73
               8
 40
36.0
 49
24.0
 74
               0
 49
-3.0
 74
               0
 49
0.0
 74
               0
 49
-3.0
 74
               0
 49
0.0
 74
               0
 49
-3.0
 74
               0
 49
0.0
 74
               0
 49
-3.0
 74
               0
  0
LTYPE
  5
29
100
AcDbSymbolTableRecord
100
AcDbLinetypeTableRecord
  2
ACAD_ISO07W100
 70
              64
  3
ISO dot . . . . . . . . . . . . . . . . . . . .
 72
              65
 73
               2
 40
3.0
 49
0.0
 74
               0
 49
-3.0
 74
               0
  0
LTYPE
  5
2A
100
AcDbSymbolTableRecord
100
AcDbLinetypeTableRecord
  2
ACAD_ISO08W100
 70
              64
  3
ISO long-dash short-dash ____ __ ____ __ ____ _
 72
              65
 73
               4
 40
36.0
 49
24.0
 74
               0
 49
-3.0
 74
               0
 49
6.0
 74
               0
 49
-3.0
 74
               0
  0
LTYPE
  5
2B
100
AcDbSymbolTableRecord
100
AcDbLinetypeTableRecord
  2
ACAD_ISO09W100
 70
              64
  3
ISO long-dash double-short-dash ____ __ __ ____
 72
              65
 73
               6
 40
45.0
 49
24.0
 74
               0
 49
-3.0
 74
               0
 49
6.0
 74
               0
 49
-3.0
 74
               0
 49
6.0
 74
               0
 49
-3.0
 74
               0
  0
LTYPE
  5
2C
100
AcDbSymbolTableRecord
100
AcDbLinetypeTableRecord
  2
ACAD_ISO10W100
 70
              64
  3
ISO dash dot __ . __ . __ . __ . __ . __ . __ .
 72
              65
 73
               4
 40
18.0
 49
12.0
 74
               0
 49
-3.0
 74
               0
 49
0.0
 74
               0
 49
-3.0
 74
               0
  0
LTYPE
  5
2D
100
AcDbSymbolTableRecord
100
AcDbLinetypeTableRecord
  2
ACAD_ISO11W100
 70
              64
  3
ISO double-dash dot __ __ . __ __ . __ __ . __ 
 72
              65
 73
               6
 40
33.0
 49
12.0
 74
               0
 49
-3.0
 74
               0
 49
12.0
 74
               0
 49
-3.0
 74
               0
 49
0.0
 74
               0
 49
-3.0
 74
               0
  0
LTYPE
  5
2E
100
AcDbSymbolTableRecord
100
AcDbLinetypeTableRecord
  2
ACAD_ISO12W100
 70
              64
  3
ISO dash double-dot __ . . __ . . __ . . __ . .
 72
              65
 73
               6
 40
21.0
 49
12.0
 74
               0
 49
-3.0
 74
               0
 49
0.0
 74
               0
 49
-3.0
 74
               0
 49
0.0
 74
               0
 49
-3.0
 74
               0
  0
LTYPE
  5
2F
100
AcDbSymbolTableRecord
100
AcDbLinetypeTableRecord
  2
ACAD_ISO13W100
 70
              64
  3
ISO double-dash double-dot __ __ . . __ __ . . 
 72
              65
 73
               8
 40
36.0
 49
12.0
 74
               0
 49
-3.0
 74
               0
 49
12.0
 74
               0
 49
-3.0
 74
               0
 49
0.0
 74
               0
 49
-3.0
 74
               0
 49
0.0
 74
               0
 49
-3.0
 74
               0
  0
LTYPE
  5
30
100
AcDbSymbolTableRecord
100
AcDbLinetypeTableRecord
  2
ACAD_ISO14W100
 70
              64
  3
ISO dash triple-dot __ . . . __ . . . __ . . . 
 72
              65
 73
               8
 40
24.0
 49
12.0
 74
               0
 49
-3.0
 74
               0
 49
0.0
 74
               0
 49
-3.0
 74
               0
 49
0.0
 74
               0
 49
-3.0
 74
               0
 49
0.0
 74
               0
 49
-3.0
 74
               0
  0
LTYPE
  5
31
100
AcDbSymbolTableRecord
100
AcDbLinetypeTableRecord
  2
ACAD_ISO15W100
 70
              64
  3
ISO double-dash double-dot __ __ . . __ __ . . 
 72
              65
 73
              10
 40
39.0
 49
12.0
 74
               0
 49
-3.0
 74
               0
 49
12.0
 74
               0
 49
-3.0
 74
               0
 49
0.0
 74
               0
 49
-3.0
 74
               0
 49
0.0
 74
               0
 49
-3.0
 74
               0
 49
0.0
 74
               0
 49
-3.0
 74
               0
  0
ENDTAB
  0
TABLE
  2
LAYER
  5
2
100
AcDbSymbolTable
 70
              16
  0
LAYER
  5
14
100
AcDbSymbolTableRecord
100
AcDbLayerTableRecord
  2
0
 70
               0
 62
               7
  6
Continuous
  0
LAYER
  5
35
100
AcDbSymbolTableRecord
100
AcDbLayerTableRecord
  2
Layer00001
 70
               0
 62
               7
  6
Continuous
  0
LAYER
  5
36
100
AcDbSymbolTableRecord
100
AcDbLayerTableRecord
  2
Layer00002
 70
               0
 62
               7
  6
Continuous
  0
LAYER
  5
37
100
AcDbSymbolTableRecord
100
AcDbLayerTableRecord
  2
Layer00003
 70
               0
 62
               7
  6
Continuous
  0
LAYER
  5
38
100
AcDbSymbolTableRecord
100
AcDbLayerTableRecord
  2
Layer00004
 70
               0
 62
               7
  6
Continuous
  0
LAYER
  5
39
100
AcDbSymbolTableRecord
100
AcDbLayerTableRecord
  2
Layer00005
 70
               0
 62
               7
  6
Continuous
  0
LAYER
  5
3A
100
AcDbSymbolTableRecord
100
AcDbLayerTableRecord
  2
Layer00006
 70
               0
 62
               7
  6
Continuous
  0
LAYER
  5
3B
100
AcDbSymbolTableRecord
100
AcDbLayerTableRecord
  2
Layer00007
 70
               0
 62
               7
  6
Continuous
  0
LAYER
  5
3C
100
AcDbSymbolTableRecord
100
AcDbLayerTableRecord
  2
Layer00008
 70
               0
 62
               7
  6
Continuous
  0
LAYER
  5
3D
100
AcDbSymbolTableRecord
100
AcDbLayerTableRecord
  2
Layer00009
 70
               0
 62
               7
  6
Continuous
  0
LAYER
  5
3E
100
AcDbSymbolTableRecord
100
AcDbLayerTableRecord
  2
Layer00010
 70
               0
 62
               7
  6
Continuous
  0
LAYER
  5
3F
100
AcDbSymbolTableRecord
100
AcDbLayerTableRecord
  2
Layer00011
 70
               0
 62
               7
  6
Continuous
  0
LAYER
  5
40
100
AcDbSymbolTableRecord
100
AcDbLayerTableRecord
  2
Layer00012
 70
               0
 62
               7
  6
Continuous
  0
LAYER
  5
41
100
AcDbSymbolTableRecord
100
AcDbLayerTableRecord
  2
Layer00013
 70
               0
 62
               7
  6
Continuous
  0
LAYER
  5
42
100
AcDbSymbolTableRecord
100
AcDbLayerTableRecord
  2
Layer00014
 70
               0
 62
               7
  6
Continuous
  0
LAYER
  5
43
100
AcDbSymbolTableRecord
100
AcDbLayerTableRecord
  2
Layer00015
 70
               0
 62
               7
  6
Continuous
  0
ENDTAB
  0
TABLE
  2
STYLE
  5
3
100
AcDbSymbolTable
 70
               4
  0
STYLE
  5
17
100
AcDbSymbolTableRecord
100
AcDbTextStyleTableRecord
  2
Standard
 70
               0
 40
0.0
 41
1.0
 50
0.0
 71
               0
 42
0.0
  3
txt.shx
  4
bigfont.shx
  0
STYLE
  5
32
100
AcDbSymbolTableRecord
100
AcDbTextStyleTableRecord
  2
STANDARD_T
 70
               4
 40
0.0
 41
1.0
 50
0.0
 71
               0
 42
0.0
  3
txt.shx
  4
bigfont.shx
  0
STYLE
  5
33
100
AcDbSymbolTableRecord
100
AcDbTextStyleTableRecord
  2
FontTableH_0
 70
               0
 40
0.0
 41
1.0
 50
0.0
 71
               0
 42
0.0
  3
MS Gothic.ttf
  4

1001
ACAD
1000
MS Gothic
1071
    32817
  0
STYLE
  5
34
100
AcDbSymbolTableRecord
100
AcDbTextStyleTableRecord
  2
FontTableV_0
 70
               0
 40
0.0
 41
1.0
 50
0.0
 71
               0
 42
0.0
  3
@MS Gothic.ttf
  4

1001
ACAD
1000
@MS Gothic
1071
    32817
  0
ENDTAB
  0
TABLE
  2
VIEW
  5
5
100
AcDbSymbolTable
 70
               0
  0
ENDTAB
  0
TABLE
  2
UCS
  5
6
100
AcDbSymbolTable
 70
               0
  0
ENDTAB
  0
TABLE
  2
APPID
  5
8
100
AcDbSymbolTable
 70
               1
  0
APPID
  5
16
100
AcDbSymbolTableRecord
100
AcDbRegAppTableRecord
  2
ACAD
 70
               0
  0
ENDTAB
  0
TABLE
  2
DIMSTYLE
  5
9
100
AcDbSymbolTable
 70
               1
  0
DIMSTYLE
105
18
100
AcDbSymbolTableRecord
100
AcDbDimStyleTableRecord
  2
Standard
 70
               0
  3

  4

  5

  6

  7

 40
1.0
 41
0.18
 42
0.0625
 43
0.38
 44
0.18
 45
0.0
 46
0.0
 47
0.0
 48
0.0
 71
               0
 72
               0
 73
               1
 74
               1
 75
               0
 76
               0
 77
               0
 78
               0
140
0.18
141
0.09
142
0.0
143
25.399999999999999
144
1.0
145
0.0
146
1.0
147
0.09
170
               0
171
               2
172
               0
173
               0
174
               0
175
               0
176
               0
177
               0
178
               0
270
               2
271
               4
272
               4
273
               2
274
               2
275
               0
280
               0
281
               0
282
               0
283
               1
284
               0
285
               0
286
               0
287
               0
288
               0
340
17
  0
ENDTAB
  0
TABLE
  2
BLOCK_RECORD
  5
1
100
AcDbSymbolTable
 70
               0
  0
BLOCK_RECORD
  5
A
100
AcDbSymbolTableRecord
100
AcDbBlockTableRecord
  2
*MODEL_SPACE
  0
BLOCK_RECORD
  5
B
100
AcDbSymbolTableRecord
100
AcDbBlockTableRecord
  2
*PAPER_SPACE
  0
ENDTAB
  0
ENDSEC
  0
SECTION
  2
BLOCKS
  0
BLOCK
  5
D
100
AcDbEntity
  8
0
100
AcDbBlockBegin
  2
*MODEL_SPACE
 70
               0
 10
0.0
 20
0.0
 30
0.0
  3
*MODEL_SPACE
  1

  0
ENDBLK
  5
E
100
AcDbEntity
  8
0
100
AcDbBlockEnd
  0
BLOCK
  5
F
100
AcDbEntity
 67
               1
  8
0
100
AcDbBlockBegin
  2
*PAPER_SPACE
 70
               0
 10
0.0
 20
0.0
 30
0.0
  3
*PAPER_SPACE
  1

  0
ENDBLK
  5
10
100
AcDbEntity
 67
               1
  8
0
100
AcDbBlockEnd
  0
ENDSEC
  0
SECTION
  2
ENTITIES
  0
LINE
  5
44
100
AcDbEntity
  8
0
  6
Continuous
 62
               4
100
AcDbLine
 10
239.01455139817233
 20
278.14466805135504
 30
0.0
 11
224.01450940095413
 21
278.14466622419337
 31
0.0
  0
LINE
  5
45
100
AcDbEntity
  8
0
  6
Continuous
 62
               4
100
AcDbLine
 10
239.01455139817233
 20
260.14466805135504
 30
0.0
 11
224.01451159354178
 21
260.1446662241936
 31
0.0
  0
LINE
  5
46
100
AcDbEntity
  8
0
  6
Continuous
 62
               4
100
AcDbLine
 10
227.01450940095413
 20
278.14466658962471
 30
0.0
 11
227.01451159354178
 21
260.14466658962493
 31
0.0
  0
LINE
  5
47
100
AcDbEntity
  8
0
  6
Continuous
 62
               4
100
AcDbLine
 10
631.01455139817222
 20
382.64466878220253
 30
0.0
 11
655.01455139817222
 21
382.64466878220253
 31
0.0
  0
LINE
  5
48
100
AcDbEntity
  8
0
  6
Continuous
 62
               4
100
AcDbLine
 10
611.01455139817222
 20
342.64466878220253
 30
0.0
 11
655.01455139817222
 21
342.64466878220253
 31
0.0
  0
LINE
  5
49
100
AcDbEntity
  8
0
  6
Continuous
 62
               4
100
AcDbLine
 10
652.01455139817222
 20
382.64466878220253
 30
0.0
 11
652.01455139817222
 21
342.64466878220253
 31
0.0
  0
LINE
  5
4A
100
AcDbEntity
  8
0
  6
Continuous
 62
               4
100
AcDbLine
 10
625.01455139817222
 20
390.64466878220253
 30
0.0
 11
625.01455139817222
 21
414.64466878220253
 31
0.0
  0
LINE
  5
4B
100
AcDbEntity
  8
0
  6
Continuous
 62
               4
100
AcDbLine
 10
605.01455139817222
 20
388.64466878220253
 30
0.0
 11
605.01455139817222
 21
414.64466878220253
 31
0.0
  0
LINE
  5
4C
100
AcDbEntity
  8
0
  6
Continuous
 62
               4
100
AcDbLine
 10
625.01455139817222
 20
411.64466878220253
 30
0.0
 11
605.01455139817222
 21
411.64466878220253
 31
0.0
  0
LINE
  5
4D
100
AcDbEntity
  8
0
  6
Continuous
 62
               4
100
AcDbLine
 10
239.01455139817233
 20
384.64466878220253
 30
0.0
 11
224.01455139817506
 21
384.64466878220253
 31
0.0
  0
LINE
  5
4E
100
AcDbEntity
  8
0
  6
Continuous
 62
               4
100
AcDbLine
 10
375.01455139817199
 20
433.95640753203577
 30
0.0
 11
375.01455139817199
 21
465.64466878220253
 31
0.0
  0
LINE
  5
4F
100
AcDbEntity
  8
0
  6
Continuous
 62
               4
100
AcDbLine
 10
625.01455139817222
 20
462.64466878220253
 30
0.0
 11
375.01455139817199
 21
462.64466878220253
 31
0.0
  0
LINE
  5
50
100
AcDbEntity
  8
0
  6
Continuous
 62
               4
100
AcDbLine
 10
375.01455139817199
 20
462.64466878220253
 30
0.0
 11
245.01455139817233
 21
462.64466878220253
 31
0.0
  0
LINE
  5
51
100
AcDbEntity
  8
0
  6
Continuous
 62
               4
100
AcDbLine
 10
239.01455139817233
 20
429.64466878220253
 30
0.0
 11
224.0145513981754
 21
429.64466878220253
 31
0.0
  0
LINE
  5
52
100
AcDbEntity
  8
0
  6
Continuous
 62
               4
100
AcDbLine
 10
374.97757235860365
 20
397.53800778168954
 30
0.0
 11
395.00960106504454
 21
432.23449927992317
 31
0.0
  0
LINE
  5
53
100
AcDbEntity
  8
0
  6
Continuous
 62
               4
100
AcDbLine
 10
395.00960106504454
 20
432.23449927992317
 30
0.0
 11
419.52857116909593
 21
432.23449927992317
 31
0.0
  0
LINE
  5
54
100
AcDbEntity
  8
0
  6
Continuous
 62
               4
100
AcDbLine
 10
374.97757235860365
 20
397.53800778168954
 30
0.0
 11
378.05575364853462
 21
405.99524136876278
 31
0.0
  0
LINE
  5
55
100
AcDbEntity
  8
0
  6
Continuous
 62
               4
100
AcDbLine
 10
374.97757235860365
 20
397.53800778168954
 30
0.0
 11
380.76266084578242
 21
404.43240776976029
 31
0.0
  0
LINE
  5
56
100
AcDbEntity
  8
0
  6
Continuous
 62
               4
100
AcDbLine
 10
239.01455139817233
 20
381.6446687822023
 30
0.0
 11
224.01455139817244
 21
381.6446687822023
 31
0.0
  0
LINE
  5
57
100
AcDbEntity
  8
0
  6
Continuous
 62
               4
100
AcDbLine
 10
239.01455139817233
 20
281.6446687822023
 30
0.0
 11
224.01455139817244
 21
281.6446687822023
 31
0.0
  0
LINE
  5
58
100
AcDbEntity
  8
0
  6
Continuous
 62
               4
100
AcDbLine
 10
227.01455139817244
 20
381.6446687822023
 30
0.0
 11
227.01455139817244
 21
281.6446687822023
 31
0.0
  0
LINE
  5
59
100
AcDbEntity
  8
0
  6
Continuous
 62
               4
100
AcDbLine
 10
600.0145513981704
 20
247.90656801282108
 30
0.0
 11
626.10919654635131
 21
202.70931681069106
 31
0.0
  0
LINE
  5
5A
100
AcDbEntity
  8
0
  6
Continuous
 62
               4
100
AcDbLine
 10
626.10919654635131
 20
202.70931681069106
 30
0.0
 11
662.89561665008523
 21
202.70931681069106
 31
0.0
  0
LINE
  5
5B
100
AcDbEntity
  8
0
  6
Continuous
 62
               4
100
AcDbLine
 10
600.0145513981704
 20
247.90656801282108
 30
0.0
 11
605.79963988534928
 21
241.01216802475028
 31
0.0
  0
LINE
  5
5C
100
AcDbEntity
  8
0
  6
Continuous
 62
               4
100
AcDbLine
 10
600.0145513981704
 20
247.90656801282108
 30
0.0
 11
603.09273268810148
 21
239.44933442574796
 31
0.0
  0
LINE
  5
5D
100
AcDbEntity
  8
0
  6
Continuous
 62
               4
100
AcDbLine
 10
605.01455139817222
 20
362.64466878220253
 30
0.0
 11
632.10767120574542
 21
315.71800873993499
 31
0.0
  0
LINE
  5
5E
100
AcDbEntity
  8
0
  6
Continuous
 62
               4
100
AcDbLine
 10
632.10767120574542
 20
315.71800873993499
 30
0.0
 11
657.8787115302639
 21
315.71800873993499
 31
0.0
  0
LINE
  5
5F
100
AcDbEntity
  8
0
  6
Continuous
 62
               4
100
AcDbLine
 10
605.01455139817222
 20
362.64466878220253
 30
0.0
 11
610.79963988535087
 21
355.75026879413156
 31
0.0
  0
LINE
  5
60
100
AcDbEntity
  8
0
  6
Continuous
 62
               4
100
AcDbLine
 10
605.01455139817222
 20
362.64466878220253
 30
0.0
 11
608.09273268810307
 21
354.1874351951293
 31
0.0
  0
LINE
  5
61
100
AcDbEntity
  8
0
  6
Continuous
 62
               4
100
AcDbLine
 10
548.21455139817226
 20
339.28918572686609
 30
0.0
 11
625.23435701812832
 21
262.26938010691015
 31
0.0
  0
LINE
  5
62
100
AcDbEntity
  8
0
  6
Continuous
 62
               4
100
AcDbLine
 10
625.23435701812832
 20
262.26938010691015
 30
0.0
 11
662.93180592127351
 21
262.26938010691015
 31
0.0
  0
LINE
  5
63
100
AcDbEntity
  8
0
  6
Continuous
 62
               4
100
AcDbLine
 10
548.21455139817226
 20
339.28918572686609
 30
0.0
 11
555.58691979677315
 21
334.12699779970683
 31
0.0
  0
LINE
  5
64
100
AcDbEntity
  8
0
  6
Continuous
 62
               4
100
AcDbLine
 10
548.21455139817226
 20
339.28918572686609
 30
0.0
 11
553.37673932533164
 21
331.91681732826521
 31
0.0
  0
LINE
  5
65
100
AcDbEntity
  8
0
  6
Continuous
 62
               7
100
AcDbLine
 10
578.07804325921256
 20
260.14466878221748
 30
0.0
 11
596.07804325921256
 21
278.14466878221748
 31
0.0
  0
LINE
  5
66
100
AcDbEntity
  8
0
  6
Continuous
 62
               7
100
AcDbLine
 10
571.00697544734726
 20
260.14466878221748
 30
0.0
 11
589.00697544734726
 21
278.14466878221748
 31
0.0
  0
LINE
  5
67
100
AcDbEntity
  8
0
  6
Continuous
 62
               7
100
AcDbLine
 10
563.93590763548195
 20
260.14466878221748
 30
0.0
 11
581.9359076354815
 21
278.14466878221748
 31
0.0
  0
LINE
  5
68
100
AcDbEntity
  8
0
  6
Continuous
 62
               7
100
AcDbLine
 10
556.86483982361631
 20
260.14466878221748
 30
0.0
 11
574.86483982361619
 21
278.14466878221748
 31
0.0
  0
LINE
  5
69
100
AcDbEntity
  8
0
  6
Continuous
 62
               7
100
AcDbLine
 10
549.793772011751
 20
260.14466878221748
 30
0.0
 11
567.79377201175089
 21
278.14466878221748
 31
0.0
  0
LINE
  5
6A
100
AcDbEntity
  8
0
  6
Continuous
 62
               7
100
AcDbLine
 10
542.72270419988547
 20
260.14466878221748
 30
0.0
 11
560.72270419988558
 21
278.14466878221748
 31
0.0
  0
LINE
  5
6B
100
AcDbEntity
  8
0
  6
Continuous
 62
               7
100
AcDbLine
 10
535.65163638801994
 20
260.14466878221748
 30
0.0
 11
553.65163638801994
 21
278.14466878221748
 31
0.0
  0
LINE
  5
6C
100
AcDbEntity
  8
0
  6
Continuous
 62
               7
100
AcDbLine
 10
528.58056857615463
 20
260.14466878221748
 30
0.0
 11
546.58056857615463
 21
278.14466878221748
 31
0.0
  0
LINE
  5
6D
100
AcDbEntity
  8
0
  6
Continuous
 62
               7
100
AcDbLine
 10
521.50950076428887
 20
260.14466878221748
 30
0.0
 11
539.50950076428887
 21
278.14466878221748
 31
0.0
  0
LINE
  5
6E
100
AcDbEntity
  8
0
  6
Continuous
 62
               7
100
AcDbLine
 10
514.43843295242357
 20
260.14466878221748
 30
0.0
 11
532.43843295242357
 21
278.14466878221748
 31
0.0
  0
LINE
  5
6F
100
AcDbEntity
  8
0
  6
Continuous
 62
               7
100
AcDbLine
 10
507.36736514055804
 20
260.14466878221748
 30
0.0
 11
525.36736514055804
 21
278.14466878221748
 31
0.0
  0
LINE
  5
70
100
AcDbEntity
  8
0
  6
Continuous
 62
               7
100
AcDbLine
 10
500.2962973286925
 20
260.14466878221748
 30
0.0
 11
518.2962973286925
 21
278.14466878221748
 31
0.0
  0
LINE
  5
71
100
AcDbEntity
  8
0
  6
Continuous
 62
               7
100
AcDbLine
 10
493.2252295168272
 20
260.14466878221748
 30
0.0
 11
511.2252295168272
 21
278.14466878221748
 31
0.0
  0
LINE
  5
72
100
AcDbEntity
  8
0
  6
Continuous
 62
               7
100
AcDbLine
 10
486.15416170496167
 20
260.14466878221748
 30
0.0
 11
504.15416170496167
 21
278.14466878221748
 31
0.0
  0
LINE
  5
73
100
AcDbEntity
  8
0
  6
Continuous
 62
               7
100
AcDbLine
 10
479.08309389309613
 20
260.14466878221748
 30
0.0
 11
497.08309389309613
 21
278.14466878221748
 31
0.0
  0
LINE
  5
74
100
AcDbEntity
  8
0
  6
Continuous
 62
               7
100
AcDbLine
 10
472.01202608123083
 20
260.14466878221748
 30
0.0
 11
490.01202608123083
 21
278.14466878221748
 31
0.0
  0
LINE
  5
75
100
AcDbEntity
  8
0
  6
Continuous
 62
               7
100
AcDbLine
 10
464.94095826936507
 20
260.14466878221748
 30
0.0
 11
482.94095826936507
 21
278.14466878221748
 31
0.0
  0
LINE
  5
76
100
AcDbEntity
  8
0
  6
Continuous
 62
               7
100
AcDbLine
 10
457.86989045749976
 20
260.14466878221748
 30
0.0
 11
475.86989045749976
 21
278.14466878221748
 31
0.0
  0
LINE
  5
77
100
AcDbEntity
  8
0
  6
Continuous
 62
               7
100
AcDbLine
 10
450.79882264563423
 20
260.14466878221748
 30
0.0
 11
468.79882264563423
 21
278.14466878221748
 31
0.0
  0
LINE
  5
78
100
AcDbEntity
  8
0
  6
Continuous
 62
               7
100
AcDbLine
 10
443.7277548337687
 20
260.14466878221748
 30
0.0
 11
461.7277548337687
 21
278.14466878221748
 31
0.0
  0
LINE
  5
79
100
AcDbEntity
  8
0
  6
Continuous
 62
               7
100
AcDbLine
 10
436.65668702190339
 20
260.14466878221748
 30
0.0
 11
454.65668702190339
 21
278.14466878221748
 31
0.0
  0
LINE
  5
7A
100
AcDbEntity
  8
0
  6
Continuous
 62
               7
100
AcDbLine
 10
429.58561921003786
 20
260.14466878221748
 30
0.0
 11
447.58561921003786
 21
278.14466878221748
 31
0.0
  0
LINE
  5
7B
100
AcDbEntity
  8
0
  6
Continuous
 62
               7
100
AcDbLine
 10
422.51455902576015
 20
260.14466878221748
 30
0.0
 11
440.51454758437865
 21
278.14466878221748
 31
0.0
  0
LINE
  5
7C
100
AcDbEntity
  8
0
  6
Continuous
 62
               7
100
AcDbLine
 10
415.44348358630702
 20
260.14466878221748
 30
0.0
 11
433.44348358630702
 21
278.14466878221748
 31
0.0
  0
LINE
  5
7D
100
AcDbEntity
  8
0
  6
Continuous
 62
               7
100
AcDbLine
 10
408.37241577444127
 20
260.14466878221748
 30
0.0
 11
426.37241577444127
 21
278.14466878221748
 31
0.0
  0
LINE
  5
7E
100
AcDbEntity
  8
0
  6
Continuous
 62
               7
100
AcDbLine
 10
401.30134796257596
 20
260.14466878221748
 30
0.0
 11
419.30134796257596
 21
278.14466878221748
 31
0.0
  0
LINE
  5
7F
100
AcDbEntity
  8
0
  6
Continuous
 62
               7
100
AcDbLine
 10
394.23028015071043
 20
260.14466878221748
 30
0.0
 11
412.23028015071043
 21
278.14466878221748
 31
0.0
  0
LINE
  5
80
100
AcDbEntity
  8
0
  6
Continuous
 62
               7
100
AcDbLine
 10
387.1592123388449
 20
260.14466878221748
 30
0.0
 11
405.1592123388449
 21
278.14466878221748
 31
0.0
  0
LINE
  5
81
100
AcDbEntity
  8
0
  6
Continuous
 62
               7
100
AcDbLine
 10
380.08814452697959
 20
260.14466878221748
 30
0.0
 11
398.08814452697959
 21
278.14466878221748
 31
0.0
  0
LINE
  5
82
100
AcDbEntity
  8
0
  6
Continuous
 62
               7
100
AcDbLine
 10
373.01707671511383
 20
260.14466878221748
 30
0.0
 11
391.01707671511406
 21
278.14466878221748
 31
0.0
  0
LINE
  5
83
100
AcDbEntity
  8
0
  6
Continuous
 62
               7
100
AcDbLine
 10
365.94600890324853
 20
260.14466878221748
 30
0.0
 11
383.94600890324853
 21
278.14466878221748
 31
0.0
  0
LINE
  5
84
100
AcDbEntity
  8
0
  6
Continuous
 62
               7
100
AcDbLine
 10
358.87494109138322
 20
260.14466878221748
 30
0.0
 11
376.87494109138322
 21
278.14466878221748
 31
0.0
  0
LINE
  5
85
100
AcDbEntity
  8
0
  6
Continuous
 62
               7
100
AcDbLine
 10
351.80387327951746
 20
260.14466878221748
 30
0.0
 11
369.80387327951746
 21
278.14466878221748
 31
0.0
  0
LINE
  5
86
100
AcDbEntity
  8
0
  6
Continuous
 62
               7
100
AcDbLine
 10
344.73280546765216
 20
260.14466878221748
 30
0.0
 11
362.73280546765216
 21
278.14466878221748
 31
0.0
  0
LINE
  5
87
100
AcDbEntity
  8
0
  6
Continuous
 62
               7
100
AcDbLine
 10
337.66173765578662
 20
260.14466878221748
 30
0.0
 11
355.66173765578662
 21
278.14466878221748
 31
0.0
  0
LINE
  5
88
100
AcDbEntity
  8
0
  6
Continuous
 62
               7
100
AcDbLine
 10
330.59066984392109
 20
260.14466878221748
 30
0.0
 11
348.59066984392109
 21
278.14466878221748
 31
0.0
  0
LINE
  5
89
100
AcDbEntity
  8
0
  6
Continuous
 62
               7
100
AcDbLine
 10
288.16426297272835
 20
260.14466878221748
 30
0.0
 11
306.16426297272835
 21
278.14466878221748
 31
0.0
  0
LINE
  5
8A
100
AcDbEntity
  8
0
  6
Continuous
 62
               7
100
AcDbLine
 10
281.09319516086282
 20
260.14466878221748
 30
0.0
 11
299.09319516086282
 21
278.14466878221748
 31
0.0
  0
LINE
  5
8B
100
AcDbEntity
  8
0
  6
Continuous
 62
               7
100
AcDbLine
 10
274.02212734899729
 20
260.14466878221748
 30
0.0
 11
292.02212734899729
 21
278.14466878221748
 31
0.0
  0
LINE
  5
8C
100
AcDbEntity
  8
0
  6
Continuous
 62
               7
100
AcDbLine
 10
266.95105953713198
 20
260.14466878221748
 30
0.0
 11
284.95105953713198
 21
278.14466878221748
 31
0.0
  0
LINE
  5
8D
100
AcDbEntity
  8
0
  6
Continuous
 62
               7
100
AcDbLine
 10
259.87999172526622
 20
260.14466878221748
 30
0.0
 11
277.87999172526622
 21
278.14466878221748
 31
0.0
  0
LINE
  5
8E
100
AcDbEntity
  8
0
  6
Continuous
 62
               7
100
AcDbLine
 10
252.80892391340092
 20
260.14466878221748
 30
0.0
 11
270.80892391340092
 21
278.14466878221748
 31
0.0
  0
LINE
  5
8F
100
AcDbEntity
  8
0
  6
Continuous
 62
               7
100
AcDbLine
 10
245.73785610153539
 20
260.14466878221748
 30
0.0
 11
263.73785610153539
 21
278.14466878221748
 31
0.0
  0
LINE
  5
90
100
AcDbEntity
  8
0
  6
Continuous
 62
               7
100
AcDbLine
 10
245.01455139817233
 20
266.49243189071996
 30
0.0
 11
256.66678828966985
 21
278.14466878221748
 31
0.0
  0
LINE
  5
91
100
AcDbEntity
  8
0
  6
Continuous
 62
               7
100
AcDbLine
 10
245.01455139817233
 20
273.56349970258526
 30
0.0
 11
249.59572047780455
 21
278.14466878221748
 31
0.0
  0
LINE
  5
92
100
AcDbEntity
  8
0
  6
Continuous
 62
               6
100
AcDbLine
 10
532.01455139817233
 20
240.14466873453358
 30
0.0
 11
534.31455135048861
 21
240.14466873453358
 31
0.0
  0
LINE
  5
93
100
AcDbEntity
  8
0
  6
Continuous
 62
               6
100
AcDbLine
 10
534.31455135048861
 20
180.14466873453358
 30
0.0
 11
532.01455139817233
 21
180.14466873453358
 31
0.0
  0
LINE
  5
94
100
AcDbEntity
  8
0
  6
Continuous
 62
               6
100
AcDbLine
 10
531.01453921712971
 20
260.14466861272336
 30
0.0
 11
531.01455139817233
 21
160.14466861272314
 31
0.0
  0
LINE
  5
95
100
AcDbEntity
  8
0
  6
Continuous
 62
               6
100
AcDbLine
 10
534.31455135048861
 20
162.44466868684987
 30
0.0
 11
534.31455135048861
 21
180.14466873453358
 31
0.0
  0
LINE
  5
96
100
AcDbEntity
  8
0
  6
Continuous
 62
               6
100
AcDbLine
 10
579.71455144585593
 20
162.44466868684987
 30
0.0
 11
534.31455135048861
 21
162.44466868684987
 31
0.0
  0
LINE
  5
97
100
AcDbEntity
  8
0
  6
Continuous
 62
               6
100
AcDbLine
 10
579.71455144585593
 20
257.84466878221752
 30
0.0
 11
579.71455144585593
 21
162.44466868684987
 31
0.0
  0
LINE
  5
98
100
AcDbEntity
  8
0
  6
Continuous
 62
               6
100
AcDbLine
 10
534.31455135048861
 20
257.84466878221752
 30
0.0
 11
579.71455144585593
 21
257.84466878221752
 31
0.0
  0
LINE
  5
99
100
AcDbEntity
  8
0
  6
Continuous
 62
               6
100
AcDbLine
 10
534.31455135048861
 20
257.84466878221752
 30
0.0
 11
534.31455135048861
 21
240.14466873453358
 31
0.0
  0
LINE
  5
9A
100
AcDbEntity
  8
0
  6
Continuous
 62
               6
100
AcDbLine
 10
532.01455139817233
 20
257.84466873453385
 30
0.0
 11
532.01455139817233
 21
240.14466873453358
 31
0.0
  0
LINE
  5
9B
100
AcDbEntity
  8
0
  6
Continuous
 62
               6
100
AcDbLine
 10
579.71455139817249
 20
260.14466873453381
 30
0.0
 11
534.31455139817228
 21
260.14466873453381
 31
0.0
  0
LINE
  5
9C
100
AcDbEntity
  8
0
  6
Continuous
 62
               6
100
AcDbLine
 10
582.01455139817222
 20
162.44466873453354
 30
0.0
 11
582.01455139817222
 21
257.84466873453385
 31
0.0
  0
LINE
  5
9D
100
AcDbEntity
  8
0
  6
Continuous
 62
               6
100
AcDbLine
 10
534.31455139817228
 20
160.14466873453358
 30
0.0
 11
579.71455139817203
 21
160.14466873453358
 31
0.0
  0
LINE
  5
9E
100
AcDbEntity
  8
0
  6
Continuous
 62
               6
100
AcDbLine
 10
532.01455139817233
 20
162.44466873453354
 30
0.0
 11
532.01455139817233
 21
180.14466873453358
 31
0.0
  0
LINE
  5
9F
100
AcDbEntity
  8
0
  6
Continuous
 62
               6
100
AcDbLine
 10
531.0145489619639
 20
180.14466878221725
 30
0.0
 11
245.01455139817233
 21
180.14466878221725
 31
0.0
  0
LINE
  5
A0
100
AcDbEntity
  8
0
  6
DASHED
 62
               6
100
AcDbLine
 10
531.0145511180084
 20
162.44466878221721
 30
0.0
 11
245.01455139817233
 21
162.44466878221721
 31
0.0
  0
LINE
  5
A1
100
AcDbEntity
  8
0
  6
Continuous
 62
               6
100
AcDbLine
 10
531.01455139817233
 20
160.14466878221725
 30
0.0
 11
245.01455139817233
 21
160.14466878221725
 31
0.0
  0
LINE
  5
A2
100
AcDbEntity
  8
0
  6
Continuous
 62
               6
100
AcDbLine
 10
531.01454165333814
 20
240.14466878221725
 30
0.0
 11
245.01455139817233
 21
240.14466878221725
 31
0.0
  0
LINE
  5
A3
100
AcDbEntity
  8
0
  6
DASHED
 62
               6
100
AcDbLine
 10
531.01453949729364
 20
257.84466878221752
 30
0.0
 11
245.01455139817233
 21
257.84466878221775
 31
0.0
  0
LINE
  5
A4
100
AcDbEntity
  8
0
  6
Continuous
 62
               7
100
AcDbLine
 10
582.01455139817222
 20
257.84466873453385
 30
0.0
 11
597.01455139817222
 21
257.84466873453385
 31
0.0
  0
LINE
  5
A5
100
AcDbEntity
  8
0
  6
Continuous
 62
               3
100
AcDbLine
 10
597.01455139817222
 20
260.14466878221748
 30
0.0
 11
597.01455139817222
 21
278.14466878221748
 31
0.0
  0
LINE
  5
A6
100
AcDbEntity
  8
0
  6
Continuous
 62
               3
100
AcDbLine
 10
597.01455139817222
 20
260.14466878221748
 30
0.0
 11
245.01455139817233
 21
260.14466878221748
 31
0.0
  0
LINE
  5
A7
100
AcDbEntity
  8
0
  6
Continuous
 62
               7
100
AcDbLine
 10
597.01455139817222
 20
264.93904129744584
 30
0.0
 11
592.22017888294363
 21
260.14466878221748
 31
0.0
  0
LINE
  5
A8
100
AcDbEntity
  8
0
  6
Continuous
 62
               7
100
AcDbLine
 10
597.01455139817222
 20
272.01010910931137
 30
0.0
 11
585.14911107107832
 21
260.14466878221748
 31
0.0
  0
LINE
  5
A9
100
AcDbEntity
  8
0
  6
Continuous
 62
               3
100
AcDbLine
 10
597.01455139817222
 20
278.14466878221748
 30
0.0
 11
245.01455139817233
 21
278.14466878221748
 31
0.0
  0
LINE
  5
AA
100
AcDbEntity
  8
0
  6
DASHED
 62
               6
100
AcDbLine
 10
597.01455139817222
 20
279.14466878221748
 30
0.0
 11
245.01455139817233
 21
279.14466878221748
 31
0.0
  0
LINE
  5
AB
100
AcDbEntity
  8
0
  6
Continuous
 62
               7
100
AcDbLine
 10
597.01455139817222
 20
60.144668734533525
 30
0.0
 11
597.01455139817222
 21
257.84466873453385
 31
0.0
  0
LINE
  5
AC
100
AcDbEntity
  8
0
  6
Continuous
 62
               7
100
AcDbLine
 10
582.01455139817222
 20
60.144668734533525
 30
0.0
 11
597.01455139817222
 21
60.144668734533525
 31
0.0
  0
LINE
  5
AD
100
AcDbEntity
  8
0
  6
Continuous
 62
               7
100
AcDbLine
 10
582.01455139817222
 20
60.144668734533525
 30
0.0
 11
582.01455139817222
 21
257.84466873453385
 31
0.0
  0
LINE
  5
AE
100
AcDbEntity
  8
0
  6
Continuous
 62
               7
100
AcDbLine
 10
316.44853422019003
 20
260.14466878221748
 30
0.0
 11
334.44853422019025
 21
278.14466878221748
 31
0.0
  0
LINE
  5
AF
100
AcDbEntity
  8
0
  6
Continuous
 62
               7
100
AcDbLine
 10
309.37746640832472
 20
260.14466878221748
 30
0.0
 11
327.37746640832472
 21
278.14466878221748
 31
0.0
  0
LINE
  5
B0
100
AcDbEntity
  8
0
  6
Continuous
 62
               7
100
AcDbLine
 10
323.51960203205556
 20
260.14466878221748
 30
0.0
 11
341.51960203205579
 21
278.14466878221748
 31
0.0
  0
LINE
  5
B1
100
AcDbEntity
  8
0
  6
Continuous
 62
               7
100
AcDbLine
 10
313.23533078459366
 20
278.14466878221748
 30
0.0
 11
295.23533078459366
 21
260.14466878221748
 31
0.0
  0
LINE
  5
B2
100
AcDbEntity
  8
0
  6
Continuous
 62
               7
100
AcDbLine
 10
320.30639859645919
 20
278.14466878221748
 30
0.0
 11
302.30639859645919
 21
260.14466878221748
 31
0.0
  0
LINE
  5
B3
100
AcDbEntity
  8
0
  6
Continuous
 62
               7
100
AcDbLine
 10
403.91455139817572
 20
280.6446687822023
 30
0.0
 11
346.11455139817554
 21
280.6446687822023
 31
0.0
  0
LINE
  5
B4
100
AcDbEntity
  8
0
  6
Continuous
 62
               7
100
AcDbLine
 10
370.86454979391772
 20
285.6446555470759
 30
0.0
 11
346.11455139817554
 21
285.6446687822023
 31
0.0
  0
LINE
  5
B5
100
AcDbEntity
  8
0
  6
Continuous
 62
               7
100
AcDbLine
 10
379.1645513981756
 20
285.6446687822023
 30
0.0
 11
403.91455139817572
 21
285.6446687822023
 31
0.0
  0
LINE
  5
B6
100
AcDbEntity
  8
0
  6
Continuous
 62
               7
100
AcDbLine
 10
356.16556705134906
 20
247.8245601193484
 30
0.0
 11
356.16556705134951
 21
283.8245601193484
 31
0.0
  0
LINE
  5
B7
100
AcDbEntity
  8
0
  6
Continuous
 62
               7
100
AcDbLine
 10
353.66556705134951
 20
286.3245601193484
 30
0.0
 11
353.66556705134951
 21
285.8245601193484
 31
0.0
  0
LINE
  5
B8
100
AcDbEntity
  8
0
  6
Continuous
 62
               7
100
AcDbLine
 10
361.16556705134906
 20
247.8245601193484
 30
0.0
 11
361.16556705134951
 21
283.8245601193484
 31
0.0
  0
LINE
  5
B9
100
AcDbEntity
  8
0
  6
Continuous
 62
               7
100
AcDbLine
 10
363.6655670513494
 20
286.3245601193484
 30
0.0
 11
363.6655670513494
 21
285.8245601193484
 31
0.0
  0
LINE
  5
BA
100
AcDbEntity
  8
0
  6
Continuous
 62
               7
100
AcDbLine
 10
353.66556705134951
 20
286.3245601193484
 30
0.0
 11
363.6655670513494
 21
286.3245601193484
 31
0.0
  0
LINE
  5
BB
100
AcDbEntity
  8
0
  6
Continuous
 62
               7
100
AcDbLine
 10
356.16556705134951
 20
283.8245601193484
 30
0.0
 11
361.16556705134951
 21
283.8245601193484
 31
0.0
  0
LINE
  5
BC
100
AcDbEntity
  8
0
  6
Continuous
 62
               7
100
AcDbLine
 10
353.66556705134951
 20
285.8245601193484
 30
0.0
 11
356.16556705134951
 21
283.8245601193484
 31
0.0
  0
LINE
  5
BD
100
AcDbEntity
  8
0
  6
Continuous
 62
               7
100
AcDbLine
 10
361.16556705134951
 20
283.8245601193484
 30
0.0
 11
363.6655670513494
 21
285.8245601193484
 31
0.0
  0
LINE
  5
BE
100
AcDbEntity
  8
0
  6
Continuous
 62
               7
100
AcDbLine
 10
353.66556705134951
 20
285.8245601193484
 30
0.0
 11
363.6655670513494
 21
285.8245601193484
 31
0.0
  0
LINE
  5
BF
100
AcDbEntity
  8
0
  6
Continuous
 62
               7
100
AcDbLine
 10
356.16556705134906
 20
247.8245601193484
 30
0.0
 11
358.66556705134906
 21
246.3245601193484
 31
0.0
  0
LINE
  5
C0
100
AcDbEntity
  8
0
  6
Continuous
 62
               7
100
AcDbLine
 10
361.16556705134906
 20
247.8245601193484
 30
0.0
 11
358.66556705134906
 21
246.3245601193484
 31
0.0
  0
LINE
  5
C1
100
AcDbEntity
  8
0
  6
Continuous
 62
               7
100
AcDbLine
 10
356.16556705134951
 20
276.8245601193484
 30
0.0
 11
361.16556705134951
 21
278.8245601193484
 31
0.0
  0
LINE
  5
C2
100
AcDbEntity
  8
0
  6
Continuous
 62
               7
100
AcDbLine
 10
356.16556705134951
 20
274.8245601193484
 30
0.0
 11
361.16556705134951
 21
276.8245601193484
 31
0.0
  0
LINE
  5
C3
100
AcDbEntity
  8
0
  6
Continuous
 62
               7
100
AcDbLine
 10
356.16556705134951
 20
272.8245601193484
 30
0.0
 11
361.16556705134951
 21
274.8245601193484
 31
0.0
  0
LINE
  5
C4
100
AcDbEntity
  8
0
  6
Continuous
 62
               7
100
AcDbLine
 10
356.16556705134951
 20
270.8245601193484
 30
0.0
 11
361.16556705134951
 21
272.8245601193484
 31
0.0
  0
LINE
  5
C5
100
AcDbEntity
  8
0
  6
Continuous
 62
               7
100
AcDbLine
 10
356.16556705134951
 20
268.8245601193484
 30
0.0
 11
361.16556705134951
 21
270.8245601193484
 31
0.0
  0
LINE
  5
C6
100
AcDbEntity
  8
0
  6
Continuous
 62
               7
100
AcDbLine
 10
356.16556705134929
 20
266.8245601193484
 30
0.0
 11
361.16556705134929
 21
268.8245601193484
 31
0.0
  0
LINE
  5
C7
100
AcDbEntity
  8
0
  6
Continuous
 62
               7
100
AcDbLine
 10
356.16556705134929
 20
264.8245601193484
 30
0.0
 11
361.16556705134929
 21
266.8245601193484
 31
0.0
  0
LINE
  5
C8
100
AcDbEntity
  8
0
  6
Continuous
 62
               7
100
AcDbLine
 10
356.16556705134929
 20
262.8245601193484
 30
0.0
 11
361.16556705134929
 21
264.82456011934863
 31
0.0
  0
LINE
  5
C9
100
AcDbEntity
  8
0
  6
Continuous
 62
               7
100
AcDbLine
 10
356.16556705134906
 20
260.8245601193484
 30
0.0
 11
361.16556705134929
 21
262.8245601193484
 31
0.0
  0
LINE
  5
CA
100
AcDbEntity
  8
0
  6
Continuous
 62
               7
100
AcDbLine
 10
356.16556705134906
 20
258.8245601193484
 30
0.0
 11
361.16556705134906
 21
260.8245601193484
 31
0.0
  0
LINE
  5
CB
100
AcDbEntity
  8
0
  6
Continuous
 62
               7
100
AcDbLine
 10
356.16556705134906
 20
256.8245601193484
 30
0.0
 11
361.16556705134906
 21
258.8245601193484
 31
0.0
  0
LINE
  5
CC
100
AcDbEntity
  8
0
  6
Continuous
 62
               7
100
AcDbLine
 10
356.16556705134906
 20
254.8245601193484
 30
0.0
 11
359.16556705134929
 21
256.02456011934868
 31
0.0
  0
LINE
  5
CD
100
AcDbEntity
  8
0
  6
Continuous
 62
               7
100
AcDbLine
 10
360.66556705134906
 20
248.3245601193484
 30
0.0
 11
360.66556705134929
 21
256.62456011934859
 31
0.0
  0
LINE
  5
CE
100
AcDbEntity
  8
0
  6
Continuous
 62
               7
100
AcDbLine
 10
359.16556705134929
 20
256.02456011934845
 30
0.0
 11
360.21556705134924
 21
257.07456011934863
 31
0.0
  0
LINE
  5
CF
100
AcDbEntity
  8
0
  6
Continuous
 62
               7
100
AcDbLine
 10
360.66556705134929
 20
256.62456011934859
 30
0.0
 11
360.21556705134924
 21
257.07456011934863
 31
0.0
  0
LINE
  5
D0
100
AcDbEntity
  8
0
  6
Continuous
 62
               7
100
AcDbLine
 10
360.66556705134929
 20
256.62456011934859
 30
0.0
 11
361.16556705134906
 21
256.8245601193484
 31
0.0
  0
LINE
  5
D1
100
AcDbEntity
  8
0
  6
Continuous
 62
               7
100
AcDbLine
 10
361.16556705134906
 20
247.8245601193484
 30
0.0
 11
360.66556705134906
 21
248.3245601193484
 31
0.0
  0
LINE
  5
D2
100
AcDbEntity
  8
0
  6
Continuous
 62
               7
100
AcDbLine
 10
393.8635357450022
 20
247.8245601193484
 30
0.0
 11
393.86353574500174
 21
283.8245601193484
 31
0.0
  0
LINE
  5
D3
100
AcDbEntity
  8
0
  6
Continuous
 62
               7
100
AcDbLine
 10
396.36353574500174
 20
286.3245601193484
 30
0.0
 11
396.36353574500174
 21
285.8245601193484
 31
0.0
  0
LINE
  5
D4
100
AcDbEntity
  8
0
  6
Continuous
 62
               7
100
AcDbLine
 10
388.8635357450022
 20
247.8245601193484
 30
0.0
 11
388.86353574500174
 21
283.8245601193484
 31
0.0
  0
LINE
  5
D5
100
AcDbEntity
  8
0
  6
Continuous
 62
               7
100
AcDbLine
 10
386.36353574500185
 20
286.3245601193484
 30
0.0
 11
386.36353574500185
 21
285.8245601193484
 31
0.0
  0
LINE
  5
D6
100
AcDbEntity
  8
0
  6
Continuous
 62
               7
100
AcDbLine
 10
396.36353574500174
 20
286.3245601193484
 30
0.0
 11
386.36353574500185
 21
286.3245601193484
 31
0.0
  0
LINE
  5
D7
100
AcDbEntity
  8
0
  6
Continuous
 62
               7
100
AcDbLine
 10
393.86353574500174
 20
283.8245601193484
 30
0.0
 11
388.86353574500174
 21
283.8245601193484
 31
0.0
  0
LINE
  5
D8
100
AcDbEntity
  8
0
  6
Continuous
 62
               7
100
AcDbLine
 10
396.36353574500174
 20
285.8245601193484
 30
0.0
 11
393.86353574500174
 21
283.8245601193484
 31
0.0
  0
LINE
  5
D9
100
AcDbEntity
  8
0
  6
Continuous
 62
               7
100
AcDbLine
 10
388.86353574500174
 20
283.8245601193484
 30
0.0
 11
386.36353574500185
 21
285.8245601193484
 31
0.0
  0
LINE
  5
DA
100
AcDbEntity
  8
0
  6
Continuous
 62
               7
100
AcDbLine
 10
396.36353574500174
 20
285.8245601193484
 30
0.0
 11
386.36353574500185
 21
285.8245601193484
 31
0.0
  0
LINE
  5
DB
100
AcDbEntity
  8
0
  6
Continuous
 62
               7
100
AcDbLine
 10
393.8635357450022
 20
247.8245601193484
 30
0.0
 11
391.3635357450022
 21
246.3245601193484
 31
0.0
  0
LINE
  5
DC
100
AcDbEntity
  8
0
  6
Continuous
 62
               7
100
AcDbLine
 10
388.8635357450022
 20
247.8245601193484
 30
0.0
 11
391.3635357450022
 21
246.3245601193484
 31
0.0
  0
LINE
  5
DD
100
AcDbEntity
  8
0
  6
Continuous
 62
               7
100
AcDbLine
 10
393.86353574500174
 20
276.8245601193484
 30
0.0
 11
388.86353574500174
 21
278.8245601193484
 31
0.0
  0
LINE
  5
DE
100
AcDbEntity
  8
0
  6
Continuous
 62
               7
100
AcDbLine
 10
393.86353574500174
 20
274.8245601193484
 30
0.0
 11
388.86353574500174
 21
276.8245601193484
 31
0.0
  0
LINE
  5
DF
100
AcDbEntity
  8
0
  6
Continuous
 62
               7
100
AcDbLine
 10
393.86353574500174
 20
272.8245601193484
 30
0.0
 11
388.86353574500174
 21
274.8245601193484
 31
0.0
  0
LINE
  5
E0
100
AcDbEntity
  8
0
  6
Continuous
 62
               7
100
AcDbLine
 10
393.86353574500174
 20
270.8245601193484
 30
0.0
 11
388.86353574500174
 21
272.8245601193484
 31
0.0
  0
LINE
  5
E1
100
AcDbEntity
  8
0
  6
Continuous
 62
               7
100
AcDbLine
 10
393.86353574500174
 20
268.8245601193484
 30
0.0
 11
388.86353574500174
 21
270.8245601193484
 31
0.0
  0
LINE
  5
E2
100
AcDbEntity
  8
0
  6
Continuous
 62
               7
100
AcDbLine
 10
393.86353574500197
 20
266.8245601193484
 30
0.0
 11
388.86353574500197
 21
268.8245601193484
 31
0.0
  0
LINE
  5
E3
100
AcDbEntity
  8
0
  6
Continuous
 62
               7
100
AcDbLine
 10
393.86353574500197
 20
264.8245601193484
 30
0.0
 11
388.86353574500197
 21
266.8245601193484
 31
0.0
  0
LINE
  5
E4
100
AcDbEntity
  8
0
  6
Continuous
 62
               7
100
AcDbLine
 10
393.86353574500197
 20
262.8245601193484
 30
0.0
 11
388.86353574500197
 21
264.82456011934863
 31
0.0
  0
LINE
  5
E5
100
AcDbEntity
  8
0
  6
Continuous
 62
               7
100
AcDbLine
 10
393.8635357450022
 20
260.8245601193484
 30
0.0
 11
388.86353574500197
 21
262.8245601193484
 31
0.0
  0
LINE
  5
E6
100
AcDbEntity
  8
0
  6
Continuous
 62
               7
100
AcDbLine
 10
393.8635357450022
 20
258.8245601193484
 30
0.0
 11
388.8635357450022
 21
260.8245601193484
 31
0.0
  0
LINE
  5
E7
100
AcDbEntity
  8
0
  6
Continuous
 62
               7
100
AcDbLine
 10
393.8635357450022
 20
256.8245601193484
 30
0.0
 11
388.8635357450022
 21
258.8245601193484
 31
0.0
  0
LINE
  5
E8
100
AcDbEntity
  8
0
  6
Continuous
 62
               7
100
AcDbLine
 10
393.8635357450022
 20
254.8245601193484
 30
0.0
 11
390.86353574500197
 21
256.02456011934868
 31
0.0
  0
LINE
  5
E9
100
AcDbEntity
  8
0
  6
Continuous
 62
               7
100
AcDbLine
 10
389.3635357450022
 20
248.3245601193484
 30
0.0
 11
389.36353574500197
 21
256.62456011934859
 31
0.0
  0
LINE
  5
EA
100
AcDbEntity
  8
0
  6
Continuous
 62
               7
100
AcDbLine
 10
390.86353574500197
 20
256.02456011934845
 30
0.0
 11
389.81353574500201
 21
257.07456011934863
 31
0.0
  0
LINE
  5
EB
100
AcDbEntity
  8
0
  6
Continuous
 62
               7
100
AcDbLine
 10
389.36353574500197
 20
256.62456011934859
 30
0.0
 11
389.81353574500201
 21
257.07456011934863
 31
0.0
  0
LINE
  5
EC
100
AcDbEntity
  8
0
  6
Continuous
 62
               7
100
AcDbLine
 10
389.36353574500197
 20
256.62456011934859
 30
0.0
 11
388.8635357450022
 21
256.8245601193484
 31
0.0
  0
LINE
  5
ED
100
AcDbEntity
  8
0
  6
Continuous
 62
               7
100
AcDbLine
 10
388.8635357450022
 20
247.8245601193484
 30
0.0
 11
389.3635357450022
 21
248.3245601193484
 31
0.0
  0
LINE
  5
EE
100
AcDbEntity
  8
0
  6
Continuous
 62
               4
100
AcDbLine
 10
345.11455139816201
 20
281.64466878220236
 30
0.0
 11
245.01455139817233
 21
281.6446687822023
 31
0.0
  0
LINE
  5
EF
100
AcDbEntity
  8
0
  6
Continuous
 62
               2
100
AcDbLine
 10
597.04650211809189
 20
241.83633794678713
 30
0.0
 11
599.01455139817176
 21
232.64466878220242
 31
0.0
  0
LINE
  5
F0
100
AcDbEntity
  8
0
  6
Continuous
 62
               4
100
AcDbLine
 10
245.01455139817233
 20
289.57360097033694
 30
0.0
 11
252.94348358630714
 21
281.64466878220225
 31
0.0
  0
LINE
  5
F1
100
AcDbEntity
  8
0
  6
Continuous
 62
               4
100
AcDbLine
 10
245.01455139817244
 20
303.71573659406789
 30
0.0
 11
267.0856192100382
 21
281.64466878220225
 31
0.0
  0
LINE
  5
F2
100
AcDbEntity
  8
0
  6
Continuous
 62
               4
100
AcDbLine
 10
376.1645513981756
 20
299.844957207645
 30
0.0
 11
390.36483982361835
 21
285.64466878220225
 31
0.0
  0
LINE
  5
F3
100
AcDbEntity
  8
0
  6
Continuous
 62
               4
100
AcDbLine
 10
373.86455139817565
 20
291.14438035676022
 30
0.0
 11
368.36483982361756
 21
285.64466878220225
 31
0.0
  0
LINE
  5
F4
100
AcDbEntity
  8
0
  6
Continuous
 62
               4
100
AcDbLine
 10
373.86455139817565
 20
305.28651598049117
 30
0.0
 11
354.22270419988661
 21
285.64466878220225
 31
0.0
  0
LINE
  5
F5
100
AcDbEntity
  8
0
  6
Continuous
 62
               2
100
AcDbLine
 10
600.01455139817244
 20
382.64466878220253
 30
0.0
 11
500.01455139817199
 21
382.64466878220253
 31
0.0
  0
LINE
  5
F6
100
AcDbEntity
  8
0
  6
Continuous
 62
               2
100
AcDbLine
 10
625.01455139817222
 20
382.64466878220253
 30
0.0
 11
605.01455139817222
 21
382.64466878220253
 31
0.0
  0
LINE
  5
F7
100
AcDbEntity
  8
0
  6
Continuous
 62
               2
100
AcDbLine
 10
505.01455139817222
 20
383.64466878220253
 30
0.0
 11
625.01455139817222
 21
383.64466878220253
 31
0.0
  0
LINE
  5
F8
100
AcDbEntity
  8
0
  6
Continuous
 62
               2
100
AcDbLine
 10
605.01455139817222
 20
342.64466878220253
 30
0.0
 11
605.01455139817222
 21
382.64466878220253
 31
0.0
  0
LINE
  5
F9
100
AcDbEntity
  8
0
  6
Continuous
 62
               2
100
AcDbLine
 10
602.04650211809189
 20
351.83633794678724
 30
0.0
 11
604.01455139817222
 21
342.64466878220253
 31
0.0
  0
LINE
  5
FA
100
AcDbEntity
  8
0
  6
Continuous
 62
               2
100
AcDbLine
 10
625.01455139817222
 20
381.64466878220253
 30
0.0
 11
607.0176351764494
 21
381.31149239003787
 31
0.0
  0
LINE
  5
FB
100
AcDbEntity
  8
0
  6
Continuous
 62
               7
100
AcDbLine
 10
369.51457581223815
 20
417.64465554706055
 30
0.0
 11
372.86455139817565
 21
417.64466878223686
 31
0.0
  0
LINE
  5
FC
100
AcDbEntity
  8
0
  6
Continuous
 62
               7
100
AcDbLine
 10
369.01455139817563
 20
422.43756200105042
 30
0.0
 11
369.01455139817563
 21
418.14466878223686
 31
0.0
  0
LINE
  5
FD
100
AcDbEntity
  8
0
  6
Continuous
 62
               7
100
AcDbLine
 10
378.01455139817563
 20
424.5588823446102
 30
0.0
 11
378.01455139817563
 21
425.64466878223709
 31
0.0
  0
LINE
  5
FE
100
AcDbEntity
  8
0
  6
Continuous
 62
               7
100
AcDbLine
 10
381.01455139817563
 20
420.73045521986398
 30
0.0
 11
381.01455139817563
 21
419.14466878223686
 31
0.0
  0
LINE
  5
FF
100
AcDbEntity
  8
0
  6
Continuous
 62
               7
100
AcDbLine
 10
369.16099800758229
 20
422.79111539164376
 30
0.0
 11
372.01455139817563
 21
425.64466878223709
 31
0.0
  0
LINE
  5
100
100
AcDbEntity
  8
0
  6
Continuous
 62
               7
100
AcDbLine
 10
378.30744461698907
 20
423.85177556342353
 30
0.0
 11
380.72165817936218
 21
421.43756200105042
 31
0.0
  0
LINE
  5
101
100
AcDbEntity
  8
0
  6
Continuous
 62
               7
100
AcDbLine
 10
379.51455139817563
 20
417.64466878223686
 30
0.0
 11
377.1645513981756
 21
417.64466878223686
 31
0.0
  0
LINE
  5
102
100
AcDbEntity
  8
0
  6
Continuous
 62
               2
100
AcDbLine
 10
372.86455139817588
 20
415.64466878223686
 30
0.0
 11
372.86455139817588
 21
389.64466878219662
 31
0.0
  0
LINE
  5
103
100
AcDbEntity
  8
0
  6
Continuous
 62
               2
100
AcDbLine
 10
377.1645513981756
 20
389.64466878219662
 30
0.0
 11
377.1645513981756
 21
411.90524660454128
 31
0.0
  0
LINE
  5
104
100
AcDbEntity
  8
0
  6
Continuous
 62
               2
100
AcDbLine
 10
371.86455139817588
 20
416.64466878223686
 30
0.0
 11
369.01455139817585
 21
416.64466878223686
 31
0.0
  0
LINE
  5
105
100
AcDbEntity
  8
0
  6
Continuous
 62
               2
100
AcDbLine
 10
368.01455139817585
 20
417.64466878223686
 30
0.0
 11
368.01455139817585
 21
421.52334843867732
 31
0.0
  0
LINE
  5
106
100
AcDbEntity
  8
0
  6
Continuous
 62
               2
100
AcDbLine
 10
368.60033783580275
 20
422.93756200105042
 30
0.0
 11
371.52107733016544
 21
425.85830149541323
 31
0.0
  0
LINE
  5
107
100
AcDbEntity
  8
0
  6
Continuous
 62
               2
100
AcDbLine
 10
378.8074446169893
 20
424.12959302272873
 30
0.0
 11
381.27165817936248
 21
421.66537946035567
 31
0.0
  0
LINE
  5
108
100
AcDbEntity
  8
0
  6
Continuous
 62
               2
100
AcDbLine
 10
381.56455139817581
 20
420.958272679169
 30
0.0
 11
381.56455139817581
 21
417.64466878223686
 31
0.0
  0
LINE
  5
109
100
AcDbEntity
  8
0
  6
Continuous
 62
               2
100
AcDbLine
 10
378.51455139817585
 20
424.83669980391539
 30
0.0
 11
378.51455139817585
 21
425.64466878223709
 31
0.0
  0
LINE
  5
10A
100
AcDbEntity
  8
0
  6
Continuous
 62
               2
100
AcDbLine
 10
370.41835732046309
 20
416.04847470452444
 30
0.0
 11
369.40206531801471
 21
415.03218270207606
 31
0.0
  0
LINE
  5
10B
100
AcDbEntity
  8
0
  6
Continuous
 62
               2
100
AcDbLine
 10
371.12546410164964
 20
416.04847470452444
 30
0.0
 11
372.18612427342941
 21
414.98781453274466
 31
0.0
  0
LINE
  5
10C
100
AcDbEntity
  8
0
  6
Continuous
 62
               2
100
AcDbLine
 10
408.01455139817563
 20
389.64466878219662
 30
0.0
 11
377.1645513981756
 21
389.64466878219662
 31
0.0
  0
LINE
  5
10D
100
AcDbEntity
  8
0
  6
Continuous
 62
               2
100
AcDbLine
 10
372.86455139817588
 20
389.64466878219662
 30
0.0
 11
342.01455139817585
 21
389.64466878219662
 31
0.0
  0
LINE
  5
10E
100
AcDbEntity
  8
0
  6
Continuous
 62
               2
100
AcDbLine
 10
342.01455139817585
 20
389.64466878219662
 30
0.0
 11
339.12780005222771
 21
384.64466878219662
 31
0.0
  0
LINE
  5
10F
100
AcDbEntity
  8
0
  6
Continuous
 62
               2
100
AcDbLine
 10
408.01455139817563
 20
389.64466878219662
 30
0.0
 11
410.90130274412377
 21
384.64466878219662
 31
0.0
  0
LINE
  5
110
100
AcDbEntity
  8
0
  6
Continuous
 62
               2
100
AcDbLine
 10
579.51455139814766
 20
384.64466878222026
 30
0.0
 11
490.51455139816926
 21
384.64466878222026
 31
0.0
  0
LINE
  5
111
100
AcDbEntity
  8
0
  6
Continuous
 62
               2
100
AcDbLine
 10
596.51455139816971
 20
384.64466878226028
 30
0.0
 11
625.01455139817222
 21
384.64466878226028
 31
0.0
  0
LINE
  5
112
100
AcDbEntity
  8
0
  6
Continuous
 62
               2
100
AcDbLine
 10
473.51455139813368
 20
384.64466878220844
 30
0.0
 11
410.90130274411683
 21
384.64466878220844
 31
0.0
  0
LINE
  5
113
100
AcDbEntity
  8
0
  6
Continuous
 62
               2
100
AcDbLine
 10
276.51455139820075
 20
384.64466878220253
 30
0.0
 11
339.12780005223124
 21
384.64466878220253
 31
0.0
  0
LINE
  5
114
100
AcDbEntity
  8
0
  6
Continuous
 62
               2
100
AcDbLine
 10
259.51455139817847
 20
384.64466878220253
 30
0.0
 11
245.01455139817233
 21
384.64466878220253
 31
0.0
  0
LINE
  5
115
100
AcDbEntity
  8
0
  6
Continuous
 62
               4
100
AcDbLine
 10
245.01455139817233
 20
462.64466878220253
 30
0.0
 11
253.87782117528218
 21
464.20750238120502
 31
0.0
  0
LINE
  5
116
100
AcDbEntity
  8
0
  6
Continuous
 62
               4
100
AcDbLine
 10
245.01455139817233
 20
462.64466878220253
 30
0.0
 11
253.87782117528218
 21
461.08183518320004
 31
0.0
  0
LINE
  5
117
100
AcDbEntity
  8
0
  6
Continuous
 62
               4
100
AcDbLine
 10
227.0145513981754
 20
429.64466878220253
 30
0.0
 11
227.01455139817506
 21
384.64466878220253
 31
0.0
  0
LINE
  5
118
100
AcDbEntity
  8
0
  6
Continuous
 62
               4
100
AcDbLine
 10
625.01455139817222
 20
465.64466878220253
 30
0.0
 11
625.01455139817222
 21
390.64466878220253
 31
0.0
  0
LINE
  5
119
100
AcDbEntity
  8
0
  6
Continuous
 62
               7
100
AcDbLine
 10
597.01455139817244
 20
380.44466878220248
 30
0.0
 11
597.01455139817222
 21
381.6446687822023
 31
0.0
  0
LINE
  5
11A
100
AcDbEntity
  8
0
  6
Continuous
 62
               2
100
AcDbLine
 10
600.01455139817222
 20
382.64466878220253
 30
0.0
 11
600.01455139817222
 21
232.64466878220236
 31
0.0
  0
LINE
  5
11B
100
AcDbEntity
  8
0
  6
Continuous
 62
               4
100
AcDbLine
 10
373.86455139817565
 20
381.6446687822023
 30
0.0
 11
245.01455139817233
 21
381.6446687822023
 31
0.0
  0
LINE
  5
11C
100
AcDbEntity
  8
0
  6
Continuous
 62
               7
100
AcDbLine
 10
376.1645513981756
 20
416.64466878223686
 30
0.0
 11
376.1645513981756
 21
288.64466878220236
 31
0.0
  0
LINE
  5
11D
100
AcDbEntity
  8
0
  6
Continuous
 62
               7
100
AcDbLine
 10
373.86455139817565
 20
416.64466878223686
 30
0.0
 11
373.86455139817565
 21
288.64465554707539
 31
0.0
  0
LINE
  5
11E
100
AcDbEntity
  8
0
  6
Continuous
 62
               4
100
AcDbLine
 10
373.8101178983768
 20
555.12134366175189
 30
0.0
 11
297.18289881026783
 21
269.14466878221748
 31
0.0
  0
LINE
  5
11F
100
AcDbEntity
  8
0
  6
Continuous
 62
               4
100
AcDbLine
 10
466.89693998183077
 20
555.12134366175189
 30
0.0
 11
373.81011789837669
 21
555.12134366175189
 31
0.0
  0
LINE
  5
120
100
AcDbEntity
  8
0
  6
Continuous
 62
               4
100
AcDbLine
 10
365.77164212544301
 20
525.12134366175189
 30
0.0
 11
466.89693998183077
 21
525.12134366175189
 31
0.0
  0
LINE
  5
121
100
AcDbEntity
  8
0
  6
Continuous
 62
               4
100
AcDbLine
 10
361.75240423897628
 20
510.12134366175189
 30
0.0
 11
466.89693998183077
 21
510.12134366175189
 31
0.0
  0
LINE
  5
122
100
AcDbEntity
  8
0
  6
Continuous
 62
               4
100
AcDbLine
 10
369.79088001190996
 20
540.12134366175189
 30
0.0
 11
466.89693998183077
 21
540.12134366175189
 31
0.0
  0
LINE
  5
123
100
AcDbEntity
  8
0
  6
Continuous
 62
               4
100
AcDbLine
 10
376.16455139817538
 20
313.98709283137606
 30
0.0
 11
408.50697544734953
 21
281.64466878220219
 31
0.0
  0
LINE
  5
124
100
AcDbEntity
  8
0
  6
Continuous
 62
               4
100
AcDbLine
 10
376.16455139817538
 20
328.12922845510718
 30
0.0
 11
422.64911107108082
 21
281.64466878220247
 31
0.0
  0
LINE
  5
125
100
AcDbEntity
  8
0
  6
Continuous
 62
               4
100
AcDbLine
 10
376.1645513981756
 20
342.27136407883847
 30
0.0
 11
436.79124669481178
 21
281.64466878220236
 31
0.0
  0
LINE
  5
126
100
AcDbEntity
  8
0
  6
Continuous
 62
               4
100
AcDbLine
 10
376.1645513981756
 20
356.41349970257022
 30
0.0
 11
450.93338231854307
 21
281.6446687822027
 31
0.0
  0
LINE
  5
127
100
AcDbEntity
  8
0
  6
Continuous
 62
               4
100
AcDbLine
 10
376.1645513981756
 20
370.55563532630038
 30
0.0
 11
465.07551794227425
 21
281.64466878220253
 31
0.0
  0
LINE
  5
128
100
AcDbEntity
  8
0
  6
Continuous
 62
               4
100
AcDbLine
 10
406.79124669481178
 20
281.64466878220304
 30
0.0
 11
506.79124669481132
 21
381.6446687822023
 31
0.0
  0
LINE
  5
129
100
AcDbEntity
  8
0
  6
Continuous
 62
               4
100
AcDbLine
 10
420.93338231854307
 20
281.64466878220321
 30
0.0
 11
520.93338231854239
 21
381.6446687822023
 31
0.0
  0
LINE
  5
12A
100
AcDbEntity
  8
0
  6
Continuous
 62
               4
100
AcDbLine
 10
435.07551794227402
 20
281.64466878220333
 30
0.0
 11
535.0755179422739
 21
381.6446687822023
 31
0.0
  0
LINE
  5
12B
100
AcDbEntity
  8
0
  6
Continuous
 62
               4
100
AcDbLine
 10
493.35978918973626
 20
281.6446687822027
 30
0.0
 11
393.35978918973626
 21
381.6446687822023
 31
0.0
  0
LINE
  5
12C
100
AcDbEntity
  8
0
  6
Continuous
 62
               4
100
AcDbLine
 10
507.50192481346767
 20
281.64466878220304
 30
0.0
 11
407.50192481346778
 21
381.6446687822023
 31
0.0
  0
LINE
  5
12D
100
AcDbEntity
  8
0
  6
Continuous
 62
               4
100
AcDbLine
 10
521.64406043719862
 20
281.64466878220287
 30
0.0
 11
421.64406043719907
 21
381.6446687822023
 31
0.0
  0
LINE
  5
12E
100
AcDbEntity
  8
0
  6
Continuous
 62
               4
100
AcDbLine
 10
535.78619606092991
 20
281.64466878220315
 30
0.0
 11
435.78619606093071
 21
381.6446687822023
 31
0.0
  0
LINE
  5
12F
100
AcDbEntity
  8
0
  6
Continuous
 62
               4
100
AcDbLine
 10
396.6491110710798
 20
285.64466878220225
 30
0.0
 11
492.6491110710806
 21
381.64466878220207
 31
0.0
  0
LINE
  5
130
100
AcDbEntity
  8
0
  6
Continuous
 62
               4
100
AcDbLine
 10
382.50697544734874
 20
285.64466878220225
 30
0.0
 11
478.50697544734896
 21
381.64466878220207
 31
0.0
  0
LINE
  5
131
100
AcDbEntity
  8
0
  6
Continuous
 62
               4
100
AcDbLine
 10
376.1645513981756
 20
293.44438035676018
 30
0.0
 11
464.36483982361892
 21
381.6446687822023
 31
0.0
  0
LINE
  5
132
100
AcDbEntity
  8
0
  6
Continuous
 62
               4
100
AcDbLine
 10
479.21765356600531
 20
281.64466878220281
 30
0.0
 11
379.21765356600508
 21
381.6446687822023
 31
0.0
  0
LINE
  5
133
100
AcDbEntity
  8
0
  6
Continuous
 62
               4
100
AcDbLine
 10
376.1645513981756
 20
307.58651598049113
 30
0.0
 11
450.2227041998882
 21
381.6446687822023
 31
0.0
  0
LINE
  5
134
100
AcDbEntity
  8
0
  6
Continuous
 62
               4
100
AcDbLine
 10
436.08056857615679
 20
381.6446687822023
 30
0.0
 11
376.1645513981756
 21
321.72865160422236
 31
0.0
  0
LINE
  5
135
100
AcDbEntity
  8
0
  6
Continuous
 62
               4
100
AcDbLine
 10
421.9384329524255
 20
381.6446687822023
 30
0.0
 11
376.1645513981756
 21
335.87078722795343
 31
0.0
  0
LINE
  5
136
100
AcDbEntity
  8
0
  6
Continuous
 62
               4
100
AcDbLine
 10
407.79629732869387
 20
381.64466878220207
 30
0.0
 11
376.1645513981756
 21
350.01292285168449
 31
0.0
  0
LINE
  5
137
100
AcDbEntity
  8
0
  6
Continuous
 62
               4
100
AcDbLine
 10
393.65416170496246
 20
381.6446687822023
 30
0.0
 11
376.1645513981756
 21
364.15505847541579
 31
0.0
  0
LINE
  5
138
100
AcDbEntity
  8
0
  6
Continuous
 62
               4
100
AcDbLine
 10
379.51202608123106
 20
381.64466878220207
 30
0.0
 11
376.1645513981756
 21
378.29719409914685
 31
0.0
  0
LINE
  5
139
100
AcDbEntity
  8
0
  6
Continuous
 62
               4
100
AcDbLine
 10
245.01455139817233
 20
317.85787221779907
 30
0.0
 11
281.22775483376915
 21
281.64466878220219
 31
0.0
  0
LINE
  5
13A
100
AcDbEntity
  8
0
  6
Continuous
 62
               4
100
AcDbLine
 10
245.01455139817233
 20
332.00000784152996
 30
0.0
 11
295.36989045750033
 21
281.64466878220219
 31
0.0
  0
LINE
  5
13B
100
AcDbEntity
  8
0
  6
Continuous
 62
               4
100
AcDbLine
 10
245.01455139817233
 20
346.1421434652608
 30
0.0
 11
309.51202608123174
 21
281.64466878220213
 31
0.0
  0
LINE
  5
13C
100
AcDbEntity
  8
0
  6
Continuous
 62
               4
100
AcDbLine
 10
245.01455139817233
 20
360.28427908899209
 30
0.0
 11
323.6541617049628
 21
281.64466878220202
 31
0.0
  0
LINE
  5
13D
100
AcDbEntity
  8
0
  6
Continuous
 62
               4
100
AcDbLine
 10
245.01455139817233
 20
374.42641471272339
 30
0.0
 11
337.79629732869398
 21
281.64466878220202
 31
0.0
  0
LINE
  5
13E
100
AcDbEntity
  8
0
  6
Continuous
 62
               4
100
AcDbLine
 10
373.86455139817565
 20
319.42865160422195
 30
0.0
 11
336.080568576156
 21
281.64466878220264
 31
0.0
  0
LINE
  5
13F
100
AcDbEntity
  8
0
  6
Continuous
 62
               4
100
AcDbLine
 10
373.86455139817565
 20
333.57078722795302
 30
0.0
 11
321.93843295242493
 21
281.64466878220264
 31
0.0
  0
LINE
  5
140
100
AcDbEntity
  8
0
  6
Continuous
 62
               4
100
AcDbLine
 10
373.86455139817565
 20
347.71292285168408
 30
0.0
 11
307.79629732869398
 21
281.64466878220253
 31
0.0
  0
LINE
  5
141
100
AcDbEntity
  8
0
  6
Continuous
 62
               4
100
AcDbLine
 10
373.86455139817565
 20
361.85505847541492
 30
0.0
 11
293.65416170496269
 21
281.64466878220253
 31
0.0
  0
LINE
  5
142
100
AcDbEntity
  8
0
  6
Continuous
 62
               4
100
AcDbLine
 10
373.86455139817565
 20
375.99719409914576
 30
0.0
 11
279.51202608123151
 21
281.64466878220236
 31
0.0
  0
LINE
  5
143
100
AcDbEntity
  8
0
  6
Continuous
 62
               4
100
AcDbLine
 10
365.36989045750079
 20
381.64466878220253
 30
0.0
 11
265.36989045750022
 21
281.6446687822023
 31
0.0
  0
LINE
  5
144
100
AcDbEntity
  8
0
  6
Continuous
 62
               4
100
AcDbLine
 10
337.08561921003866
 20
381.64466878220253
 30
0.0
 11
245.01455139817244
 21
289.5736009703366
 31
0.0
  0
LINE
  5
145
100
AcDbEntity
  8
0
  6
Continuous
 62
               4
100
AcDbLine
 10
351.2277548337695
 20
381.6446687822023
 30
0.0
 11
251.22775483376915
 21
281.6446687822023
 31
0.0
  0
LINE
  5
146
100
AcDbEntity
  8
0
  6
Continuous
 62
               4
100
AcDbLine
 10
322.64911107108264
 20
381.6446687822023
 30
0.0
 11
373.86455139817701
 21
330.42922845510759
 31
0.0
  0
LINE
  5
147
100
AcDbEntity
  8
0
  6
Continuous
 62
               4
100
AcDbLine
 10
336.79124669481439
 20
381.6446687822023
 30
0.0
 11
373.8645513981777
 21
344.57136407883888
 31
0.0
  0
LINE
  5
148
100
AcDbEntity
  8
0
  6
Continuous
 62
               4
100
AcDbLine
 10
350.93338231854648
 20
381.6446687822023
 30
0.0
 11
373.86455139817838
 21
358.71349970257018
 31
0.0
  0
LINE
  5
149
100
AcDbEntity
  8
0
  6
Continuous
 62
               4
100
AcDbLine
 10
365.07551794227845
 20
381.6446687822023
 30
0.0
 11
373.86455139817906
 21
372.85563532630147
 31
0.0
  0
LINE
  5
14A
100
AcDbEntity
  8
0
  6
Continuous
 62
               4
100
AcDbLine
 10
251.93843295242425
 20
381.6446687822023
 30
0.0
 11
347.93843295242448
 21
285.64466878220225
 31
0.0
  0
LINE
  5
14B
100
AcDbEntity
  8
0
  6
Continuous
 62
               4
100
AcDbLine
 10
266.08056857615531
 20
381.6446687822023
 30
0.0
 11
362.08056857615611
 21
285.6446687822023
 31
0.0
  0
LINE
  5
14C
100
AcDbEntity
  8
0
  6
Continuous
 62
               4
100
AcDbLine
 10
280.22270419988672
 20
381.64466878220253
 30
0.0
 11
373.80708649581936
 21
288.06028648626972
 31
0.0
  0
LINE
  5
14D
100
AcDbEntity
  8
0
  6
Continuous
 62
               4
100
AcDbLine
 10
294.36483982361892
 20
381.6446687822023
 30
0.0
 11
373.86455139817565
 21
302.14495720764495
 31
0.0
  0
LINE
  5
14E
100
AcDbEntity
  8
0
  6
Continuous
 62
               4
100
AcDbLine
 10
322.94348358630805
 20
381.6446687822023
 30
0.0
 11
245.01455139817233
 21
303.71573659406755
 31
0.0
  0
LINE
  5
14F
100
AcDbEntity
  8
0
  6
Continuous
 62
               4
100
AcDbLine
 10
308.50697544735067
 20
381.6446687822023
 30
0.0
 11
373.86455139817633
 21
316.28709283137624
 31
0.0
  0
LINE
  5
150
100
AcDbEntity
  8
0
  6
Continuous
 62
               4
100
AcDbLine
 10
308.80134796257744
 20
381.64466878220253
 30
0.0
 11
245.01455139817301
 21
317.85787221779884
 31
0.0
  0
LINE
  5
151
100
AcDbEntity
  8
0
  6
Continuous
 62
               4
100
AcDbLine
 10
294.65921233884649
 20
381.64466878220253
 30
0.0
 11
245.01455139817369
 21
332.00000784153019
 31
0.0
  0
LINE
  5
152
100
AcDbEntity
  8
0
  6
Continuous
 62
               4
100
AcDbLine
 10
280.51707671511576
 20
381.64466878220253
 30
0.0
 11
245.01455139817438
 21
346.14214346526148
 31
0.0
  0
LINE
  5
153
100
AcDbEntity
  8
0
  6
Continuous
 62
               4
100
AcDbLine
 10
266.37494109138493
 20
381.64466878220253
 30
0.0
 11
245.01455139817506
 21
360.28427908899278
 31
0.0
  0
LINE
  5
154
100
AcDbEntity
  8
0
  6
Continuous
 62
               4
100
AcDbLine
 10
252.23280546765409
 20
381.64466878220253
 30
0.0
 11
245.01455139817574
 21
374.42641471272407
 31
0.0
  0
LINE
  5
155
100
AcDbEntity
  8
0
  6
Continuous
 62
               4
100
AcDbLine
 10
546.01455139817233
 20
381.6446687822023
 30
0.0
 11
546.01455139817233
 21
281.64466878220225
 31
0.0
  0
LINE
  5
156
100
AcDbEntity
  8
0
  6
Continuous
 62
               4
100
AcDbLine
 10
498.21455139817226
 20
281.64466878220236
 30
0.0
 11
404.91455139814627
 21
281.64466878220236
 31
0.0
  0
LINE
  5
157
100
AcDbEntity
  8
0
  6
Continuous
 62
               7
100
AcDbLine
 10
498.21455139817226
 20
281.64466878220219
 30
0.0
 11
547.01455139817233
 21
281.64466878220219
 31
0.0
  0
LINE
  5
158
100
AcDbEntity
  8
0
  6
Continuous
 62
               7
100
AcDbLine
 10
498.21455139817226
 20
280.44466878220226
 30
0.0
 11
548.21455139817226
 21
280.44466878220226
 31
0.0
  0
LINE
  5
159
100
AcDbEntity
  8
0
  6
Continuous
 62
               7
100
AcDbLine
 10
498.21455139817249
 20
281.64466878220225
 30
0.0
 11
498.21455139817249
 21
280.44466878220226
 31
0.0
  0
LINE
  5
15A
100
AcDbEntity
  8
0
  6
Continuous
 62
               7
100
AcDbLine
 10
523.00530294537111
 20
243.80685094510926
 30
0.0
 11
523.00530294537066
 21
279.80685094510926
 31
0.0
  0
LINE
  5
15B
100
AcDbEntity
  8
0
  6
Continuous
 62
               7
100
AcDbLine
 10
525.50530294537066
 20
282.30685094510926
 30
0.0
 11
525.50530294537066
 21
281.80685094510926
 31
0.0
  0
LINE
  5
15C
100
AcDbEntity
  8
0
  6
Continuous
 62
               7
100
AcDbLine
 10
518.00530294537111
 20
243.80685094510926
 30
0.0
 11
518.00530294537066
 21
279.80685094510926
 31
0.0
  0
LINE
  5
15D
100
AcDbEntity
  8
0
  6
Continuous
 62
               7
100
AcDbLine
 10
515.50530294537077
 20
282.30685094510926
 30
0.0
 11
515.50530294537077
 21
281.80685094510926
 31
0.0
  0
LINE
  5
15E
100
AcDbEntity
  8
0
  6
Continuous
 62
               7
100
AcDbLine
 10
525.50530294537066
 20
282.30685094510926
 30
0.0
 11
515.50530294537077
 21
282.30685094510926
 31
0.0
  0
LINE
  5
15F
100
AcDbEntity
  8
0
  6
Continuous
 62
               7
100
AcDbLine
 10
523.00530294537066
 20
279.80685094510926
 30
0.0
 11
518.00530294537066
 21
279.80685094510926
 31
0.0
  0
LINE
  5
160
100
AcDbEntity
  8
0
  6
Continuous
 62
               7
100
AcDbLine
 10
525.50530294537066
 20
281.80685094510926
 30
0.0
 11
523.00530294537066
 21
279.80685094510926
 31
0.0
  0
LINE
  5
161
100
AcDbEntity
  8
0
  6
Continuous
 62
               7
100
AcDbLine
 10
518.00530294537066
 20
279.80685094510926
 30
0.0
 11
515.50530294537077
 21
281.80685094510926
 31
0.0
  0
LINE
  5
162
100
AcDbEntity
  8
0
  6
Continuous
 62
               7
100
AcDbLine
 10
525.50530294537066
 20
281.80685094510926
 30
0.0
 11
515.50530294537077
 21
281.80685094510926
 31
0.0
  0
LINE
  5
163
100
AcDbEntity
  8
0
  6
Continuous
 62
               7
100
AcDbLine
 10
523.00530294537111
 20
243.80685094510926
 30
0.0
 11
520.50530294537111
 21
242.30685094510926
 31
0.0
  0
LINE
  5
164
100
AcDbEntity
  8
0
  6
Continuous
 62
               7
100
AcDbLine
 10
518.00530294537111
 20
243.80685094510926
 30
0.0
 11
520.50530294537111
 21
242.30685094510926
 31
0.0
  0
LINE
  5
165
100
AcDbEntity
  8
0
  6
Continuous
 62
               7
100
AcDbLine
 10
523.00530294537066
 20
272.80685094510926
 30
0.0
 11
518.00530294537066
 21
274.80685094510926
 31
0.0
  0
LINE
  5
166
100
AcDbEntity
  8
0
  6
Continuous
 62
               7
100
AcDbLine
 10
523.00530294537066
 20
270.80685094510926
 30
0.0
 11
518.00530294537066
 21
272.80685094510926
 31
0.0
  0
LINE
  5
167
100
AcDbEntity
  8
0
  6
Continuous
 62
               7
100
AcDbLine
 10
523.00530294537066
 20
268.80685094510926
 30
0.0
 11
518.00530294537066
 21
270.80685094510926
 31
0.0
  0
LINE
  5
168
100
AcDbEntity
  8
0
  6
Continuous
 62
               7
100
AcDbLine
 10
523.00530294537066
 20
266.80685094510926
 30
0.0
 11
518.00530294537066
 21
268.80685094510926
 31
0.0
  0
LINE
  5
169
100
AcDbEntity
  8
0
  6
Continuous
 62
               7
100
AcDbLine
 10
523.00530294537066
 20
264.80685094510926
 30
0.0
 11
518.00530294537066
 21
266.80685094510926
 31
0.0
  0
LINE
  5
16A
100
AcDbEntity
  8
0
  6
Continuous
 62
               7
100
AcDbLine
 10
523.00530294537089
 20
262.80685094510926
 30
0.0
 11
518.00530294537089
 21
264.80685094510926
 31
0.0
  0
LINE
  5
16B
100
AcDbEntity
  8
0
  6
Continuous
 62
               7
100
AcDbLine
 10
523.00530294537089
 20
260.80685094510926
 30
0.0
 11
518.00530294537089
 21
262.80685094510926
 31
0.0
  0
LINE
  5
16C
100
AcDbEntity
  8
0
  6
Continuous
 62
               7
100
AcDbLine
 10
523.00530294537089
 20
258.80685094510926
 30
0.0
 11
518.00530294537089
 21
260.80685094510949
 31
0.0
  0
LINE
  5
16D
100
AcDbEntity
  8
0
  6
Continuous
 62
               7
100
AcDbLine
 10
523.00530294537111
 20
256.80685094510926
 30
0.0
 11
518.00530294537089
 21
258.80685094510926
 31
0.0
  0
LINE
  5
16E
100
AcDbEntity
  8
0
  6
Continuous
 62
               7
100
AcDbLine
 10
523.00530294537111
 20
254.80685094510926
 30
0.0
 11
518.00530294537111
 21
256.80685094510926
 31
0.0
  0
LINE
  5
16F
100
AcDbEntity
  8
0
  6
Continuous
 62
               7
100
AcDbLine
 10
523.00530294537111
 20
252.80685094510926
 30
0.0
 11
518.00530294537111
 21
254.80685094510926
 31
0.0
  0
LINE
  5
170
100
AcDbEntity
  8
0
  6
Continuous
 62
               7
100
AcDbLine
 10
523.00530294537111
 20
250.80685094510926
 30
0.0
 11
520.00530294537089
 21
252.00685094510953
 31
0.0
  0
LINE
  5
171
100
AcDbEntity
  8
0
  6
Continuous
 62
               7
100
AcDbLine
 10
518.50530294537111
 20
244.30685094510926
 30
0.0
 11
518.50530294537089
 21
252.60685094510944
 31
0.0
  0
LINE
  5
172
100
AcDbEntity
  8
0
  6
Continuous
 62
               7
100
AcDbLine
 10
520.00530294537089
 20
252.00685094510931
 30
0.0
 11
518.95530294537093
 21
253.05685094510949
 31
0.0
  0
LINE
  5
173
100
AcDbEntity
  8
0
  6
Continuous
 62
               7
100
AcDbLine
 10
518.50530294537089
 20
252.60685094510944
 30
0.0
 11
518.95530294537093
 21
253.05685094510949
 31
0.0
  0
LINE
  5
174
100
AcDbEntity
  8
0
  6
Continuous
 62
               7
100
AcDbLine
 10
518.50530294537089
 20
252.60685094510944
 30
0.0
 11
518.00530294537111
 21
252.80685094510926
 31
0.0
  0
LINE
  5
175
100
AcDbEntity
  8
0
  6
Continuous
 62
               7
100
AcDbLine
 10
518.00530294537111
 20
243.80685094510926
 30
0.0
 11
518.50530294537111
 21
244.30685094510926
 31
0.0
  0
LINE
  5
176
100
AcDbEntity
  8
0
  6
Continuous
 62
               4
100
AcDbLine
 10
546.01455139817222
 20
293.58875287198413
 30
0.0
 11
534.07046730839193
 21
281.64466878220389
 31
0.0
  0
LINE
  5
177
100
AcDbEntity
  8
0
  6
Continuous
 62
               4
100
AcDbLine
 10
546.01455139817222
 20
364.29943099063905
 30
0.0
 11
463.35978918973626
 21
281.64466878220338
 31
0.0
  0
LINE
  5
178
100
AcDbEntity
  8
0
  6
Continuous
 62
               4
100
AcDbLine
 10
546.01455139817222
 20
350.15729536690776
 30
0.0
 11
477.50192481346744
 21
281.64466878220355
 31
0.0
  0
LINE
  5
179
100
AcDbEntity
  8
0
  6
Continuous
 62
               4
100
AcDbLine
 10
546.01455139817233
 20
336.01515974317738
 30
0.0
 11
491.6440604371985
 21
281.64466878220367
 31
0.0
  0
LINE
  5
17A
100
AcDbEntity
  8
0
  6
Continuous
 62
               4
100
AcDbLine
 10
546.01455139817222
 20
321.87302411944609
 30
0.0
 11
505.7861960609298
 21
281.64466878220367
 31
0.0
  0
LINE
  5
17B
100
AcDbEntity
  8
0
  6
Continuous
 62
               4
100
AcDbLine
 10
546.01455139817222
 20
307.73088849571496
 30
0.0
 11
519.92833168466086
 21
281.64466878220372
 31
0.0
  0
LINE
  5
17C
100
AcDbEntity
  8
0
  6
Continuous
 62
               4
100
AcDbLine
 10
546.01455139817233
 20
378.44156661436966
 30
0.0
 11
449.21765356600508
 21
281.64466878220333
 31
0.0
  0
LINE
  5
17D
100
AcDbEntity
  8
0
  6
Continuous
 62
               4
100
AcDbLine
 10
546.01455139817233
 20
285.55844906869186
 30
0.0
 11
449.92833168466063
 21
381.6446687822023
 31
0.0
  0
LINE
  5
17E
100
AcDbEntity
  8
0
  6
Continuous
 62
               4
100
AcDbLine
 10
546.01455139817222
 20
299.70058469242309
 30
0.0
 11
464.07046730839249
 21
381.6446687822023
 31
0.0
  0
LINE
  5
17F
100
AcDbEntity
  8
0
  6
Continuous
 62
               4
100
AcDbLine
 10
546.01455139817233
 20
313.84272031615393
 30
0.0
 11
478.2126029321239
 21
381.6446687822023
 31
0.0
  0
LINE
  5
180
100
AcDbEntity
  8
0
  6
Continuous
 62
               4
100
AcDbLine
 10
546.01455139817222
 20
327.98485593988528
 30
0.0
 11
492.35473855585519
 21
381.64466878220207
 31
0.0
  0
LINE
  5
181
100
AcDbEntity
  8
0
  6
Continuous
 62
               4
100
AcDbLine
 10
546.01455139817233
 20
342.12699156361612
 30
0.0
 11
506.49687417958603
 21
381.64466878220207
 31
0.0
  0
LINE
  5
182
100
AcDbEntity
  8
0
  6
Continuous
 62
               4
100
AcDbLine
 10
546.01455139817233
 20
356.26912718734764
 30
0.0
 11
520.63900980331732
 21
381.64466878220207
 31
0.0
  0
LINE
  5
183
100
AcDbEntity
  8
0
  6
Continuous
 62
               4
100
AcDbLine
 10
546.01455139817233
 20
370.4112628110787
 30
0.0
 11
534.7811454270485
 21
381.64466878220207
 31
0.0
  0
LINE
  5
184
100
AcDbEntity
  8
0
  6
Continuous
 62
               4
100
AcDbLine
 10
546.01455139817222
 20
381.6446687822023
 30
0.0
 11
376.1645513981756
 21
381.6446687822023
 31
0.0
  0
LINE
  5
185
100
AcDbEntity
  8
0
  6
Continuous
 62
               7
100
AcDbLine
 10
548.21455139817226
 20
380.44466878220226
 30
0.0
 11
597.01455139817244
 21
380.44466878220248
 31
0.0
  0
LINE
  5
186
100
AcDbEntity
  8
0
  6
Continuous
 62
               7
100
AcDbLine
 10
548.21455139817226
 20
380.44466878220226
 30
0.0
 11
548.21455139817226
 21
280.44466878220226
 31
0.0
  0
LINE
  5
187
100
AcDbEntity
  8
0
  6
Continuous
 62
               7
100
AcDbLine
 10
547.01455139817233
 20
381.6446687822023
 30
0.0
 11
547.01455139817233
 21
281.64466878220219
 31
0.0
  0
LINE
  5
188
100
AcDbEntity
  8
0
  6
Continuous
 62
               7
100
AcDbLine
 10
547.01455139817233
 20
381.6446687822023
 30
0.0
 11
597.01455139817222
 21
381.6446687822023
 31
0.0
  0
LINE
  5
189
100
AcDbEntity
  8
0
  6
Continuous
 62
               7
100
AcDbLine
 10
574.89299746325219
 20
384.44364133725855
 30
0.0
 11
574.89299746325219
 21
383.94364133725855
 31
0.0
  0
LINE
  5
18A
100
AcDbEntity
  8
0
  6
Continuous
 62
               7
100
AcDbLine
 10
584.89299746325219
 20
384.44364133725855
 30
0.0
 11
584.89299746325219
 21
383.94364133725855
 31
0.0
  0
LINE
  5
18B
100
AcDbEntity
  8
0
  6
Continuous
 62
               7
100
AcDbLine
 10
574.89299746325219
 20
384.44364133725855
 30
0.0
 11
584.89299746325219
 21
384.44364133725855
 31
0.0
  0
LINE
  5
18C
100
AcDbEntity
  8
0
  6
Continuous
 62
               7
100
AcDbLine
 10
577.39299746325219
 20
381.94364133725878
 30
0.0
 11
582.39299746325219
 21
381.94364133725855
 31
0.0
  0
LINE
  5
18D
100
AcDbEntity
  8
0
  6
Continuous
 62
               7
100
AcDbLine
 10
574.89299746325219
 20
383.94364133725878
 30
0.0
 11
577.39299746325219
 21
381.94364133725878
 31
0.0
  0
LINE
  5
18E
100
AcDbEntity
  8
0
  6
Continuous
 62
               7
100
AcDbLine
 10
582.39299746325219
 20
381.94364133725855
 30
0.0
 11
584.89299746325219
 21
383.94364133725855
 31
0.0
  0
LINE
  5
18F
100
AcDbEntity
  8
0
  6
Continuous
 62
               7
100
AcDbLine
 10
574.89299746325219
 20
383.94364133725855
 30
0.0
 11
584.89299746325219
 21
383.94364133725855
 31
0.0
  0
LINE
  5
190
100
AcDbEntity
  8
0
  6
Continuous
 62
               7
100
AcDbLine
 10
561.06633674166164
 20
383.3278812945756
 30
0.0
 11
561.06633674166164
 21
382.8278812945756
 31
0.0
  0
LINE
  5
191
100
AcDbEntity
  8
0
  6
Continuous
 62
               7
100
AcDbLine
 10
571.06633674166164
 20
383.3278812945756
 30
0.0
 11
571.06633674166164
 21
382.8278812945756
 31
0.0
  0
LINE
  5
192
100
AcDbEntity
  8
0
  6
Continuous
 62
               7
100
AcDbLine
 10
561.06633674166164
 20
383.3278812945756
 30
0.0
 11
571.06633674166164
 21
383.3278812945756
 31
0.0
  0
LINE
  5
193
100
AcDbEntity
  8
0
  6
Continuous
 62
               7
100
AcDbLine
 10
563.56633674166164
 20
380.8278812945756
 30
0.0
 11
568.56633674166164
 21
380.8278812945756
 31
0.0
  0
LINE
  5
194
100
AcDbEntity
  8
0
  6
Continuous
 62
               7
100
AcDbLine
 10
561.06633674166164
 20
382.8278812945756
 30
0.0
 11
563.56633674166164
 21
380.8278812945756
 31
0.0
  0
LINE
  5
195
100
AcDbEntity
  8
0
  6
Continuous
 62
               7
100
AcDbLine
 10
568.56633674166164
 20
380.8278812945756
 30
0.0
 11
571.06633674166164
 21
382.8278812945756
 31
0.0
  0
LINE
  5
196
100
AcDbEntity
  8
0
  6
Continuous
 62
               7
100
AcDbLine
 10
561.06633674166164
 20
382.8278812945756
 30
0.0
 11
571.06633674166164
 21
382.8278812945756
 31
0.0
  0
LINE
  5
197
100
AcDbEntity
  8
0
  6
Continuous
 62
               7
100
AcDbLine
 10
577.39299746325219
 20
338.44364133725878
 30
0.0
 11
579.89299746325264
 21
336.94364133725878
 31
0.0
  0
LINE
  5
198
100
AcDbEntity
  8
0
  6
Continuous
 62
               7
100
AcDbLine
 10
582.39299746325264
 20
338.44364133725878
 30
0.0
 11
579.89299746325264
 21
336.94364133725878
 31
0.0
  0
LINE
  5
199
100
AcDbEntity
  8
0
  6
Continuous
 62
               7
100
AcDbLine
 10
577.39299746325264
 20
355.44364133725878
 30
0.0
 11
582.39299746325264
 21
357.44364133725878
 31
0.0
  0
LINE
  5
19A
100
AcDbEntity
  8
0
  6
Continuous
 62
               7
100
AcDbLine
 10
577.39299746325219
 20
353.44364133725878
 30
0.0
 11
582.39299746325264
 21
355.44364133725878
 31
0.0
  0
LINE
  5
19B
100
AcDbEntity
  8
0
  6
Continuous
 62
               7
100
AcDbLine
 10
577.39299746325219
 20
351.44364133725878
 30
0.0
 11
582.39299746325264
 21
353.44364133725878
 31
0.0
  0
LINE
  5
19C
100
AcDbEntity
  8
0
  6
Continuous
 62
               7
100
AcDbLine
 10
577.39299746325219
 20
349.44364133725878
 30
0.0
 11
582.39299746325264
 21
351.44364133725878
 31
0.0
  0
LINE
  5
19D
100
AcDbEntity
  8
0
  6
Continuous
 62
               7
100
AcDbLine
 10
577.39299746325219
 20
347.44364133725878
 30
0.0
 11
582.39299746325264
 21
349.44364133725878
 31
0.0
  0
LINE
  5
19E
100
AcDbEntity
  8
0
  6
Continuous
 62
               7
100
AcDbLine
 10
577.39299746325219
 20
345.44364133725901
 30
0.0
 11
580.39299746325264
 21
346.64364133725906
 31
0.0
  0
LINE
  5
19F
100
AcDbEntity
  8
0
  6
Continuous
 62
               7
100
AcDbLine
 10
581.89299746325264
 20
338.94364133725878
 30
0.0
 11
581.89299746325264
 21
347.24364133725896
 31
0.0
  0
LINE
  5
1A0
100
AcDbEntity
  8
0
  6
Continuous
 62
               7
100
AcDbLine
 10
580.39299746325264
 20
346.64364133725883
 30
0.0
 11
581.44299746325237
 21
347.69364133725901
 31
0.0
  0
LINE
  5
1A1
100
AcDbEntity
  8
0
  6
Continuous
 62
               7
100
AcDbLine
 10
581.89299746325264
 20
347.24364133725896
 30
0.0
 11
581.44299746325237
 21
347.69364133725901
 31
0.0
  0
LINE
  5
1A2
100
AcDbEntity
  8
0
  6
Continuous
 62
               7
100
AcDbLine
 10
581.89299746325264
 20
347.24364133725896
 30
0.0
 11
582.39299746325264
 21
347.44364133725878
 31
0.0
  0
LINE
  5
1A3
100
AcDbEntity
  8
0
  6
Continuous
 62
               7
100
AcDbLine
 10
582.39299746325264
 20
338.44364133725878
 30
0.0
 11
581.89299746325264
 21
338.94364133725878
 31
0.0
  0
LINE
  5
1A4
100
AcDbEntity
  8
0
  6
Continuous
 62
               7
100
AcDbLine
 10
563.56633674166164
 20
337.3278812945756
 30
0.0
 11
566.06633674166164
 21
335.8278812945756
 31
0.0
  0
LINE
  5
1A5
100
AcDbEntity
  8
0
  6
Continuous
 62
               7
100
AcDbLine
 10
568.56633674166164
 20
337.3278812945756
 30
0.0
 11
566.06633674166164
 21
335.8278812945756
 31
0.0
  0
LINE
  5
1A6
100
AcDbEntity
  8
0
  6
Continuous
 62
               7
100
AcDbLine
 10
563.56633674166164
 20
354.3278812945756
 30
0.0
 11
568.56633674166164
 21
356.3278812945756
 31
0.0
  0
LINE
  5
1A7
100
AcDbEntity
  8
0
  6
Continuous
 62
               7
100
AcDbLine
 10
563.56633674166164
 20
352.3278812945756
 30
0.0
 11
568.56633674166164
 21
354.32788129457583
 31
0.0
  0
LINE
  5
1A8
100
AcDbEntity
  8
0
  6
Continuous
 62
               7
100
AcDbLine
 10
563.56633674166164
 20
350.3278812945756
 30
0.0
 11
568.56633674166164
 21
352.3278812945756
 31
0.0
  0
LINE
  5
1A9
100
AcDbEntity
  8
0
  6
Continuous
 62
               7
100
AcDbLine
 10
563.56633674166164
 20
348.3278812945756
 30
0.0
 11
568.56633674166164
 21
350.3278812945756
 31
0.0
  0
LINE
  5
1AA
100
AcDbEntity
  8
0
  6
Continuous
 62
               7
100
AcDbLine
 10
563.56633674166164
 20
346.3278812945756
 30
0.0
 11
568.56633674166164
 21
348.3278812945756
 31
0.0
  0
LINE
  5
1AB
100
AcDbEntity
  8
0
  6
Continuous
 62
               7
100
AcDbLine
 10
563.56633674166164
 20
344.3278812945756
 30
0.0
 11
566.56633674166164
 21
345.52788129457588
 31
0.0
  0
LINE
  5
1AC
100
AcDbEntity
  8
0
  6
Continuous
 62
               7
100
AcDbLine
 10
568.06633674166164
 20
337.8278812945756
 30
0.0
 11
568.06633674166164
 21
346.12788129457579
 31
0.0
  0
LINE
  5
1AD
100
AcDbEntity
  8
0
  6
Continuous
 62
               7
100
AcDbLine
 10
566.56633674166164
 20
345.52788129457565
 30
0.0
 11
567.61633674166183
 21
346.57788129457583
 31
0.0
  0
LINE
  5
1AE
100
AcDbEntity
  8
0
  6
Continuous
 62
               7
100
AcDbLine
 10
568.06633674166164
 20
346.12788129457579
 30
0.0
 11
567.61633674166183
 21
346.57788129457583
 31
0.0
  0
LINE
  5
1AF
100
AcDbEntity
  8
0
  6
Continuous
 62
               7
100
AcDbLine
 10
568.06633674166164
 20
346.12788129457579
 30
0.0
 11
568.56633674166164
 21
346.3278812945756
 31
0.0
  0
LINE
  5
1B0
100
AcDbEntity
  8
0
  6
Continuous
 62
               7
100
AcDbLine
 10
568.56633674166164
 20
337.3278812945756
 30
0.0
 11
568.06633674166164
 21
337.8278812945756
 31
0.0
  0
LINE
  5
1B1
100
AcDbEntity
  8
0
  6
Continuous
 62
               7
100
AcDbLine
 10
568.56633674166119
 20
337.32788129457515
 30
0.0
 11
568.56633674166164
 21
380.8278812945756
 31
0.0
  0
LINE
  5
1B2
100
AcDbEntity
  8
0
  6
Continuous
 62
               7
100
AcDbLine
 10
563.56633674166119
 20
337.3278812945756
 30
0.0
 11
563.56633674166164
 21
380.8278812945756
 31
0.0
  0
LINE
  5
1B3
100
AcDbEntity
  8
0
  6
Continuous
 62
               7
100
AcDbLine
 10
577.39299746325173
 20
338.44364133725901
 30
0.0
 11
577.39299746325219
 21
381.94364133725878
 31
0.0
  0
LINE
  5
1B4
100
AcDbEntity
  8
0
  6
Continuous
 62
               7
100
AcDbLine
 10
582.39299746325173
 20
338.4436413372581
 30
0.0
 11
582.39299746325219
 21
381.94364133725855
 31
0.0
  0
LINE
  5
1B5
100
AcDbEntity
  8
0
  6
Continuous
 62
               7
100
AcDbLine
 10
577.39299746325264
 20
359.44364133725878
 30
0.0
 11
582.39299746325264
 21
361.44364133725878
 31
0.0
  0
LINE
  5
1B6
100
AcDbEntity
  8
0
  6
Continuous
 62
               7
100
AcDbLine
 10
577.39299746325219
 20
357.44364133725878
 30
0.0
 11
582.39299746325264
 21
359.44364133725878
 31
0.0
  0
LINE
  5
1B7
100
AcDbEntity
  8
0
  6
Continuous
 62
               7
100
AcDbLine
 10
563.56633674166164
 20
358.3278812945756
 30
0.0
 11
568.56633674166164
 21
360.3278812945756
 31
0.0
  0
LINE
  5
1B8
100
AcDbEntity
  8
0
  6
Continuous
 62
               7
100
AcDbLine
 10
563.56633674166164
 20
356.3278812945756
 30
0.0
 11
568.56633674166164
 21
358.32788129457583
 31
0.0
  0
LINE
  5
1B9
100
AcDbEntity
  8
0
  6
Continuous
 62
               7
100
AcDbLine
 10
577.39299746325264
 20
363.44364133725855
 30
0.0
 11
582.39299746325264
 21
365.44364133725855
 31
0.0
  0
LINE
  5
1BA
100
AcDbEntity
  8
0
  6
Continuous
 62
               7
100
AcDbLine
 10
577.39299746325219
 20
361.44364133725855
 30
0.0
 11
582.39299746325264
 21
363.44364133725855
 31
0.0
  0
LINE
  5
1BB
100
AcDbEntity
  8
0
  6
Continuous
 62
               7
100
AcDbLine
 10
563.56633674166164
 20
362.32788129457538
 30
0.0
 11
568.56633674166164
 21
364.32788129457538
 31
0.0
  0
LINE
  5
1BC
100
AcDbEntity
  8
0
  6
Continuous
 62
               7
100
AcDbLine
 10
563.56633674166164
 20
360.32788129457538
 30
0.0
 11
568.56633674166164
 21
362.3278812945756
 31
0.0
  0
LINE
  5
1BD
100
AcDbEntity
  8
0
  6
Continuous
 62
               7
100
AcDbLine
 10
577.39299746325264
 20
367.44364133725855
 30
0.0
 11
582.39299746325264
 21
369.44364133725855
 31
0.0
  0
LINE
  5
1BE
100
AcDbEntity
  8
0
  6
Continuous
 62
               7
100
AcDbLine
 10
577.39299746325219
 20
365.44364133725855
 30
0.0
 11
582.39299746325264
 21
367.44364133725855
 31
0.0
  0
LINE
  5
1BF
100
AcDbEntity
  8
0
  6
Continuous
 62
               7
100
AcDbLine
 10
563.56633674166164
 20
366.32788129457538
 30
0.0
 11
568.56633674166164
 21
368.32788129457538
 31
0.0
  0
LINE
  5
1C0
100
AcDbEntity
  8
0
  6
Continuous
 62
               7
100
AcDbLine
 10
563.56633674166164
 20
364.32788129457538
 30
0.0
 11
568.56633674166164
 21
366.3278812945756
 31
0.0
  0
LINE
  5
1C1
100
AcDbEntity
  8
0
  6
Continuous
 62
               7
100
AcDbLine
 10
577.39299746325264
 20
371.44364133725855
 30
0.0
 11
582.39299746325264
 21
373.44364133725855
 31
0.0
  0
LINE
  5
1C2
100
AcDbEntity
  8
0
  6
Continuous
 62
               7
100
AcDbLine
 10
577.39299746325219
 20
369.44364133725855
 30
0.0
 11
582.39299746325264
 21
371.44364133725855
 31
0.0
  0
LINE
  5
1C3
100
AcDbEntity
  8
0
  6
Continuous
 62
               7
100
AcDbLine
 10
563.56633674166164
 20
370.32788129457538
 30
0.0
 11
568.56633674166164
 21
372.32788129457538
 31
0.0
  0
LINE
  5
1C4
100
AcDbEntity
  8
0
  6
Continuous
 62
               7
100
AcDbLine
 10
563.56633674166164
 20
368.32788129457538
 30
0.0
 11
568.56633674166164
 21
370.3278812945756
 31
0.0
  0
LINE
  5
1C5
100
AcDbEntity
  8
0
  6
Continuous
 62
               7
100
AcDbLine
 10
577.39299746325264
 20
375.44364133725855
 30
0.0
 11
582.39299746325264
 21
377.44364133725855
 31
0.0
  0
LINE
  5
1C6
100
AcDbEntity
  8
0
  6
Continuous
 62
               7
100
AcDbLine
 10
577.39299746325219
 20
373.44364133725855
 30
0.0
 11
582.39299746325264
 21
375.44364133725855
 31
0.0
  0
LINE
  5
1C7
100
AcDbEntity
  8
0
  6
Continuous
 62
               7
100
AcDbLine
 10
563.56633674166164
 20
374.32788129457538
 30
0.0
 11
568.56633674166164
 21
376.32788129457538
 31
0.0
  0
LINE
  5
1C8
100
AcDbEntity
  8
0
  6
Continuous
 62
               7
100
AcDbLine
 10
563.56633674166164
 20
372.32788129457538
 30
0.0
 11
568.56633674166164
 21
374.3278812945756
 31
0.0
  0
LINE
  5
1C9
100
AcDbEntity
  8
0
  6
Continuous
 62
               4
100
AcDbLine
 10
714.78679656440374
 20
21.213203435595801
 30
0.0
 11
714.78679656440374
 21
41.213203435595801
 31
0.0
  0
LINE
  5
1CA
100
AcDbEntity
  8
0
  6
Continuous
 62
               4
100
AcDbLine
 10
864.78679656440374
 20
21.213203435595801
 30
0.0
 11
714.78679656440374
 21
21.213203435595801
 31
0.0
  0
LINE
  5
1CB
100
AcDbEntity
  8
0
  6
Continuous
 62
               4
100
AcDbLine
 10
864.78679656440374
 20
41.213203435595801
 30
0.0
 11
864.78679656440374
 21
21.213203435595801
 31
0.0
  0
LINE
  5
1CC
100
AcDbEntity
  8
0
  6
Continuous
 62
               4
100
AcDbLine
 10
864.78679656440374
 20
41.213203435595801
 30
0.0
 11
714.78679656440374
 21
41.213203435595801
 31
0.0
  0
LINE
  5
1CD
100
AcDbEntity
  8
0
  6
Continuous
 62
               4
100
AcDbLine
 10
14.142135623730949
 20
595.85786437626837
 30
0.0
 11
14.142135623730949
 21
615.85786437626837
 31
0.0
  0
LINE
  5
1CE
100
AcDbEntity
  8
0
  6
Continuous
 62
               4
100
AcDbLine
 10
164.14213562373095
 20
595.85786437626837
 30
0.0
 11
14.142135623730949
 21
595.85786437626837
 31
0.0
  0
LINE
  5
1CF
100
AcDbEntity
  8
0
  6
Continuous
 62
               4
100
AcDbLine
 10
164.14213562373095
 20
615.85786437626837
 30
0.0
 11
164.14213562373095
 21
595.85786437626837
 31
0.0
  0
LINE
  5
1D0
100
AcDbEntity
  8
0
  6
Continuous
 62
               4
100
AcDbLine
 10
164.14213562373095
 20
615.85786437626837
 30
0.0
 11
14.142135623730949
 21
615.85786437626837
 31
0.0
  0
CIRCLE
  5
1D1
100
AcDbEntity
  8
0
  6
Continuous
 62
               4
100
AcDbCircle
 10
227.01450940095413
 20
278.14466658962471
 30
0.0
 40
1.500000000000002
  0
CIRCLE
  5
1D2
100
AcDbEntity
  8
0
  6
Continuous
 62
               4
100
AcDbCircle
 10
227.01451159354178
 20
260.14466658962493
 30
0.0
 40
1.500000000000002
  0
CIRCLE
  5
1D3
100
AcDbEntity
  8
0
  6
Continuous
 62
               4
100
AcDbCircle
 10
652.01455139817222
 20
382.64466878220253
 30
0.0
 40
1.500000000000002
  0
CIRCLE
  5
1D4
100
AcDbEntity
  8
0
  6
Continuous
 62
               4
100
AcDbCircle
 10
652.01455139817222
 20
342.64466878220253
 30
0.0
 40
1.500000000000002
  0
CIRCLE
  5
1D5
100
AcDbEntity
  8
0
  6
Continuous
 62
               4
100
AcDbCircle
 10
625.01455139817222
 20
411.64466878220253
 30
0.0
 40
1.500000000000002
  0
CIRCLE
  5
1D6
100
AcDbEntity
  8
0
  6
Continuous
 62
               4
100
AcDbCircle
 10
605.01455139817222
 20
411.64466878220253
 30
0.0
 40
1.500000000000002
  0
CIRCLE
  5
1D7
100
AcDbEntity
  8
0
  6
Continuous
 62
               4
100
AcDbCircle
 10
227.01455139817506
 20
384.64466878220253
 30
0.0
 40
1.500000000000002
  0
CIRCLE
  5
1D8
100
AcDbEntity
  8
0
  6
Continuous
 62
               4
100
AcDbCircle
 10
625.01455139817222
 20
462.64466878220253
 30
0.0
 40
1.500000000000002
  0
CIRCLE
  5
1D9
100
AcDbEntity
  8
0
  6
Continuous
 62
               4
100
AcDbCircle
 10
375.01455139817199
 20
462.64466878220253
 30
0.0
 40
1.500000000000002
  0
CIRCLE
  5
1DA
100
AcDbEntity
  8
0
  6
Continuous
 62
               4
100
AcDbCircle
 10
375.01455139817199
 20
462.64466878220253
 30
0.0
 40
1.500000000000002
  0
CIRCLE
  5
1DB
100
AcDbEntity
  8
0
  6
Continuous
 62
               4
100
AcDbCircle
 10
227.0145513981754
 20
429.64466878220253
 30
0.0
 40
1.500000000000002
  0
CIRCLE
  5
1DC
100
AcDbEntity
  8
0
  6
Continuous
 62
               4
100
AcDbCircle
 10
227.01455139817244
 20
381.6446687822023
 30
0.0
 40
1.500000000000002
  0
CIRCLE
  5
1DD
100
AcDbEntity
  8
0
  6
Continuous
 62
               4
100
AcDbCircle
 10
227.01455139817244
 20
281.6446687822023
 30
0.0
 40
1.500000000000002
  0
CIRCLE
  5
1DE
100
AcDbEntity
  8
0
  6
Continuous
 62
               4
100
AcDbCircle
 10
297.18289881026772
 20
269.14466878221748
 30
0.0
 40
1.5
  0
CIRCLE
  5
1DF
100
AcDbEntity
  8
0
  6
Continuous
 62
               4
100
AcDbCircle
 10
299.86239073457898
 20
279.14466878221742
 30
0.0
 40
1.5
  0
CIRCLE
  5
1E0
100
AcDbEntity
  8
0
  6
Continuous
 62
               4
100
AcDbCircle
 10
328.13103053605835
 20
384.64466878220253
 30
0.0
 40
1.5
  0
CIRCLE
  5
1E1
100
AcDbEntity
  8
0
  6
Continuous
 62
               4
100
AcDbCircle
 10
313.92972333720888
 20
331.6446687822023
 30
0.0
 40
1.5
  0
ARC
  5
1E2
100
AcDbEntity
  8
0
  6
Continuous
 62
               6
100
AcDbCircle
 10
534.31455139817228
 20
257.84466873453385
 30
0.0
 40
2.2999999999999998
100
AcDbArc
 50
90.000000000000028
 51
180.0
  0
ARC
  5
1E3
100
AcDbEntity
  8
0
  6
Continuous
 62
               6
100
AcDbCircle
 10
579.71455139817249
 20
257.84466873453385
 30
0.0
 40
2.2999999999999998
100
AcDbArc
 50
0.0
 51
90.000000000000028
  0
ARC
  5
1E4
100
AcDbEntity
  8
0
  6
Continuous
 62
               6
100
AcDbCircle
 10
579.71455139817203
 20
162.44466873453354
 30
0.0
 40
2.2999999999999998
100
AcDbArc
 50
270.0
 51
0.0
  0
ARC
  5
1E5
100
AcDbEntity
  8
0
  6
Continuous
 62
               6
100
AcDbCircle
 10
534.31455139817228
 20
162.44466873453354
 30
0.0
 40
2.2999999999999998
100
AcDbArc
 50
180.0
 51
270.0
  0
ARC
  5
1E6
100
AcDbEntity
  8
0
  6
Continuous
 62
               7
100
AcDbCircle
 10
346.11455139817554
 20
281.6446687822023
 30
0.0
 40
1.0
100
AcDbArc
 50
112.61986494804128
 51
270.0
  0
ARC
  5
1E7
100
AcDbEntity
  8
0
  6
Continuous
 62
               7
100
AcDbCircle
 10
346.11455139817554
 20
284.6446687822023
 30
0.0
 40
1.0
100
AcDbArc
 50
90.000000000000028
 51
247.3801350519594
  0
ARC
  5
1E8
100
AcDbEntity
  8
0
  6
Continuous
 62
               7
100
AcDbCircle
 10
345.48955139817554
 20
283.1446687822023
 30
0.0
 40
0.625
100
AcDbArc
 50
292.61986494803938
 51
67.380135051961034
  0
ARC
  5
1E9
100
AcDbEntity
  8
0
  6
Continuous
 62
               7
100
AcDbCircle
 10
403.91455139817572
 20
281.6446687822023
 30
0.0
 40
1.0
100
AcDbArc
 50
270.0
 51
67.380135051958646
  0
ARC
  5
1EA
100
AcDbEntity
  8
0
  6
Continuous
 62
               7
100
AcDbCircle
 10
403.91455139817572
 20
284.6446687822023
 30
0.0
 40
1.0
100
AcDbArc
 50
292.61986494804057
 51
90.0
  0
ARC
  5
1EB
100
AcDbEntity
  8
0
  6
Continuous
 62
               7
100
AcDbCircle
 10
404.53955139817572
 20
283.1446687822023
 30
0.0
 40
0.625
100
AcDbArc
 50
112.61986494803888
 51
247.38013505196056
  0
ARC
  5
1EC
100
AcDbEntity
  8
0
  6
Continuous
 62
               7
100
AcDbCircle
 10
370.86455139817565
 20
288.6446555470755
 30
0.0
 40
3.0
100
AcDbArc
 50
269.99996936093186
 51
0.0
  0
ARC
  5
1ED
100
AcDbEntity
  8
0
  6
Continuous
 62
               7
100
AcDbCircle
 10
379.1645513981756
 20
288.64466878220225
 30
0.0
 40
3.0
100
AcDbArc
 50
180.0
 51
269.99999999999994
  0
ARC
  5
1EE
100
AcDbEntity
  8
0
  6
Continuous
 62
               7
100
AcDbCircle
 10
329.20647033084276
 20
254.45850657897807
 30
0.0
 40
30.0
100
AcDbArc
 50
344.86278517270802
 51
2.9923020128758626
  0
ARC
  5
1EF
100
AcDbEntity
  8
0
  6
Continuous
 62
               7
100
AcDbCircle
 10
420.82263246550849
 20
254.45850657897807
 30
0.0
 40
30.0
100
AcDbArc
 50
177.00769798712417
 51
195.13721482729198
  0
ARC
  5
1F0
100
AcDbEntity
  8
0
  6
Continuous
 62
               2
100
AcDbCircle
 10
599.51455139817176
 20
232.64466878220242
 30
0.0
 40
0.499999999999972
100
AcDbArc
 50
179.99999999998045
 51
0.0
  0
ARC
  5
1F1
100
AcDbEntity
  8
0
  6
Continuous
 62
               2
100
AcDbCircle
 10
604.51455139817222
 20
342.64466878220253
 30
0.0
 40
0.499999999999972
100
AcDbArc
 50
179.99999999998045
 51
0.0
  0
ARC
  5
1F2
100
AcDbEntity
  8
0
  6
Continuous
 62
               2
100
AcDbCircle
 10
625.01455139817222
 20
383.14466878220253
 30
0.0
 40
0.499999999999972
100
AcDbArc
 50
270.0
 51
90.0
  0
ARC
  5
1F3
100
AcDbEntity
  8
0
  6
Continuous
 62
               2
100
AcDbCircle
 10
625.01455139817222
 20
383.14466878220253
 30
0.0
 40
1.500000000000002
100
AcDbArc
 50
270.0
 51
90.0
  0
ARC
  5
1F4
100
AcDbEntity
  8
0
  6
Continuous
 62
               7
100
AcDbCircle
 10
375.01455139817563
 20
425.64466878223709
 30
0.0
 40
3.0000000000000142
100
AcDbArc
 50
0.0
 51
180.00000000000028
  0
ARC
  5
1F5
100
AcDbEntity
  8
0
  6
Continuous
 62
               7
100
AcDbCircle
 10
372.86455139817565
 20
416.64466878223686
 30
0.0
 40
1.0
100
AcDbArc
 50
0.0
 51
90.000000000000028
  0
ARC
  5
1F6
100
AcDbEntity
  8
0
  6
Continuous
 62
               7
100
AcDbCircle
 10
377.1645513981756
 20
416.64466878223686
 30
0.0
 40
1.0
100
AcDbArc
 50
90.000000000000028
 51
180.0
  0
ARC
  5
1F7
100
AcDbEntity
  8
0
  6
Continuous
 62
               7
100
AcDbCircle
 10
379.51455139817563
 20
419.14466878223686
 30
0.0
 40
1.5
100
AcDbArc
 50
270.0
 51
0.0
  0
ARC
  5
1F8
100
AcDbEntity
  8
0
  6
Continuous
 62
               7
100
AcDbCircle
 10
380.01455139817563
 20
420.73045521986398
 30
0.0
 40
1.0
100
AcDbArc
 50
0.0
 51
45.000000000000099
  0
ARC
  5
1F9
100
AcDbEntity
  8
0
  6
Continuous
 62
               7
100
AcDbCircle
 10
369.51455139817563
 20
418.14466878223686
 30
0.0
 40
0.5
100
AcDbArc
 50
180.0
 51
270.0
  0
ARC
  5
1FA
100
AcDbEntity
  8
0
  6
Continuous
 62
               7
100
AcDbCircle
 10
369.51455139817563
 20
422.43756200105042
 30
0.0
 40
0.5
100
AcDbArc
 50
134.99999999999994
 51
180.0
  0
ARC
  5
1FB
100
AcDbEntity
  8
0
  6
Continuous
 62
               7
100
AcDbCircle
 10
379.01455139817563
 20
424.5588823446102
 30
0.0
 40
1.0
100
AcDbArc
 50
180.0
 51
225.00000000000026
  0
ARC
  5
1FC
100
AcDbEntity
  8
0
  6
Continuous
 62
               2
100
AcDbCircle
 10
375.01455139817563
 20
420.64466878223709
 30
0.0
 40
9.0
100
AcDbArc
 50
283.82097097210107
 51
217.8192442185412
  0
ARC
  5
1FD
100
AcDbEntity
  8
0
  6
Continuous
 62
               2
100
AcDbCircle
 10
375.01455139817585
 20
425.64466878223709
 30
0.0
 40
3.5000000000000142
100
AcDbArc
 50
0.0
 51
176.50060970325697
  0
ARC
  5
1FE
100
AcDbEntity
  8
0
  6
Continuous
 62
               2
100
AcDbCircle
 10
380.56455139817581
 20
420.958272679169
 30
0.0
 40
1.0
100
AcDbArc
 50
0.0
 51
45.000000000000391
  0
ARC
  5
1FF
100
AcDbEntity
  8
0
  6
Continuous
 62
               2
100
AcDbCircle
 10
379.51455139817585
 20
424.83669980391539
 30
0.0
 40
1.0
100
AcDbArc
 50
180.0
 51
225.00000000000043
  0
ARC
  5
200
100
AcDbEntity
  8
0
  6
Continuous
 62
               2
100
AcDbCircle
 10
370.01455139817585
 20
421.52334843867732
 30
0.0
 40
2.0
100
AcDbArc
 50
134.99999999999994
 51
180.0
  0
ARC
  5
201
100
AcDbEntity
  8
0
  6
Continuous
 62
               2
100
AcDbCircle
 10
369.01455139817585
 20
417.64466878223686
 30
0.0
 40
1.0
100
AcDbArc
 50
180.0
 51
270.0
  0
ARC
  5
202
100
AcDbEntity
  8
0
  6
Continuous
 62
               2
100
AcDbCircle
 10
371.86455139817588
 20
415.64466878223686
 30
0.0
 40
1.0
100
AcDbArc
 50
0.0
 51
90.000000000000028
  0
ARC
  5
203
100
AcDbEntity
  8
0
  6
Continuous
 62
               2
100
AcDbCircle
 10
368.69495853682815
 20
415.73928948326272
 30
0.0
 40
1.0
100
AcDbArc
 50
217.81924421854103
 51
315.00000000000063
  0
ARC
  5
204
100
AcDbEntity
  8
0
  6
Continuous
 62
               2
100
AcDbCircle
 10
370.77191071105631
 20
415.6949213139311
 30
0.0
 40
0.5
100
AcDbArc
 50
45.000000000000561
 51
134.99999999999994
  0
ARC
  5
205
100
AcDbEntity
  8
0
  6
Continuous
 62
               2
100
AcDbCircle
 10
482.01455139816926
 20
379.91966878226037
 30
0.0
 40
9.7249999999999979
100
AcDbArc
 50
29.068910161080161
 51
150.93108983891977
  0
ARC
  5
206
100
AcDbEntity
  8
0
  6
Continuous
 62
               2
100
AcDbCircle
 10
588.01455139816971
 20
379.91966878226037
 30
0.0
 40
9.7249999999999979
100
AcDbArc
 50
29.068910161080161
 51
150.93108983891977
  0
ARC
  5
207
100
AcDbEntity
  8
0
  6
Continuous
 62
               2
100
AcDbCircle
 10
268.01455139817847
 20
379.91966878224241
 30
0.0
 40
9.7249999999999979
100
AcDbArc
 50
29.068910161080161
 51
150.93108983891977
  0
ARC
  5
208
100
AcDbEntity
  8
0
  6
Continuous
 62
               7
100
AcDbCircle
 10
549.96439966587729
 20
250.44079740473893
 30
0.0
 40
30.0
100
AcDbArc
 50
177.00769798712417
 51
195.13721482729198
  0
ARC
  5
209
100
AcDbEntity
  8
0
  6
Continuous
 62
               7
100
AcDbCircle
 10
550.433900742746
 20
345.07758779688845
 30
0.0
 40
30.0
100
AcDbArc
 50
344.86278517270802
 51
2.9923020128758626
  0
ARC
  5
20A
100
AcDbEntity
  8
0
  6
Continuous
 62
               7
100
AcDbCircle
 10
536.60724002115523
 20
343.96182775420527
 30
0.0
 40
30.0
100
AcDbArc
 50
344.86278517270802
 51
2.9923020128758626
  0
TEXT
  5
20B
100
AcDbEntity
  8
0
 62
               7
100
AcDbText
 10
652.01455139817222
 20
356.64466878220253
 30
0.0
 40
12.000000000000012
  1
40
 50
90.000000000000028
 41
0.7695
  7
FontTableH_0
 72
               5
 11
652.01455139817222
 21
368.64466878220253
 31
0.0
100
AcDbText
  0
TEXT
  5
20C
100
AcDbEntity
  8
0
 62
               7
100
AcDbText
 10
609.01455139817222
 20
411.64466878220253
 30
0.0
 40
12.000000000000012
  1
20
 41
0.7695
  7
FontTableH_0
 72
               5
 11
621.01455139817222
 21
411.64466878220253
 31
0.0
100
AcDbText
  0
TEXT
  5
20D
100
AcDbEntity
  8
0
 62
               7
100
AcDbText
 10
395.52857116909581
 20
432.23449927992317
 30
0.0
 40
12.000000000000012
  1
吊子
 41
0.7695
  7
FontTableH_0
 72
               5
 11
419.52857116909581
 21
432.23449927992317
 31
0.0
100
AcDbText
  0
TEXT
  5
20E
100
AcDbEntity
  8
0
 62
               7
100
AcDbText
 10
227.01455139817244
 20
322.6446687822023
 30
0.0
 40
11.999999999999332
  1
100
 50
90.000000000000028
 41
0.7695
  7
FontTableH_0
 72
               5
 11
227.01455139817244
 21
340.6446687822023
 31
0.0
100
AcDbText
  0
TEXT
  5
20F
100
AcDbEntity
  8
0
 62
               7
100
AcDbText
 10
626.89561665008523
 20
202.70931681069106
 30
0.0
 40
11.999999999999929
  1
水切り
 41
0.7695
  7
FontTableH_0
 72
               5
 11
662.89561665008523
 21
202.70931681069106
 31
0.0
100
AcDbText
  0
TEXT
  5
210
100
AcDbEntity
  8
0
 62
               7
100
AcDbText
 10
633.8787115302639
 20
315.71800873993499
 30
0.0
 40
12.000000000000183
  1
唐草
 41
0.7695
  7
FontTableH_0
 72
               5
 11
657.8787115302639
 21
315.71800873993499
 31
0.0
100
AcDbText
  0
TEXT
  5
211
100
AcDbEntity
  8
0
 62
               7
100
AcDbText
 10
626.93180592127351
 20
262.26938010691015
 30
0.0
 40
12.000000000000183
  1
補強材
 41
0.7695
  7
FontTableH_0
 72
               5
 11
662.93180592127351
 21
262.26938010691015
 31
0.0
100
AcDbText
  0
TEXT
  5
212
100
AcDbEntity
  8
0
 62
               7
100
AcDbText
 10
227.01451124169461
 20
263.03314692394798
 30
0.0
 40
12.000000000000101
  1
18
 50
90.000006979222761
 41
0.7695
  7
FontTableH_0
 72
               5
 11
227.01450977996961
 21
275.03314692394798
 31
0.0
100
AcDbText
  0
TEXT
  5
213
100
AcDbEntity
  8
0
 62
               7
100
AcDbText
 10
452.01455139817216
 20
462.64466878220253
 30
0.0
 40
12.000000000000012
  1
(割付により調整)
 41
0.7695
  7
FontTableH_0
 72
               5
 11
548.01455139817222
 21
462.64466878220253
 31
0.0
100
AcDbText
  0
TEXT
  5
214
100
AcDbEntity
  8
0
 62
               7
100
AcDbText
 10
227.01455139817529
 20
401.14466878220253
 30
0.0
 40
12.000000000000012
  1
45
 50
90.000000000000028
 41
0.7695
  7
FontTableH_0
 72
               5
 11
227.01455139817529
 21
413.14466878220253
 31
0.0
100
AcDbText
  0
TEXT
  5
215
100
AcDbEntity
  8
0
 62
               7
100
AcDbText
 10
298.01455139817222
 20
462.64466878220253
 30
0.0
 40
12.000000000000012
  1
@320
 41
0.7695
  7
FontTableH_0
 72
               5
 11
322.01455139817222
 21
462.64466878220253
 31
0.0
100
AcDbText
  0
TEXT
  5
216
100
AcDbEntity
  8
0
 62
               7
100
AcDbText
 10
382.82158704496453
 20
510.12134366175189
 30
0.0
 40
11.999999999999503
  1
野地板
 41
0.7695
  7
FontTableH_0
 72
               5
 11
418.82158704496459
 21
510.12134366175189
 31
0.0
100
AcDbText
  0
TEXT
  5
217
100
AcDbEntity
  8
0
 62
               7
100
AcDbText
 10
382.82158704496453
 20
525.12134366175189
 30
0.0
 40
11.999999999999332
  1
ルーフィング
 41
0.7695
  7
FontTableH_0
 72
               5
 11
454.82158704496459
 21
525.12134366175189
 31
0.0
100
AcDbText
  0
TEXT
  5
218
100
AcDbEntity
  8
0
 62
               7
100
AcDbText
 10
382.82158704496453
 20
540.12134366175189
 30
0.0
 40
11.999999999999332
  1
断熱材
 41
0.7695
  7
FontTableH_0
 72
               5
 11
418.82158704496459
 21
540.12134366175189
 31
0.0
100
AcDbText
  0
TEXT
  5
219
100
AcDbEntity
  8
0
 62
               7
100
AcDbText
 10
382.82158704496453
 20
555.12134366175189
 30
0.0
 40
12.000000000000012
  1
屋根本体
 41
0.7695
  7
FontTableH_0
 72
               5
 11
430.82158704496459
 21
555.12134366175189
 31
0.0
100
AcDbText
  0
TEXT
  5
21A
100
AcDbEntity
  8
0
 62
               7
100
AcDbText
 10
66.642136219777342
 20
601.35786449547766
 30
0.0
 40
8.9999997615814422
  1
コブラ工法
 41
0.7695
  7
FontTableH_0
 72
               5
 11
111.64213502768456
 21
601.35786449547766
 31
0.0
100
AcDbText
  0
TEXT
  5
21B
100
AcDbEntity
  8
0
 62
               7
100
AcDbText
 10
740.28679787570559
 20
26.71320355480508
 30
0.0
 40
8.9999997615814422
  1
ケラバ詳細図 【S=1/3】
 41
0.7695
  7
FontTableH_0
 72
               5
 11
839.28679525310145
 21
26.71320355480508
 31
0.0
100
AcDbText
  0
ENDSEC
  0
SECTION
  2
OBJECTS
  0
DICTIONARY
  5
19
100
AcDbDictionary
  3
ACAD_GROUP
350
1A
  3
ACAD_MLINESTYLE
350
1B
  3
DWGPROPS
350
21C
  0
DICTIONARY
  5
1A
102
{ACAD_REACTORS
330
19
102
}
100
AcDbDictionary
  0
DICTIONARY
  5
1B
102
{ACAD_REACTORS
330
19
102
}
100
AcDbDictionary
  3
STANDARD
350
1C
  0
MLINESTYLE
  5
1C
102
{ACAD_REACTORS
330
1B
102
}
100
AcDbMlineStyle
  2
Standard
 70
               0
  3

 62
               0
 51
90.0
 52
90.0
 71
               2
 49
0.5
 62
             256
  6
ByLayer
 49
-0.5
 62
             256
  6
ByLayer
  0
XRECORD
  5
21C
100
AcDbXrecord
  1
DWGPROPS COOKIE
  2

  3

  4

  6

  7

  0
ENDSEC
  0
EOF
