  0
SECTION
  2
HEADER
  9
$ACADVER
  1
AC1014
  9
$ACADMAINTVER
 70
               0
  9
$DWGCODEPAGE
  3
ANSI_932
  9
$INSBASE
 10
0.0
 20
0.0
 30
0.0
  9
$EXTMIN
 10
0.0
 20
0.0
 30
0.0
  9
$EXTMAX
 10
1485.0
 20
1050.0
 30
0.0
  9
$LIMMIN
 10
0.0
 20
0.0
  9
$LIMMAX
 10
1485.0
 20
1050.0
  9
$ORTHOMODE
 70
               0
  9
$REGENMODE
 70
               1
  9
$FILLMODE
 70
               1
  9
$QTEXTMODE
 70
               0
  9
$MIRRTEXT
 70
               1
  9
$DRAGMODE
 70
               2
  9
$LTSCALE
 40
5.0
  9
$OSMODE
 70
               0
  9
$ATTMODE
 70
               1
  9
$TEXTSIZE
 40
0.2
  9
$TRACEWID
 40
0.05
  9
$TEXTSTYLE
  7
Standard
  9
$CLAYER
  8
0
  9
$CELTYPE
  6
Continuous
  9
$CECOLOR
 62
             256
  9
$CELTSCALE
 40
1.0
  9
$DELOBJ
 70
               1
  9
$DISPSILH
 70
               0
  9
$DIMSCALE
 40
1.0
  9
$DIMASZ
 40
0.18
  9
$DIMEXO
 40
0.0625
  9
$DIMDLI
 40
0.38
  9
$DIMRND
 40
0.0
  9
$DIMDLE
 40
0.0
  9
$DIMEXE
 40
0.18
  9
$DIMTP
 40
0.0
  9
$DIMTM
 40
0.0
  9
$DIMTXT
 40
0.18
  9
$DIMCEN
 40
0.09
  9
$DIMTSZ
 40
0.0
  9
$DIMTOL
 70
               0
  9
$DIMLIM
 70
               0
  9
$DIMTIH
 70
               1
  9
$DIMTOH
 70
               1
  9
$DIMSE1
 70
               0
  9
$DIMSE2
 70
               0
  9
$DIMTAD
 70
               0
  9
$DIMZIN
 70
               0
  9
$DIMBLK
  1

  9
$DIMASO
 70
               1
  9
$DIMSHO
 70
               1
  9
$DIMPOST
  1

  9
$DIMAPOST
  1

  9
$DIMALT
 70
               0
  9
$DIMALTD
 70
               2
  9
$DIMALTF
 40
25.399999999999999
  9
$DIMLFAC
 40
1.0
  9
$DIMTOFL
 70
               0
  9
$DIMTVP
 40
0.0
  9
$DIMTIX
 70
               0
  9
$DIMSOXD
 70
               0
  9
$DIMSAH
 70
               0
  9
$DIMBLK1
  1

  9
$DIMBLK2
  1

  9
$DIMSTYLE
  2
Standard
  9
$DIMCLRD
 70
               0
  9
$DIMCLRE
 70
               0
  9
$DIMCLRT
 70
               0
  9
$DIMTFAC
 40
1.0
  9
$DIMGAP
 40
0.09
  9
$DIMJUST
 70
               0
  9
$DIMSD1
 70
               0
  9
$DIMSD2
 70
               0
  9
$DIMTOLJ
 70
               1
  9
$DIMTZIN
 70
               0
  9
$DIMALTZ
 70
               0
  9
$DIMALTTZ
 70
               0
  9
$DIMFIT
 70
               3
  9
$DIMUPT
 70
               0
  9
$DIMUNIT
 70
               2
  9
$DIMDEC
 70
               4
  9
$DIMTDEC
 70
               4
  9
$DIMALTU
 70
               2
  9
$DIMALTTD
 70
               2
  9
$DIMTXSTY
  7
Standard
  9
$DIMAUNIT
 70
               0
  9
$LUNITS
 70
               2
  9
$LUPREC
 70
               4
  9
$SKETCHINC
 40
0.1
  9
$FILLETRAD
 40
0.0
  9
$AUNITS
 70
               0
  9
$AUPREC
 70
               0
  9
$MENU
  1
acad
  9
$ELEVATION
 40
0.0
  9
$PELEVATION
 40
0.0
  9
$THICKNESS
 40
0.0
  9
$LIMCHECK
 70
               0
  9
$BLIPMODE
 70
               1
  9
$CHAMFERA
 40
0.0
  9
$CHAMFERB
 40
0.0
  9
$CHAMFERC
 40
0.0
  9
$CHAMFERD
 40
0.0
  9
$SKPOLY
 70
               0
  9
$TDCREATE
 40
0.000000000
  9
$TDUPDATE
 40
0.000000000
  9
$TDINDWG
 40
0.0000000000
  9
$TDUSRTIMER
 40
0.0000000000
  9
$USRTIMER
 70
               1
  9
$ANGBASE
 50
0.0
  9
$ANGDIR
 70
               0
  9
$PDMODE
 70
               0
  9
$PDSIZE
 40
0.0
  9
$PLINEWID
 40
0.0
  9
$COORDS
 70
               0
  9
$SPLFRAME
 70
               0
  9
$SPLINETYPE
 70
               6
  9
$SPLINESEGS
 70
               8
  9
$ATTDIA
 70
               0
  9
$ATTREQ
 70
               1
  9
$HANDLING
 70
               1
  9
$HANDSEED
  5
34B
  9
$SURFTAB1
 70
               6
  9
$SURFTAB2
 70
               6
  9
$SURFTYPE
 70
               6
  9
$SURFU
 70
               6
  9
$SURFV
 70
               6
  9
$UCSNAME
  2

  9
$UCSORG
 10
0.0
 20
0.0
 30
0.0
  9
$UCSXDIR
 10
1.0
 20
0.0
 30
0.0
  9
$UCSYDIR
 10
0.0
 20
1.0
 30
0.0
  9
$PUCSNAME
  2

  9
$PUCSORG
 10
0.0
 20
0.0
 30
0.0
  9
$PUCSXDIR
 10
1.0
 20
0.0
 30
0.0
  9
$PUCSYDIR
 10
0.0
 20
1.0
 30
0.0
  9
$USERI1
 70
               0
  9
$USERI2
 70
               0
  9
$USERI3
 70
               0
  9
$USERI4
 70
               0
  9
$USERI5
 70
               0
  9
$USERR1
 40
0.0
  9
$USERR2
 40
0.0
  9
$USERR3
 40
0.0
  9
$USERR4
 40
0.0
  9
$USERR5
 40
0.0
  9
$WORLDVIEW
 70
               1
  9
$SHADEDGE
 70
               3
  9
$SHADEDIF
 70
              70
  9
$TILEMODE
 70
               1
  9
$MAXACTVP
 70
              16
  9
$PINSBASE
 10
0.0
 20
0.0
 30
0.0
  9
$PLIMCHECK
 70
               0
  9
$PEXTMIN
 10
1.0000000000000000E+20
 20
1.0000000000000000E+20
 30
1.0000000000000000E+20
  9
$PEXTMAX
 10
-1.0000000000000000E+20
 20
-1.0000000000000000E+20
 30
-1.0000000000000000E+20
  9
$PLIMMIN
 10
0.0
 20
0.0
  9
$PLIMMAX
 10
12.0
 20
9.0
  9
$UNITMODE
 70
               0
  9
$VISRETAIN
 70
               0
  9
$PLINEGEN
 70
               1
  9
$PSLTSCALE
 70
               0
  9
$TREEDEPTH
 70
            3020
  9
$PICKSTYLE
 70
               1
  9
$CMLSTYLE
  2
Standard
  9
$CMLJUST
 70
               0
  9
$CMLSCALE
 40
1.0
  9
$PROXYGRAPHICS
 70
               0
  9
$MEASUREMENT
 70
               0
  0
ENDSEC
  0
SECTION
  2
CLASSES
  0
CLASS
  1
LWPOLYLINE
  2
AcDbPolyline
  3
"AutoCAD"
 90
        0
280
               0
281
               1
  0
CLASS
  1
IMAGE
  2
AcDbRasterImage
  3
ISM
 90
      127
280
               0
281
               1
  0
CLASS
  1
OLE2FRAME
  2
AcDbOle2Frame
  3
""
 90
        0
280
               0
281
               1
  0
CLASS
  1
HATCH
  2
AcDbHatch
  3
"ACAD_SEDONA"
 90
        0
280
               0
281
               1
  0
CLASS
  1
DICTIONARYVAR
  2
AcDbDictionaryVar
  3
"AutoCAD"
 90
        0
280
               0
281
               0
  0
CLASS
  1
RASTERVARIABLES
  2
AcDbRasterVariables
  3
ISM
 90
        0
280
               0
281
               0
  0
CLASS
  1
IMAGEDEF
  2
AcDbRasterImageDef
  3
ISM
 90
        0
280
               0
281
               0
  0
CLASS
  1
IMAGEDEF_REACTOR
  2
AcDbRasterImageDefReactor
  3
ISM
 90
        1
280
               0
281
               0
  0
CLASS
  1
IDBUFFER
  2
AcDbIdBuffer
  3
"Acad"
 90
        0
280
               0
281
               0
  0
CLASS
  1
SPATIAL_FILTER
  2
AcDbSpatialFilter
  3
"Acad"
 90
        0
280
               0
281
               0
  0
CLASS
  1
XRECORD
  2
AcDbXrecord
  3
"<Built In>"
 90
        0
280
               0
281
               0
  0
CLASS
  1
SORTENTSTABLE
  2
AcDbSortentsTable
  3
"AutoCAD"
 90
        0
280
               0
281
               0
  0
CLASS
  1
LAYER_INDEX
  2
AcDbLayerIndex
  3
"Acad"
 90
        0
280
               0
281
               0
  0
CLASS
  1
SPATIAL_INDEX
  2
AcDbSpatialIndex
  3
"Acad"
 90
        0
280
               0
281
               0
  0
CLASS
  1
OBJECT_PTR
  2
CAseDLPNTableRecord
  3
"ASE-LPNTableRecord"
 90
        1
280
               0
281
               0
  0
CLASS
  1
LAYOUT
  2
AcDbLayout
  3
"AutoCAD 2000"
 90
        0
280
               0
281
               0
  0
CLASS
  1
PLOTSETTINGS
  2
AcDbPlotSettings
  3
"AutoCAD 2000"
 90
        0
280
               0
281
               0
  0
CLASS
  1
ACDBDICTIONARYWDFLT
  2
AcDbDictionaryWithDefault
  3
"AutoCAD 2000"
 90
        0
280
               0
281
               0
  0
CLASS
  1
ACDBPLACEHOLDER
  2
AcDbPlaceHolder
  3
"AutoCAD 2000"
 90
        0
280
               0
281
               0
  0
CLASS
  1
VBA_PROJECT
  2
AcDbVbaProject
  3
"acadvba"
 90
        0
280
               0
281
               0
  0
CLASS
  1
WIPEOUT
  2
AcDbWipeout
  3
WipeOut|AutoCAD Express Tool|expresstools@autodesk.com
 90
      127
280
               0
281
               1
  0
CLASS
  1
WIPEOUTVARIABLES
  2
AcDbWipeoutVariables
  3
WipeOut|AutoCAD Express Tool|expresstools@autodesk.com
 90
        0
280
               0
281
               0
  0
CLASS
  1
RTEXT
  2
RText
  3
RText|AutoCAD Express Tool|expresstools@autodesk.com
 90
        0
280
               0
281
               1
  0
CLASS
  1
ARCALIGNEDTEXT
  2
AcDbArcAlignedText
  3
ATEXT|AutoCAD Express Tool|expresstools@autodesk.com
 90
        0
280
               0
281
               1
  0
ENDSEC
  0
SECTION
  2
TABLES
  0
TABLE
  2
VPORT
  5
7
100
AcDbSymbolTable
 70
               1
  0
VPORT
  5
15
100
AcDbSymbolTableRecord
100
AcDbViewportTableRecord
  2
*ACTIVE
 70
               0
 10
0.0
 20
0.0
 11
1.0
 21
1.0
 12
742.5
 22
525.0
 13
0.0
 23
0.0
 14
10.0
 24
10.0
 15
10.0
 25
10.0
 16
0.0
 26
0.0
 36
1.0
 17
0.0
 27
0.0
 37
0.0
 40
1050.0
 41
1.4142857142857144
 42
50.0
 43
0.0
 44
0.0
 50
0.0
 51
0.0
 71
               0
 72
             100
 73
               1
 74
               1
 75
               0
 76
               0
 77
               0
 78
               0
  0
ENDTAB
  0
TABLE
  2
LTYPE
  5
4
100
AcDbSymbolTable
 70
              24
  0
LTYPE
  5
11
100
AcDbSymbolTableRecord
100
AcDbLinetypeTableRecord
  2
ByBlock
 70
              64
  3

 72
              65
 73
               0
 40
0.0
  0
LTYPE
  5
12
100
AcDbSymbolTableRecord
100
AcDbLinetypeTableRecord
  2
ByLayer
 70
              64
  3

 72
              65
 73
               0
 40
0.0
  0
LTYPE
  5
13
100
AcDbSymbolTableRecord
100
AcDbLinetypeTableRecord
  2
Continuous
 70
              64
  3
Solid line
 72
              65
 73
               0
 40
0.0
  0
LTYPE
  5
1D
100
AcDbSymbolTableRecord
100
AcDbLinetypeTableRecord
  2
DOT
 70
              64
  3
Dot . . . . . . . . . . . . . . . . . . . . . .
 72
              65
 73
               2
 40
6.3499999999999996
 49
0.35
 74
               0
 49
-6.0
 74
               0
  0
LTYPE
  5
1E
100
AcDbSymbolTableRecord
100
AcDbLinetypeTableRecord
  2
DASHED
 70
              64
  3
Dashed __ __ __ __ __ __ __ __ __ __ __ __ __ _
 72
              65
 73
               2
 40
12.699999999999999
 49
6.3499999999999996
 74
               0
 49
-6.3499999999999996
 74
               0
  0
LTYPE
  5
1F
100
AcDbSymbolTableRecord
100
AcDbLinetypeTableRecord
  2
DASHDOT
 70
              64
  3
Dash dot __ . __ . __ . __ . __ . __ . __ . __
 72
              65
 73
               4
 40
25.399999999999999
 49
12.699999999999999
 74
               0
 49
-6.0
 74
               0
 49
0.7
 74
               0
 49
-6.0
 74
               0
  0
LTYPE
  5
20
100
AcDbSymbolTableRecord
100
AcDbLinetypeTableRecord
  2
DIVIDE
 70
              64
  3
Divide ____ . . ____ . . ____ . . ____ . . ____
 72
              65
 73
               6
 40
31.75
 49
12.699999999999999
 74
               0
 49
-6.0
 74
               0
 49
0.875
 74
               0
 49
-6.0
 74
               0
 49
0.875
 74
               0
 49
-6.0
 74
               0
  0
LTYPE
  5
21
100
AcDbSymbolTableRecord
100
AcDbLinetypeTableRecord
  2
HIDDEN
 70
              64
  3
Hidden __ __ __ __ __ __ __ __ __ __ __ __ __ _
 72
              65
 73
               2
 40
9.5250000000000004
 49
6.3499999999999996
 74
               0
 49
-3.1749999999999998
 74
               0
  0
LTYPE
  5
22
100
AcDbSymbolTableRecord
100
AcDbLinetypeTableRecord
  2
CENTER
 70
              64
  3
Center ____ _ ____ _ ____ _ ____ _ ____ _ ____
 72
              65
 73
               4
 40
50.799999999999997
 49
31.75
 74
               0
 49
-6.3499999999999996
 74
               0
 49
6.3499999999999996
 74
               0
 49
-6.3499999999999996
 74
               0
  0
LTYPE
  5
23
100
AcDbSymbolTableRecord
100
AcDbLinetypeTableRecord
  2
PHANTOM
 70
              64
  3
Phantom ______  __  __  ______  __  __  ______
 72
              65
 73
               6
 40
63.5
 49
31.75
 74
               0
 49
-6.3499999999999996
 74
               0
 49
6.3499999999999996
 74
               0
 49
-6.3499999999999996
 74
               0
 49
6.3499999999999996
 74
               0
 49
-6.3499999999999996
 74
               0
  0
LTYPE
  5
24
100
AcDbSymbolTableRecord
100
AcDbLinetypeTableRecord
  2
ACAD_ISO02W100
 70
              64
  3
ISO dash __ __ __ __ __ __ __ __ __ __ __ __ __
 72
              65
 73
               2
 40
15.0
 49
12.0
 74
               0
 49
-3.0
 74
               0
  0
LTYPE
  5
25
100
AcDbSymbolTableRecord
100
AcDbLinetypeTableRecord
  2
ACAD_ISO03W100
 70
              64
  3
ISO dash space __ __ __ __ __ __ __ __ __ __ __ __ __ __
 72
              65
 73
               2
 40
30.0
 49
12.0
 74
               0
 49
-18.0
 74
               0
  0
LTYPE
  5
26
100
AcDbSymbolTableRecord
100
AcDbLinetypeTableRecord
  2
ACAD_ISO04W100
 70
              64
  3
ISO long-dash dot ____ . ____ . ____ . ____ . _
 72
              65
 73
               4
 40
30.0
 49
24.0
 74
               0
 49
-3.0
 74
               0
 49
0.0
 74
               0
 49
-3.0
 74
               0
  0
LTYPE
  5
27
100
AcDbSymbolTableRecord
100
AcDbLinetypeTableRecord
  2
ACAD_ISO05W100
 70
              64
  3
ISO long-dash double-dot ____ .. ____ .. ____ .
 72
              65
 73
               6
 40
33.0
 49
24.0
 74
               0
 49
-3.0
 74
               0
 49
0.0
 74
               0
 49
-3.0
 74
               0
 49
0.0
 74
               0
 49
-3.0
 74
               0
  0
LTYPE
  5
28
100
AcDbSymbolTableRecord
100
AcDbLinetypeTableRecord
  2
ACAD_ISO06W100
 70
              64
  3
ISO long-dash triple-dot ____ ... ____ ... ____
 72
              65
 73
               8
 40
36.0
 49
24.0
 74
               0
 49
-3.0
 74
               0
 49
0.0
 74
               0
 49
-3.0
 74
               0
 49
0.0
 74
               0
 49
-3.0
 74
               0
 49
0.0
 74
               0
 49
-3.0
 74
               0
  0
LTYPE
  5
29
100
AcDbSymbolTableRecord
100
AcDbLinetypeTableRecord
  2
ACAD_ISO07W100
 70
              64
  3
ISO dot . . . . . . . . . . . . . . . . . . . .
 72
              65
 73
               2
 40
3.0
 49
0.0
 74
               0
 49
-3.0
 74
               0
  0
LTYPE
  5
2A
100
AcDbSymbolTableRecord
100
AcDbLinetypeTableRecord
  2
ACAD_ISO08W100
 70
              64
  3
ISO long-dash short-dash ____ __ ____ __ ____ _
 72
              65
 73
               4
 40
36.0
 49
24.0
 74
               0
 49
-3.0
 74
               0
 49
6.0
 74
               0
 49
-3.0
 74
               0
  0
LTYPE
  5
2B
100
AcDbSymbolTableRecord
100
AcDbLinetypeTableRecord
  2
ACAD_ISO09W100
 70
              64
  3
ISO long-dash double-short-dash ____ __ __ ____
 72
              65
 73
               6
 40
45.0
 49
24.0
 74
               0
 49
-3.0
 74
               0
 49
6.0
 74
               0
 49
-3.0
 74
               0
 49
6.0
 74
               0
 49
-3.0
 74
               0
  0
LTYPE
  5
2C
100
AcDbSymbolTableRecord
100
AcDbLinetypeTableRecord
  2
ACAD_ISO10W100
 70
              64
  3
ISO dash dot __ . __ . __ . __ . __ . __ . __ .
 72
              65
 73
               4
 40
18.0
 49
12.0
 74
               0
 49
-3.0
 74
               0
 49
0.0
 74
               0
 49
-3.0
 74
               0
  0
LTYPE
  5
2D
100
AcDbSymbolTableRecord
100
AcDbLinetypeTableRecord
  2
ACAD_ISO11W100
 70
              64
  3
ISO double-dash dot __ __ . __ __ . __ __ . __ 
 72
              65
 73
               6
 40
33.0
 49
12.0
 74
               0
 49
-3.0
 74
               0
 49
12.0
 74
               0
 49
-3.0
 74
               0
 49
0.0
 74
               0
 49
-3.0
 74
               0
  0
LTYPE
  5
2E
100
AcDbSymbolTableRecord
100
AcDbLinetypeTableRecord
  2
ACAD_ISO12W100
 70
              64
  3
ISO dash double-dot __ . . __ . . __ . . __ . .
 72
              65
 73
               6
 40
21.0
 49
12.0
 74
               0
 49
-3.0
 74
               0
 49
0.0
 74
               0
 49
-3.0
 74
               0
 49
0.0
 74
               0
 49
-3.0
 74
               0
  0
LTYPE
  5
2F
100
AcDbSymbolTableRecord
100
AcDbLinetypeTableRecord
  2
ACAD_ISO13W100
 70
              64
  3
ISO double-dash double-dot __ __ . . __ __ . . 
 72
              65
 73
               8
 40
36.0
 49
12.0
 74
               0
 49
-3.0
 74
               0
 49
12.0
 74
               0
 49
-3.0
 74
               0
 49
0.0
 74
               0
 49
-3.0
 74
               0
 49
0.0
 74
               0
 49
-3.0
 74
               0
  0
LTYPE
  5
30
100
AcDbSymbolTableRecord
100
AcDbLinetypeTableRecord
  2
ACAD_ISO14W100
 70
              64
  3
ISO dash triple-dot __ . . . __ . . . __ . . . 
 72
              65
 73
               8
 40
24.0
 49
12.0
 74
               0
 49
-3.0
 74
               0
 49
0.0
 74
               0
 49
-3.0
 74
               0
 49
0.0
 74
               0
 49
-3.0
 74
               0
 49
0.0
 74
               0
 49
-3.0
 74
               0
  0
LTYPE
  5
31
100
AcDbSymbolTableRecord
100
AcDbLinetypeTableRecord
  2
ACAD_ISO15W100
 70
              64
  3
ISO double-dash double-dot __ __ . . __ __ . . 
 72
              65
 73
              10
 40
39.0
 49
12.0
 74
               0
 49
-3.0
 74
               0
 49
12.0
 74
               0
 49
-3.0
 74
               0
 49
0.0
 74
               0
 49
-3.0
 74
               0
 49
0.0
 74
               0
 49
-3.0
 74
               0
 49
0.0
 74
               0
 49
-3.0
 74
               0
  0
ENDTAB
  0
TABLE
  2
LAYER
  5
2
100
AcDbSymbolTable
 70
             256
  0
LAYER
  5
14
100
AcDbSymbolTableRecord
100
AcDbLayerTableRecord
  2
0
 70
               0
 62
               7
  6
Continuous
  0
LAYER
  5
35
100
AcDbSymbolTableRecord
100
AcDbLayerTableRecord
  2
Layer00001
 70
               0
 62
               7
  6
Continuous
  0
LAYER
  5
36
100
AcDbSymbolTableRecord
100
AcDbLayerTableRecord
  2
Layer00002
 70
               0
 62
               7
  6
Continuous
  0
LAYER
  5
37
100
AcDbSymbolTableRecord
100
AcDbLayerTableRecord
  2
Layer00003
 70
               0
 62
               7
  6
Continuous
  0
LAYER
  5
38
100
AcDbSymbolTableRecord
100
AcDbLayerTableRecord
  2
Layer00004
 70
               0
 62
               7
  6
Continuous
  0
LAYER
  5
39
100
AcDbSymbolTableRecord
100
AcDbLayerTableRecord
  2
Layer00005
 70
               0
 62
               7
  6
Continuous
  0
LAYER
  5
3A
100
AcDbSymbolTableRecord
100
AcDbLayerTableRecord
  2
Layer00006
 70
               0
 62
               7
  6
Continuous
  0
LAYER
  5
3B
100
AcDbSymbolTableRecord
100
AcDbLayerTableRecord
  2
Layer00007
 70
               0
 62
               7
  6
Continuous
  0
LAYER
  5
3C
100
AcDbSymbolTableRecord
100
AcDbLayerTableRecord
  2
Layer00008
 70
               0
 62
               7
  6
Continuous
  0
LAYER
  5
3D
100
AcDbSymbolTableRecord
100
AcDbLayerTableRecord
  2
Layer00009
 70
               0
 62
               7
  6
Continuous
  0
LAYER
  5
3E
100
AcDbSymbolTableRecord
100
AcDbLayerTableRecord
  2
Layer00010
 70
               0
 62
               7
  6
Continuous
  0
LAYER
  5
3F
100
AcDbSymbolTableRecord
100
AcDbLayerTableRecord
  2
Layer00011
 70
               0
 62
               7
  6
Continuous
  0
LAYER
  5
40
100
AcDbSymbolTableRecord
100
AcDbLayerTableRecord
  2
Layer00012
 70
               0
 62
               7
  6
Continuous
  0
LAYER
  5
41
100
AcDbSymbolTableRecord
100
AcDbLayerTableRecord
  2
Layer00013
 70
               0
 62
               7
  6
Continuous
  0
LAYER
  5
42
100
AcDbSymbolTableRecord
100
AcDbLayerTableRecord
  2
Layer00014
 70
               0
 62
               7
  6
Continuous
  0
LAYER
  5
43
100
AcDbSymbolTableRecord
100
AcDbLayerTableRecord
  2
Layer00015
 70
               0
 62
               7
  6
Continuous
  0
LAYER
  5
44
100
AcDbSymbolTableRecord
100
AcDbLayerTableRecord
  2
Layer00016
 70
               0
 62
               7
  6
Continuous
  0
LAYER
  5
45
100
AcDbSymbolTableRecord
100
AcDbLayerTableRecord
  2
Layer00017
 70
               0
 62
               7
  6
Continuous
  0
LAYER
  5
46
100
AcDbSymbolTableRecord
100
AcDbLayerTableRecord
  2
Layer00018
 70
               0
 62
               7
  6
Continuous
  0
LAYER
  5
47
100
AcDbSymbolTableRecord
100
AcDbLayerTableRecord
  2
Layer00019
 70
               0
 62
               7
  6
Continuous
  0
LAYER
  5
48
100
AcDbSymbolTableRecord
100
AcDbLayerTableRecord
  2
Layer00020
 70
               0
 62
               7
  6
Continuous
  0
LAYER
  5
49
100
AcDbSymbolTableRecord
100
AcDbLayerTableRecord
  2
Layer00021
 70
               0
 62
               7
  6
Continuous
  0
LAYER
  5
4A
100
AcDbSymbolTableRecord
100
AcDbLayerTableRecord
  2
Layer00022
 70
               0
 62
               7
  6
Continuous
  0
LAYER
  5
4B
100
AcDbSymbolTableRecord
100
AcDbLayerTableRecord
  2
Layer00023
 70
               0
 62
               7
  6
Continuous
  0
LAYER
  5
4C
100
AcDbSymbolTableRecord
100
AcDbLayerTableRecord
  2
Layer00024
 70
               0
 62
               7
  6
Continuous
  0
LAYER
  5
4D
100
AcDbSymbolTableRecord
100
AcDbLayerTableRecord
  2
Layer00025
 70
               0
 62
               7
  6
Continuous
  0
LAYER
  5
4E
100
AcDbSymbolTableRecord
100
AcDbLayerTableRecord
  2
Layer00026
 70
               0
 62
               7
  6
Continuous
  0
LAYER
  5
4F
100
AcDbSymbolTableRecord
100
AcDbLayerTableRecord
  2
Layer00027
 70
               0
 62
               7
  6
Continuous
  0
LAYER
  5
50
100
AcDbSymbolTableRecord
100
AcDbLayerTableRecord
  2
Layer00028
 70
               0
 62
               7
  6
Continuous
  0
LAYER
  5
51
100
AcDbSymbolTableRecord
100
AcDbLayerTableRecord
  2
Layer00029
 70
               0
 62
               7
  6
Continuous
  0
LAYER
  5
52
100
AcDbSymbolTableRecord
100
AcDbLayerTableRecord
  2
Layer00030
 70
               0
 62
               7
  6
Continuous
  0
LAYER
  5
53
100
AcDbSymbolTableRecord
100
AcDbLayerTableRecord
  2
Layer00031
 70
               0
 62
               7
  6
Continuous
  0
LAYER
  5
54
100
AcDbSymbolTableRecord
100
AcDbLayerTableRecord
  2
Layer00032
 70
               0
 62
               7
  6
Continuous
  0
LAYER
  5
55
100
AcDbSymbolTableRecord
100
AcDbLayerTableRecord
  2
Layer00033
 70
               0
 62
               7
  6
Continuous
  0
LAYER
  5
56
100
AcDbSymbolTableRecord
100
AcDbLayerTableRecord
  2
Layer00034
 70
               0
 62
               7
  6
Continuous
  0
LAYER
  5
57
100
AcDbSymbolTableRecord
100
AcDbLayerTableRecord
  2
Layer00035
 70
               0
 62
               7
  6
Continuous
  0
LAYER
  5
58
100
AcDbSymbolTableRecord
100
AcDbLayerTableRecord
  2
Layer00036
 70
               0
 62
               7
  6
Continuous
  0
LAYER
  5
59
100
AcDbSymbolTableRecord
100
AcDbLayerTableRecord
  2
Layer00037
 70
               0
 62
               7
  6
Continuous
  0
LAYER
  5
5A
100
AcDbSymbolTableRecord
100
AcDbLayerTableRecord
  2
Layer00038
 70
               0
 62
               7
  6
Continuous
  0
LAYER
  5
5B
100
AcDbSymbolTableRecord
100
AcDbLayerTableRecord
  2
Layer00039
 70
               0
 62
               7
  6
Continuous
  0
LAYER
  5
5C
100
AcDbSymbolTableRecord
100
AcDbLayerTableRecord
  2
Layer00040
 70
               0
 62
               7
  6
Continuous
  0
LAYER
  5
5D
100
AcDbSymbolTableRecord
100
AcDbLayerTableRecord
  2
Layer00041
 70
               0
 62
               7
  6
Continuous
  0
LAYER
  5
5E
100
AcDbSymbolTableRecord
100
AcDbLayerTableRecord
  2
Layer00042
 70
               0
 62
               7
  6
Continuous
  0
LAYER
  5
5F
100
AcDbSymbolTableRecord
100
AcDbLayerTableRecord
  2
Layer00043
 70
               0
 62
               7
  6
Continuous
  0
LAYER
  5
60
100
AcDbSymbolTableRecord
100
AcDbLayerTableRecord
  2
Layer00044
 70
               0
 62
               7
  6
Continuous
  0
LAYER
  5
61
100
AcDbSymbolTableRecord
100
AcDbLayerTableRecord
  2
Layer00045
 70
               0
 62
               7
  6
Continuous
  0
LAYER
  5
62
100
AcDbSymbolTableRecord
100
AcDbLayerTableRecord
  2
Layer00046
 70
               0
 62
               7
  6
Continuous
  0
LAYER
  5
63
100
AcDbSymbolTableRecord
100
AcDbLayerTableRecord
  2
Layer00047
 70
               0
 62
               7
  6
Continuous
  0
LAYER
  5
64
100
AcDbSymbolTableRecord
100
AcDbLayerTableRecord
  2
Layer00048
 70
               0
 62
               7
  6
Continuous
  0
LAYER
  5
65
100
AcDbSymbolTableRecord
100
AcDbLayerTableRecord
  2
Layer00049
 70
               0
 62
               7
  6
Continuous
  0
LAYER
  5
66
100
AcDbSymbolTableRecord
100
AcDbLayerTableRecord
  2
Layer00050
 70
               0
 62
               7
  6
Continuous
  0
LAYER
  5
67
100
AcDbSymbolTableRecord
100
AcDbLayerTableRecord
  2
Layer00051
 70
               0
 62
               7
  6
Continuous
  0
LAYER
  5
68
100
AcDbSymbolTableRecord
100
AcDbLayerTableRecord
  2
Layer00052
 70
               0
 62
               7
  6
Continuous
  0
LAYER
  5
69
100
AcDbSymbolTableRecord
100
AcDbLayerTableRecord
  2
Layer00053
 70
               0
 62
               7
  6
Continuous
  0
LAYER
  5
6A
100
AcDbSymbolTableRecord
100
AcDbLayerTableRecord
  2
Layer00054
 70
               0
 62
               7
  6
Continuous
  0
LAYER
  5
6B
100
AcDbSymbolTableRecord
100
AcDbLayerTableRecord
  2
Layer00055
 70
               0
 62
               7
  6
Continuous
  0
LAYER
  5
6C
100
AcDbSymbolTableRecord
100
AcDbLayerTableRecord
  2
Layer00056
 70
               0
 62
               7
  6
Continuous
  0
LAYER
  5
6D
100
AcDbSymbolTableRecord
100
AcDbLayerTableRecord
  2
Layer00057
 70
               0
 62
               7
  6
Continuous
  0
LAYER
  5
6E
100
AcDbSymbolTableRecord
100
AcDbLayerTableRecord
  2
Layer00058
 70
               0
 62
               7
  6
Continuous
  0
LAYER
  5
6F
100
AcDbSymbolTableRecord
100
AcDbLayerTableRecord
  2
Layer00059
 70
               0
 62
               7
  6
Continuous
  0
LAYER
  5
70
100
AcDbSymbolTableRecord
100
AcDbLayerTableRecord
  2
Layer00060
 70
               0
 62
               7
  6
Continuous
  0
LAYER
  5
71
100
AcDbSymbolTableRecord
100
AcDbLayerTableRecord
  2
Layer00061
 70
               0
 62
               7
  6
Continuous
  0
LAYER
  5
72
100
AcDbSymbolTableRecord
100
AcDbLayerTableRecord
  2
Layer00062
 70
               0
 62
               7
  6
Continuous
  0
LAYER
  5
73
100
AcDbSymbolTableRecord
100
AcDbLayerTableRecord
  2
Layer00063
 70
               0
 62
               7
  6
Continuous
  0
LAYER
  5
74
100
AcDbSymbolTableRecord
100
AcDbLayerTableRecord
  2
Layer00064
 70
               0
 62
               7
  6
Continuous
  0
LAYER
  5
75
100
AcDbSymbolTableRecord
100
AcDbLayerTableRecord
  2
Layer00065
 70
               0
 62
               7
  6
Continuous
  0
LAYER
  5
76
100
AcDbSymbolTableRecord
100
AcDbLayerTableRecord
  2
Layer00066
 70
               0
 62
               7
  6
Continuous
  0
LAYER
  5
77
100
AcDbSymbolTableRecord
100
AcDbLayerTableRecord
  2
Layer00067
 70
               0
 62
               7
  6
Continuous
  0
LAYER
  5
78
100
AcDbSymbolTableRecord
100
AcDbLayerTableRecord
  2
Layer00068
 70
               0
 62
               7
  6
Continuous
  0
LAYER
  5
79
100
AcDbSymbolTableRecord
100
AcDbLayerTableRecord
  2
Layer00069
 70
               0
 62
               7
  6
Continuous
  0
LAYER
  5
7A
100
AcDbSymbolTableRecord
100
AcDbLayerTableRecord
  2
Layer00070
 70
               0
 62
               7
  6
Continuous
  0
LAYER
  5
7B
100
AcDbSymbolTableRecord
100
AcDbLayerTableRecord
  2
Layer00071
 70
               0
 62
               7
  6
Continuous
  0
LAYER
  5
7C
100
AcDbSymbolTableRecord
100
AcDbLayerTableRecord
  2
Layer00072
 70
               0
 62
               7
  6
Continuous
  0
LAYER
  5
7D
100
AcDbSymbolTableRecord
100
AcDbLayerTableRecord
  2
Layer00073
 70
               0
 62
               7
  6
Continuous
  0
LAYER
  5
7E
100
AcDbSymbolTableRecord
100
AcDbLayerTableRecord
  2
Layer00074
 70
               0
 62
               7
  6
Continuous
  0
LAYER
  5
7F
100
AcDbSymbolTableRecord
100
AcDbLayerTableRecord
  2
Layer00075
 70
               0
 62
               7
  6
Continuous
  0
LAYER
  5
80
100
AcDbSymbolTableRecord
100
AcDbLayerTableRecord
  2
Layer00076
 70
               0
 62
               7
  6
Continuous
  0
LAYER
  5
81
100
AcDbSymbolTableRecord
100
AcDbLayerTableRecord
  2
Layer00077
 70
               0
 62
               7
  6
Continuous
  0
LAYER
  5
82
100
AcDbSymbolTableRecord
100
AcDbLayerTableRecord
  2
Layer00078
 70
               0
 62
               7
  6
Continuous
  0
LAYER
  5
83
100
AcDbSymbolTableRecord
100
AcDbLayerTableRecord
  2
Layer00079
 70
               0
 62
               7
  6
Continuous
  0
LAYER
  5
84
100
AcDbSymbolTableRecord
100
AcDbLayerTableRecord
  2
Layer00080
 70
               0
 62
               7
  6
Continuous
  0
LAYER
  5
85
100
AcDbSymbolTableRecord
100
AcDbLayerTableRecord
  2
Layer00081
 70
               0
 62
               7
  6
Continuous
  0
LAYER
  5
86
100
AcDbSymbolTableRecord
100
AcDbLayerTableRecord
  2
Layer00082
 70
               0
 62
               7
  6
Continuous
  0
LAYER
  5
87
100
AcDbSymbolTableRecord
100
AcDbLayerTableRecord
  2
Layer00083
 70
               0
 62
               7
  6
Continuous
  0
LAYER
  5
88
100
AcDbSymbolTableRecord
100
AcDbLayerTableRecord
  2
Layer00084
 70
               0
 62
               7
  6
Continuous
  0
LAYER
  5
89
100
AcDbSymbolTableRecord
100
AcDbLayerTableRecord
  2
Layer00085
 70
               0
 62
               7
  6
Continuous
  0
LAYER
  5
8A
100
AcDbSymbolTableRecord
100
AcDbLayerTableRecord
  2
Layer00086
 70
               0
 62
               7
  6
Continuous
  0
LAYER
  5
8B
100
AcDbSymbolTableRecord
100
AcDbLayerTableRecord
  2
Layer00087
 70
               0
 62
               7
  6
Continuous
  0
LAYER
  5
8C
100
AcDbSymbolTableRecord
100
AcDbLayerTableRecord
  2
Layer00088
 70
               0
 62
               7
  6
Continuous
  0
LAYER
  5
8D
100
AcDbSymbolTableRecord
100
AcDbLayerTableRecord
  2
Layer00089
 70
               0
 62
               7
  6
Continuous
  0
LAYER
  5
8E
100
AcDbSymbolTableRecord
100
AcDbLayerTableRecord
  2
Layer00090
 70
               0
 62
               7
  6
Continuous
  0
LAYER
  5
8F
100
AcDbSymbolTableRecord
100
AcDbLayerTableRecord
  2
Layer00091
 70
               0
 62
               7
  6
Continuous
  0
LAYER
  5
90
100
AcDbSymbolTableRecord
100
AcDbLayerTableRecord
  2
Layer00092
 70
               0
 62
               7
  6
Continuous
  0
LAYER
  5
91
100
AcDbSymbolTableRecord
100
AcDbLayerTableRecord
  2
Layer00093
 70
               0
 62
               7
  6
Continuous
  0
LAYER
  5
92
100
AcDbSymbolTableRecord
100
AcDbLayerTableRecord
  2
Layer00094
 70
               0
 62
               7
  6
Continuous
  0
LAYER
  5
93
100
AcDbSymbolTableRecord
100
AcDbLayerTableRecord
  2
Layer00095
 70
               0
 62
               7
  6
Continuous
  0
LAYER
  5
94
100
AcDbSymbolTableRecord
100
AcDbLayerTableRecord
  2
Layer00096
 70
               0
 62
               7
  6
Continuous
  0
LAYER
  5
95
100
AcDbSymbolTableRecord
100
AcDbLayerTableRecord
  2
Layer00097
 70
               0
 62
               7
  6
Continuous
  0
LAYER
  5
96
100
AcDbSymbolTableRecord
100
AcDbLayerTableRecord
  2
Layer00098
 70
               0
 62
               7
  6
Continuous
  0
LAYER
  5
97
100
AcDbSymbolTableRecord
100
AcDbLayerTableRecord
  2
Layer00099
 70
               0
 62
               7
  6
Continuous
  0
LAYER
  5
98
100
AcDbSymbolTableRecord
100
AcDbLayerTableRecord
  2
Layer00100
 70
               0
 62
               7
  6
Continuous
  0
LAYER
  5
99
100
AcDbSymbolTableRecord
100
AcDbLayerTableRecord
  2
Layer00101
 70
               0
 62
               7
  6
Continuous
  0
LAYER
  5
9A
100
AcDbSymbolTableRecord
100
AcDbLayerTableRecord
  2
Layer00102
 70
               0
 62
               7
  6
Continuous
  0
LAYER
  5
9B
100
AcDbSymbolTableRecord
100
AcDbLayerTableRecord
  2
Layer00103
 70
               0
 62
               7
  6
Continuous
  0
LAYER
  5
9C
100
AcDbSymbolTableRecord
100
AcDbLayerTableRecord
  2
Layer00104
 70
               0
 62
               7
  6
Continuous
  0
LAYER
  5
9D
100
AcDbSymbolTableRecord
100
AcDbLayerTableRecord
  2
Layer00105
 70
               0
 62
               7
  6
Continuous
  0
LAYER
  5
9E
100
AcDbSymbolTableRecord
100
AcDbLayerTableRecord
  2
Layer00106
 70
               0
 62
               7
  6
Continuous
  0
LAYER
  5
9F
100
AcDbSymbolTableRecord
100
AcDbLayerTableRecord
  2
Layer00107
 70
               0
 62
               7
  6
Continuous
  0
LAYER
  5
A0
100
AcDbSymbolTableRecord
100
AcDbLayerTableRecord
  2
Layer00108
 70
               0
 62
               7
  6
Continuous
  0
LAYER
  5
A1
100
AcDbSymbolTableRecord
100
AcDbLayerTableRecord
  2
Layer00109
 70
               0
 62
               7
  6
Continuous
  0
LAYER
  5
A2
100
AcDbSymbolTableRecord
100
AcDbLayerTableRecord
  2
Layer00110
 70
               0
 62
               7
  6
Continuous
  0
LAYER
  5
A3
100
AcDbSymbolTableRecord
100
AcDbLayerTableRecord
  2
Layer00111
 70
               0
 62
               7
  6
Continuous
  0
LAYER
  5
A4
100
AcDbSymbolTableRecord
100
AcDbLayerTableRecord
  2
Layer00112
 70
               0
 62
               7
  6
Continuous
  0
LAYER
  5
A5
100
AcDbSymbolTableRecord
100
AcDbLayerTableRecord
  2
Layer00113
 70
               0
 62
               7
  6
Continuous
  0
LAYER
  5
A6
100
AcDbSymbolTableRecord
100
AcDbLayerTableRecord
  2
Layer00114
 70
               0
 62
               7
  6
Continuous
  0
LAYER
  5
A7
100
AcDbSymbolTableRecord
100
AcDbLayerTableRecord
  2
Layer00115
 70
               0
 62
               7
  6
Continuous
  0
LAYER
  5
A8
100
AcDbSymbolTableRecord
100
AcDbLayerTableRecord
  2
Layer00116
 70
               0
 62
               7
  6
Continuous
  0
LAYER
  5
A9
100
AcDbSymbolTableRecord
100
AcDbLayerTableRecord
  2
Layer00117
 70
               0
 62
               7
  6
Continuous
  0
LAYER
  5
AA
100
AcDbSymbolTableRecord
100
AcDbLayerTableRecord
  2
Layer00118
 70
               0
 62
               7
  6
Continuous
  0
LAYER
  5
AB
100
AcDbSymbolTableRecord
100
AcDbLayerTableRecord
  2
Layer00119
 70
               0
 62
               7
  6
Continuous
  0
LAYER
  5
AC
100
AcDbSymbolTableRecord
100
AcDbLayerTableRecord
  2
Layer00120
 70
               0
 62
               7
  6
Continuous
  0
LAYER
  5
AD
100
AcDbSymbolTableRecord
100
AcDbLayerTableRecord
  2
Layer00121
 70
               0
 62
               7
  6
Continuous
  0
LAYER
  5
AE
100
AcDbSymbolTableRecord
100
AcDbLayerTableRecord
  2
Layer00122
 70
               0
 62
               7
  6
Continuous
  0
LAYER
  5
AF
100
AcDbSymbolTableRecord
100
AcDbLayerTableRecord
  2
Layer00123
 70
               0
 62
               7
  6
Continuous
  0
LAYER
  5
B0
100
AcDbSymbolTableRecord
100
AcDbLayerTableRecord
  2
Layer00124
 70
               0
 62
               7
  6
Continuous
  0
LAYER
  5
B1
100
AcDbSymbolTableRecord
100
AcDbLayerTableRecord
  2
Layer00125
 70
               0
 62
               7
  6
Continuous
  0
LAYER
  5
B2
100
AcDbSymbolTableRecord
100
AcDbLayerTableRecord
  2
Layer00126
 70
               0
 62
               7
  6
Continuous
  0
LAYER
  5
B3
100
AcDbSymbolTableRecord
100
AcDbLayerTableRecord
  2
Layer00127
 70
               0
 62
               7
  6
Continuous
  0
LAYER
  5
B4
100
AcDbSymbolTableRecord
100
AcDbLayerTableRecord
  2
Layer00128
 70
               0
 62
               7
  6
Continuous
  0
LAYER
  5
B5
100
AcDbSymbolTableRecord
100
AcDbLayerTableRecord
  2
Layer00129
 70
               0
 62
               7
  6
Continuous
  0
LAYER
  5
B6
100
AcDbSymbolTableRecord
100
AcDbLayerTableRecord
  2
Layer00130
 70
               0
 62
               7
  6
Continuous
  0
LAYER
  5
B7
100
AcDbSymbolTableRecord
100
AcDbLayerTableRecord
  2
Layer00131
 70
               0
 62
               7
  6
Continuous
  0
LAYER
  5
B8
100
AcDbSymbolTableRecord
100
AcDbLayerTableRecord
  2
Layer00132
 70
               0
 62
               7
  6
Continuous
  0
LAYER
  5
B9
100
AcDbSymbolTableRecord
100
AcDbLayerTableRecord
  2
Layer00133
 70
               0
 62
               7
  6
Continuous
  0
LAYER
  5
BA
100
AcDbSymbolTableRecord
100
AcDbLayerTableRecord
  2
Layer00134
 70
               0
 62
               7
  6
Continuous
  0
LAYER
  5
BB
100
AcDbSymbolTableRecord
100
AcDbLayerTableRecord
  2
Layer00135
 70
               0
 62
               7
  6
Continuous
  0
LAYER
  5
BC
100
AcDbSymbolTableRecord
100
AcDbLayerTableRecord
  2
Layer00136
 70
               0
 62
               7
  6
Continuous
  0
LAYER
  5
BD
100
AcDbSymbolTableRecord
100
AcDbLayerTableRecord
  2
Layer00137
 70
               0
 62
               7
  6
Continuous
  0
LAYER
  5
BE
100
AcDbSymbolTableRecord
100
AcDbLayerTableRecord
  2
Layer00138
 70
               0
 62
               7
  6
Continuous
  0
LAYER
  5
BF
100
AcDbSymbolTableRecord
100
AcDbLayerTableRecord
  2
Layer00139
 70
               0
 62
               7
  6
Continuous
  0
LAYER
  5
C0
100
AcDbSymbolTableRecord
100
AcDbLayerTableRecord
  2
Layer00140
 70
               0
 62
               7
  6
Continuous
  0
LAYER
  5
C1
100
AcDbSymbolTableRecord
100
AcDbLayerTableRecord
  2
Layer00141
 70
               0
 62
               7
  6
Continuous
  0
LAYER
  5
C2
100
AcDbSymbolTableRecord
100
AcDbLayerTableRecord
  2
Layer00142
 70
               0
 62
               7
  6
Continuous
  0
LAYER
  5
C3
100
AcDbSymbolTableRecord
100
AcDbLayerTableRecord
  2
Layer00143
 70
               0
 62
               7
  6
Continuous
  0
LAYER
  5
C4
100
AcDbSymbolTableRecord
100
AcDbLayerTableRecord
  2
Layer00144
 70
               0
 62
               7
  6
Continuous
  0
LAYER
  5
C5
100
AcDbSymbolTableRecord
100
AcDbLayerTableRecord
  2
Layer00145
 70
               0
 62
               7
  6
Continuous
  0
LAYER
  5
C6
100
AcDbSymbolTableRecord
100
AcDbLayerTableRecord
  2
Layer00146
 70
               0
 62
               7
  6
Continuous
  0
LAYER
  5
C7
100
AcDbSymbolTableRecord
100
AcDbLayerTableRecord
  2
Layer00147
 70
               0
 62
               7
  6
Continuous
  0
LAYER
  5
C8
100
AcDbSymbolTableRecord
100
AcDbLayerTableRecord
  2
Layer00148
 70
               0
 62
               7
  6
Continuous
  0
LAYER
  5
C9
100
AcDbSymbolTableRecord
100
AcDbLayerTableRecord
  2
Layer00149
 70
               0
 62
               7
  6
Continuous
  0
LAYER
  5
CA
100
AcDbSymbolTableRecord
100
AcDbLayerTableRecord
  2
Layer00150
 70
               0
 62
               7
  6
Continuous
  0
LAYER
  5
CB
100
AcDbSymbolTableRecord
100
AcDbLayerTableRecord
  2
Layer00151
 70
               0
 62
               7
  6
Continuous
  0
LAYER
  5
CC
100
AcDbSymbolTableRecord
100
AcDbLayerTableRecord
  2
Layer00152
 70
               0
 62
               7
  6
Continuous
  0
LAYER
  5
CD
100
AcDbSymbolTableRecord
100
AcDbLayerTableRecord
  2
Layer00153
 70
               0
 62
               7
  6
Continuous
  0
LAYER
  5
CE
100
AcDbSymbolTableRecord
100
AcDbLayerTableRecord
  2
Layer00154
 70
               0
 62
               7
  6
Continuous
  0
LAYER
  5
CF
100
AcDbSymbolTableRecord
100
AcDbLayerTableRecord
  2
Layer00155
 70
               0
 62
               7
  6
Continuous
  0
LAYER
  5
D0
100
AcDbSymbolTableRecord
100
AcDbLayerTableRecord
  2
Layer00156
 70
               0
 62
               7
  6
Continuous
  0
LAYER
  5
D1
100
AcDbSymbolTableRecord
100
AcDbLayerTableRecord
  2
Layer00157
 70
               0
 62
               7
  6
Continuous
  0
LAYER
  5
D2
100
AcDbSymbolTableRecord
100
AcDbLayerTableRecord
  2
Layer00158
 70
               0
 62
               7
  6
Continuous
  0
LAYER
  5
D3
100
AcDbSymbolTableRecord
100
AcDbLayerTableRecord
  2
Layer00159
 70
               0
 62
               7
  6
Continuous
  0
LAYER
  5
D4
100
AcDbSymbolTableRecord
100
AcDbLayerTableRecord
  2
Layer00160
 70
               0
 62
               7
  6
Continuous
  0
LAYER
  5
D5
100
AcDbSymbolTableRecord
100
AcDbLayerTableRecord
  2
Layer00161
 70
               0
 62
               7
  6
Continuous
  0
LAYER
  5
D6
100
AcDbSymbolTableRecord
100
AcDbLayerTableRecord
  2
Layer00162
 70
               0
 62
               7
  6
Continuous
  0
LAYER
  5
D7
100
AcDbSymbolTableRecord
100
AcDbLayerTableRecord
  2
Layer00163
 70
               0
 62
               7
  6
Continuous
  0
LAYER
  5
D8
100
AcDbSymbolTableRecord
100
AcDbLayerTableRecord
  2
Layer00164
 70
               0
 62
               7
  6
Continuous
  0
LAYER
  5
D9
100
AcDbSymbolTableRecord
100
AcDbLayerTableRecord
  2
Layer00165
 70
               0
 62
               7
  6
Continuous
  0
LAYER
  5
DA
100
AcDbSymbolTableRecord
100
AcDbLayerTableRecord
  2
Layer00166
 70
               0
 62
               7
  6
Continuous
  0
LAYER
  5
DB
100
AcDbSymbolTableRecord
100
AcDbLayerTableRecord
  2
Layer00167
 70
               0
 62
               7
  6
Continuous
  0
LAYER
  5
DC
100
AcDbSymbolTableRecord
100
AcDbLayerTableRecord
  2
Layer00168
 70
               0
 62
               7
  6
Continuous
  0
LAYER
  5
DD
100
AcDbSymbolTableRecord
100
AcDbLayerTableRecord
  2
Layer00169
 70
               0
 62
               7
  6
Continuous
  0
LAYER
  5
DE
100
AcDbSymbolTableRecord
100
AcDbLayerTableRecord
  2
Layer00170
 70
               0
 62
               7
  6
Continuous
  0
LAYER
  5
DF
100
AcDbSymbolTableRecord
100
AcDbLayerTableRecord
  2
Layer00171
 70
               0
 62
               7
  6
Continuous
  0
LAYER
  5
E0
100
AcDbSymbolTableRecord
100
AcDbLayerTableRecord
  2
Layer00172
 70
               0
 62
               7
  6
Continuous
  0
LAYER
  5
E1
100
AcDbSymbolTableRecord
100
AcDbLayerTableRecord
  2
Layer00173
 70
               0
 62
               7
  6
Continuous
  0
LAYER
  5
E2
100
AcDbSymbolTableRecord
100
AcDbLayerTableRecord
  2
Layer00174
 70
               0
 62
               7
  6
Continuous
  0
LAYER
  5
E3
100
AcDbSymbolTableRecord
100
AcDbLayerTableRecord
  2
Layer00175
 70
               0
 62
               7
  6
Continuous
  0
LAYER
  5
E4
100
AcDbSymbolTableRecord
100
AcDbLayerTableRecord
  2
Layer00176
 70
               0
 62
               7
  6
Continuous
  0
LAYER
  5
E5
100
AcDbSymbolTableRecord
100
AcDbLayerTableRecord
  2
Layer00177
 70
               0
 62
               7
  6
Continuous
  0
LAYER
  5
E6
100
AcDbSymbolTableRecord
100
AcDbLayerTableRecord
  2
Layer00178
 70
               0
 62
               7
  6
Continuous
  0
LAYER
  5
E7
100
AcDbSymbolTableRecord
100
AcDbLayerTableRecord
  2
Layer00179
 70
               0
 62
               7
  6
Continuous
  0
LAYER
  5
E8
100
AcDbSymbolTableRecord
100
AcDbLayerTableRecord
  2
Layer00180
 70
               0
 62
               7
  6
Continuous
  0
LAYER
  5
E9
100
AcDbSymbolTableRecord
100
AcDbLayerTableRecord
  2
Layer00181
 70
               0
 62
               7
  6
Continuous
  0
LAYER
  5
EA
100
AcDbSymbolTableRecord
100
AcDbLayerTableRecord
  2
Layer00182
 70
               0
 62
               7
  6
Continuous
  0
LAYER
  5
EB
100
AcDbSymbolTableRecord
100
AcDbLayerTableRecord
  2
Layer00183
 70
               0
 62
               7
  6
Continuous
  0
LAYER
  5
EC
100
AcDbSymbolTableRecord
100
AcDbLayerTableRecord
  2
Layer00184
 70
               0
 62
               7
  6
Continuous
  0
LAYER
  5
ED
100
AcDbSymbolTableRecord
100
AcDbLayerTableRecord
  2
Layer00185
 70
               0
 62
               7
  6
Continuous
  0
LAYER
  5
EE
100
AcDbSymbolTableRecord
100
AcDbLayerTableRecord
  2
Layer00186
 70
               0
 62
               7
  6
Continuous
  0
LAYER
  5
EF
100
AcDbSymbolTableRecord
100
AcDbLayerTableRecord
  2
Layer00187
 70
               0
 62
               7
  6
Continuous
  0
LAYER
  5
F0
100
AcDbSymbolTableRecord
100
AcDbLayerTableRecord
  2
Layer00188
 70
               0
 62
               7
  6
Continuous
  0
LAYER
  5
F1
100
AcDbSymbolTableRecord
100
AcDbLayerTableRecord
  2
Layer00189
 70
               0
 62
               7
  6
Continuous
  0
LAYER
  5
F2
100
AcDbSymbolTableRecord
100
AcDbLayerTableRecord
  2
Layer00190
 70
               0
 62
               7
  6
Continuous
  0
LAYER
  5
F3
100
AcDbSymbolTableRecord
100
AcDbLayerTableRecord
  2
Layer00191
 70
               0
 62
               7
  6
Continuous
  0
LAYER
  5
F4
100
AcDbSymbolTableRecord
100
AcDbLayerTableRecord
  2
Layer00192
 70
               0
 62
               7
  6
Continuous
  0
LAYER
  5
F5
100
AcDbSymbolTableRecord
100
AcDbLayerTableRecord
  2
Layer00193
 70
               0
 62
               7
  6
Continuous
  0
LAYER
  5
F6
100
AcDbSymbolTableRecord
100
AcDbLayerTableRecord
  2
Layer00194
 70
               0
 62
               7
  6
Continuous
  0
LAYER
  5
F7
100
AcDbSymbolTableRecord
100
AcDbLayerTableRecord
  2
Layer00195
 70
               0
 62
               7
  6
Continuous
  0
LAYER
  5
F8
100
AcDbSymbolTableRecord
100
AcDbLayerTableRecord
  2
Layer00196
 70
               0
 62
               7
  6
Continuous
  0
LAYER
  5
F9
100
AcDbSymbolTableRecord
100
AcDbLayerTableRecord
  2
Layer00197
 70
               0
 62
               7
  6
Continuous
  0
LAYER
  5
FA
100
AcDbSymbolTableRecord
100
AcDbLayerTableRecord
  2
Layer00198
 70
               0
 62
               7
  6
Continuous
  0
LAYER
  5
FB
100
AcDbSymbolTableRecord
100
AcDbLayerTableRecord
  2
Layer00199
 70
               0
 62
               7
  6
Continuous
  0
LAYER
  5
FC
100
AcDbSymbolTableRecord
100
AcDbLayerTableRecord
  2
Layer00200
 70
               0
 62
               7
  6
Continuous
  0
LAYER
  5
FD
100
AcDbSymbolTableRecord
100
AcDbLayerTableRecord
  2
Layer00201
 70
               0
 62
               7
  6
Continuous
  0
LAYER
  5
FE
100
AcDbSymbolTableRecord
100
AcDbLayerTableRecord
  2
Layer00202
 70
               0
 62
               7
  6
Continuous
  0
LAYER
  5
FF
100
AcDbSymbolTableRecord
100
AcDbLayerTableRecord
  2
Layer00203
 70
               0
 62
               7
  6
Continuous
  0
LAYER
  5
100
100
AcDbSymbolTableRecord
100
AcDbLayerTableRecord
  2
Layer00204
 70
               0
 62
               7
  6
Continuous
  0
LAYER
  5
101
100
AcDbSymbolTableRecord
100
AcDbLayerTableRecord
  2
Layer00205
 70
               0
 62
               7
  6
Continuous
  0
LAYER
  5
102
100
AcDbSymbolTableRecord
100
AcDbLayerTableRecord
  2
Layer00206
 70
               0
 62
               7
  6
Continuous
  0
LAYER
  5
103
100
AcDbSymbolTableRecord
100
AcDbLayerTableRecord
  2
Layer00207
 70
               0
 62
               7
  6
Continuous
  0
LAYER
  5
104
100
AcDbSymbolTableRecord
100
AcDbLayerTableRecord
  2
Layer00208
 70
               0
 62
               7
  6
Continuous
  0
LAYER
  5
105
100
AcDbSymbolTableRecord
100
AcDbLayerTableRecord
  2
Layer00209
 70
               0
 62
               7
  6
Continuous
  0
LAYER
  5
106
100
AcDbSymbolTableRecord
100
AcDbLayerTableRecord
  2
Layer00210
 70
               0
 62
               7
  6
Continuous
  0
LAYER
  5
107
100
AcDbSymbolTableRecord
100
AcDbLayerTableRecord
  2
Layer00211
 70
               0
 62
               7
  6
Continuous
  0
LAYER
  5
108
100
AcDbSymbolTableRecord
100
AcDbLayerTableRecord
  2
Layer00212
 70
               0
 62
               7
  6
Continuous
  0
LAYER
  5
109
100
AcDbSymbolTableRecord
100
AcDbLayerTableRecord
  2
Layer00213
 70
               0
 62
               7
  6
Continuous
  0
LAYER
  5
10A
100
AcDbSymbolTableRecord
100
AcDbLayerTableRecord
  2
Layer00214
 70
               0
 62
               7
  6
Continuous
  0
LAYER
  5
10B
100
AcDbSymbolTableRecord
100
AcDbLayerTableRecord
  2
Layer00215
 70
               0
 62
               7
  6
Continuous
  0
LAYER
  5
10C
100
AcDbSymbolTableRecord
100
AcDbLayerTableRecord
  2
Layer00216
 70
               0
 62
               7
  6
Continuous
  0
LAYER
  5
10D
100
AcDbSymbolTableRecord
100
AcDbLayerTableRecord
  2
Layer00217
 70
               0
 62
               7
  6
Continuous
  0
LAYER
  5
10E
100
AcDbSymbolTableRecord
100
AcDbLayerTableRecord
  2
Layer00218
 70
               0
 62
               7
  6
Continuous
  0
LAYER
  5
10F
100
AcDbSymbolTableRecord
100
AcDbLayerTableRecord
  2
Layer00219
 70
               0
 62
               7
  6
Continuous
  0
LAYER
  5
110
100
AcDbSymbolTableRecord
100
AcDbLayerTableRecord
  2
Layer00220
 70
               0
 62
               7
  6
Continuous
  0
LAYER
  5
111
100
AcDbSymbolTableRecord
100
AcDbLayerTableRecord
  2
Layer00221
 70
               0
 62
               7
  6
Continuous
  0
LAYER
  5
112
100
AcDbSymbolTableRecord
100
AcDbLayerTableRecord
  2
Layer00222
 70
               0
 62
               7
  6
Continuous
  0
LAYER
  5
113
100
AcDbSymbolTableRecord
100
AcDbLayerTableRecord
  2
Layer00223
 70
               0
 62
               7
  6
Continuous
  0
LAYER
  5
114
100
AcDbSymbolTableRecord
100
AcDbLayerTableRecord
  2
Layer00224
 70
               0
 62
               7
  6
Continuous
  0
LAYER
  5
115
100
AcDbSymbolTableRecord
100
AcDbLayerTableRecord
  2
Layer00225
 70
               0
 62
               7
  6
Continuous
  0
LAYER
  5
116
100
AcDbSymbolTableRecord
100
AcDbLayerTableRecord
  2
Layer00226
 70
               0
 62
               7
  6
Continuous
  0
LAYER
  5
117
100
AcDbSymbolTableRecord
100
AcDbLayerTableRecord
  2
Layer00227
 70
               0
 62
               7
  6
Continuous
  0
LAYER
  5
118
100
AcDbSymbolTableRecord
100
AcDbLayerTableRecord
  2
Layer00228
 70
               0
 62
               7
  6
Continuous
  0
LAYER
  5
119
100
AcDbSymbolTableRecord
100
AcDbLayerTableRecord
  2
Layer00229
 70
               0
 62
               7
  6
Continuous
  0
LAYER
  5
11A
100
AcDbSymbolTableRecord
100
AcDbLayerTableRecord
  2
Layer00230
 70
               0
 62
               7
  6
Continuous
  0
LAYER
  5
11B
100
AcDbSymbolTableRecord
100
AcDbLayerTableRecord
  2
Layer00231
 70
               0
 62
               7
  6
Continuous
  0
LAYER
  5
11C
100
AcDbSymbolTableRecord
100
AcDbLayerTableRecord
  2
Layer00232
 70
               0
 62
               7
  6
Continuous
  0
LAYER
  5
11D
100
AcDbSymbolTableRecord
100
AcDbLayerTableRecord
  2
Layer00233
 70
               0
 62
               7
  6
Continuous
  0
LAYER
  5
11E
100
AcDbSymbolTableRecord
100
AcDbLayerTableRecord
  2
Layer00234
 70
               0
 62
               7
  6
Continuous
  0
LAYER
  5
11F
100
AcDbSymbolTableRecord
100
AcDbLayerTableRecord
  2
Layer00235
 70
               0
 62
               7
  6
Continuous
  0
LAYER
  5
120
100
AcDbSymbolTableRecord
100
AcDbLayerTableRecord
  2
Layer00236
 70
               0
 62
               7
  6
Continuous
  0
LAYER
  5
121
100
AcDbSymbolTableRecord
100
AcDbLayerTableRecord
  2
Layer00237
 70
               0
 62
               7
  6
Continuous
  0
LAYER
  5
122
100
AcDbSymbolTableRecord
100
AcDbLayerTableRecord
  2
Layer00238
 70
               0
 62
               7
  6
Continuous
  0
LAYER
  5
123
100
AcDbSymbolTableRecord
100
AcDbLayerTableRecord
  2
Layer00239
 70
               0
 62
               7
  6
Continuous
  0
LAYER
  5
124
100
AcDbSymbolTableRecord
100
AcDbLayerTableRecord
  2
Layer00240
 70
               0
 62
               7
  6
Continuous
  0
LAYER
  5
125
100
AcDbSymbolTableRecord
100
AcDbLayerTableRecord
  2
Layer00241
 70
               0
 62
               7
  6
Continuous
  0
LAYER
  5
126
100
AcDbSymbolTableRecord
100
AcDbLayerTableRecord
  2
Layer00242
 70
               0
 62
               7
  6
Continuous
  0
LAYER
  5
127
100
AcDbSymbolTableRecord
100
AcDbLayerTableRecord
  2
Layer00243
 70
               0
 62
               7
  6
Continuous
  0
LAYER
  5
128
100
AcDbSymbolTableRecord
100
AcDbLayerTableRecord
  2
Layer00244
 70
               0
 62
               7
  6
Continuous
  0
LAYER
  5
129
100
AcDbSymbolTableRecord
100
AcDbLayerTableRecord
  2
Layer00245
 70
               0
 62
               7
  6
Continuous
  0
LAYER
  5
12A
100
AcDbSymbolTableRecord
100
AcDbLayerTableRecord
  2
Layer00246
 70
               0
 62
               7
  6
Continuous
  0
LAYER
  5
12B
100
AcDbSymbolTableRecord
100
AcDbLayerTableRecord
  2
Layer00247
 70
               0
 62
               7
  6
Continuous
  0
LAYER
  5
12C
100
AcDbSymbolTableRecord
100
AcDbLayerTableRecord
  2
Layer00248
 70
               0
 62
               7
  6
Continuous
  0
LAYER
  5
12D
100
AcDbSymbolTableRecord
100
AcDbLayerTableRecord
  2
Layer00249
 70
               0
 62
               7
  6
Continuous
  0
LAYER
  5
12E
100
AcDbSymbolTableRecord
100
AcDbLayerTableRecord
  2
Layer00250
 70
               0
 62
               7
  6
Continuous
  0
LAYER
  5
12F
100
AcDbSymbolTableRecord
100
AcDbLayerTableRecord
  2
Layer00251
 70
               0
 62
               7
  6
Continuous
  0
LAYER
  5
130
100
AcDbSymbolTableRecord
100
AcDbLayerTableRecord
  2
Layer00252
 70
               0
 62
               7
  6
Continuous
  0
LAYER
  5
131
100
AcDbSymbolTableRecord
100
AcDbLayerTableRecord
  2
Layer00253
 70
               0
 62
               7
  6
Continuous
  0
LAYER
  5
132
100
AcDbSymbolTableRecord
100
AcDbLayerTableRecord
  2
Layer00254
 70
               0
 62
               7
  6
Continuous
  0
LAYER
  5
133
100
AcDbSymbolTableRecord
100
AcDbLayerTableRecord
  2
Layer00255
 70
               0
 62
               7
  6
Continuous
  0
ENDTAB
  0
TABLE
  2
STYLE
  5
3
100
AcDbSymbolTable
 70
               4
  0
STYLE
  5
17
100
AcDbSymbolTableRecord
100
AcDbTextStyleTableRecord
  2
Standard
 70
               0
 40
0.0
 41
1.0
 50
0.0
 71
               0
 42
0.0
  3
txt.shx
  4
bigfont.shx
  0
STYLE
  5
32
100
AcDbSymbolTableRecord
100
AcDbTextStyleTableRecord
  2
STANDARD_T
 70
               4
 40
0.0
 41
1.0
 50
0.0
 71
               0
 42
0.0
  3
txt.shx
  4
bigfont.shx
  0
STYLE
  5
33
100
AcDbSymbolTableRecord
100
AcDbTextStyleTableRecord
  2
FontTableH_0
 70
               0
 40
0.0
 41
1.0
 50
0.0
 71
               0
 42
0.0
  3
MS Gothic.ttf
  4

1001
ACAD
1000
MS Gothic
1071
    32817
  0
STYLE
  5
34
100
AcDbSymbolTableRecord
100
AcDbTextStyleTableRecord
  2
FontTableV_0
 70
               0
 40
0.0
 41
1.0
 50
0.0
 71
               0
 42
0.0
  3
@MS Gothic.ttf
  4

1001
ACAD
1000
@MS Gothic
1071
    32817
  0
ENDTAB
  0
TABLE
  2
VIEW
  5
5
100
AcDbSymbolTable
 70
               0
  0
ENDTAB
  0
TABLE
  2
UCS
  5
6
100
AcDbSymbolTable
 70
               0
  0
ENDTAB
  0
TABLE
  2
APPID
  5
8
100
AcDbSymbolTable
 70
               1
  0
APPID
  5
16
100
AcDbSymbolTableRecord
100
AcDbRegAppTableRecord
  2
ACAD
 70
               0
  0
ENDTAB
  0
TABLE
  2
DIMSTYLE
  5
9
100
AcDbSymbolTable
 70
               1
  0
DIMSTYLE
105
18
100
AcDbSymbolTableRecord
100
AcDbDimStyleTableRecord
  2
Standard
 70
               0
  3

  4

  5

  6

  7

 40
1.0
 41
0.18
 42
0.0625
 43
0.38
 44
0.18
 45
0.0
 46
0.0
 47
0.0
 48
0.0
 71
               0
 72
               0
 73
               1
 74
               1
 75
               0
 76
               0
 77
               0
 78
               0
140
0.18
141
0.09
142
0.0
143
25.399999999999999
144
1.0
145
0.0
146
1.0
147
0.09
170
               0
171
               2
172
               0
173
               0
174
               0
175
               0
176
               0
177
               0
178
               0
270
               2
271
               4
272
               4
273
               2
274
               2
275
               0
280
               0
281
               0
282
               0
283
               1
284
               0
285
               0
286
               0
287
               0
288
               0
340
17
  0
ENDTAB
  0
TABLE
  2
BLOCK_RECORD
  5
1
100
AcDbSymbolTable
 70
               0
  0
BLOCK_RECORD
  5
A
100
AcDbSymbolTableRecord
100
AcDbBlockTableRecord
  2
*MODEL_SPACE
  0
BLOCK_RECORD
  5
B
100
AcDbSymbolTableRecord
100
AcDbBlockTableRecord
  2
*PAPER_SPACE
  0
ENDTAB
  0
ENDSEC
  0
SECTION
  2
BLOCKS
  0
BLOCK
  5
D
100
AcDbEntity
  8
0
100
AcDbBlockBegin
  2
*MODEL_SPACE
 70
               0
 10
0.0
 20
0.0
 30
0.0
  3
*MODEL_SPACE
  1

  0
ENDBLK
  5
E
100
AcDbEntity
  8
0
100
AcDbBlockEnd
  0
BLOCK
  5
F
100
AcDbEntity
 67
               1
  8
0
100
AcDbBlockBegin
  2
*PAPER_SPACE
 70
               0
 10
0.0
 20
0.0
 30
0.0
  3
*PAPER_SPACE
  1

  0
ENDBLK
  5
10
100
AcDbEntity
 67
               1
  8
0
100
AcDbBlockEnd
  0
ENDSEC
  0
SECTION
  2
ENTITIES
  0
LINE
  5
134
100
AcDbEntity
  8
0
  6
Continuous
 62
               4
100
AcDbLine
 10
556.22298775760487
 20
568.07378795082582
 30
0.0
 11
603.18416978016467
 21
649.4129411973895
 31
0.0
  0
LINE
  5
135
100
AcDbEntity
  8
0
  6
Continuous
 62
               4
100
AcDbLine
 10
603.18416978016467
 20
649.4129411973895
 30
0.0
 11
644.51732410359045
 21
649.4129411973895
 31
0.0
  0
LINE
  5
136
100
AcDbEntity
  8
0
  6
Continuous
 62
               4
100
AcDbLine
 10
556.22298775760487
 20
568.07378795082582
 30
0.0
 11
561.35328990748985
 21
582.16917726261431
 31
0.0
  0
LINE
  5
137
100
AcDbEntity
  8
0
  6
Continuous
 62
               4
100
AcDbLine
 10
556.22298775760487
 20
568.07378795082582
 30
0.0
 11
565.86480190290285
 21
579.56445459761039
 31
0.0
  0
LINE
  5
138
100
AcDbEntity
  8
0
  6
Continuous
 62
               4
100
AcDbLine
 10
631.34571891437827
 20
405.60385611999976
 30
0.0
 11
614.51751379478742
 21
468.40757262650305
 31
0.0
  0
LINE
  5
139
100
AcDbEntity
  8
0
  6
Continuous
 62
               4
100
AcDbLine
 10
614.51751379478742
 20
468.40757262650305
 30
0.0
 11
592.21816590894196
 21
468.40757262650442
 31
0.0
  0
LINE
  5
13A
100
AcDbEntity
  8
0
  6
Continuous
 62
               4
100
AcDbLine
 10
631.34571891437827
 20
405.60385611999976
 30
0.0
 11
625.00644498826784
 21
419.19847292554954
 31
0.0
  0
LINE
  5
13B
100
AcDbEntity
  8
0
  6
Continuous
 62
               4
100
AcDbLine
 10
631.34571891437827
 20
405.60385611999976
 30
0.0
 11
630.03838277316345
 21
420.54677659137593
 31
0.0
  0
LINE
  5
13C
100
AcDbEntity
  8
0
  6
Continuous
 62
               4
100
AcDbLine
 10
675.15982040252038
 20
454.13681994240909
 30
0.0
 11
659.89364912740848
 21
511.11094677817476
 31
0.0
  0
LINE
  5
13D
100
AcDbEntity
  8
0
  6
Continuous
 62
               4
100
AcDbLine
 10
659.89364912740848
 20
511.11094677817476
 30
0.0
 11
597.59050094509325
 21
511.11094677817863
 31
0.0
  0
LINE
  5
13E
100
AcDbEntity
  8
0
  6
Continuous
 62
               4
100
AcDbLine
 10
675.15982040252038
 20
454.13681994240909
 30
0.0
 11
668.82054647640985
 21
467.73143674795875
 31
0.0
  0
LINE
  5
13F
100
AcDbEntity
  8
0
  6
Continuous
 62
               4
100
AcDbLine
 10
675.15982040252038
 20
454.13681994240909
 30
0.0
 11
673.85248426130556
 21
469.07974041378526
 31
0.0
  0
LINE
  5
140
100
AcDbEntity
  8
0
  6
Continuous
 62
               4
100
AcDbLine
 10
554.47298775760487
 20
395.60385611999988
 30
0.0
 11
554.47298775760487
 21
235.60385611999982
 31
0.0
  0
LINE
  5
141
100
AcDbEntity
  8
0
  6
Continuous
 62
               4
100
AcDbLine
 10
854.4729877576051
 20
395.60385611999976
 30
0.0
 11
854.4729877576051
 21
235.60385611999982
 31
0.0
  0
LINE
  5
142
100
AcDbEntity
  8
0
  6
Continuous
 62
               4
100
AcDbLine
 10
554.47298775760487
 20
240.60385611999982
 30
0.0
 11
854.4729877576051
 21
240.60385611999982
 31
0.0
  0
LINE
  5
143
100
AcDbEntity
  8
0
  6
Continuous
 62
               4
100
AcDbLine
 10
983.39641799390097
 20
446.57363007565476
 30
0.0
 11
1049.0021680770967
 21
332.94113766289303
 31
0.0
  0
LINE
  5
144
100
AcDbEntity
  8
0
  6
Continuous
 62
               4
100
AcDbLine
 10
1049.0021680770967
 20
332.94113766289303
 30
0.0
 11
1110.6127151134701
 21
332.94113766289303
 31
0.0
  0
LINE
  5
145
100
AcDbEntity
  8
0
  6
Continuous
 62
               4
100
AcDbLine
 10
983.39641799390097
 20
446.57363007565476
 30
0.0
 11
993.03823213919895
 21
435.08296342887007
 31
0.0
  0
LINE
  5
146
100
AcDbEntity
  8
0
  6
Continuous
 62
               4
100
AcDbLine
 10
983.39641799390097
 20
446.57363007565476
 30
0.0
 11
988.52672014378595
 21
432.47824076386627
 31
0.0
  0
LINE
  5
147
100
AcDbEntity
  8
0
  6
Continuous
 62
               4
100
AcDbLine
 10
520.61572809300355
 20
731.54676223406113
 30
0.0
 11
552.33634467269849
 21
786.48848179750439
 31
0.0
  0
LINE
  5
148
100
AcDbEntity
  8
0
  6
Continuous
 62
               4
100
AcDbLine
 10
552.33634467269849
 20
786.48848179750439
 30
0.0
 11
736.23616251195563
 21
786.48848179750439
 31
0.0
  0
LINE
  5
149
100
AcDbEntity
  8
0
  6
Continuous
 62
               4
100
AcDbLine
 10
520.61572809300355
 20
731.54676223406113
 30
0.0
 11
525.74603024288865
 21
745.64215154584963
 31
0.0
  0
LINE
  5
14A
100
AcDbEntity
  8
0
  6
Continuous
 62
               4
100
AcDbLine
 10
520.61572809300355
 20
731.54676223406113
 30
0.0
 11
530.25754223830177
 21
743.03742888084594
 31
0.0
  0
LINE
  5
14B
100
AcDbEntity
  8
0
  6
Continuous
 62
               4
100
AcDbLine
 10
839.43803142574438
 20
506.88041727197293
 30
0.0
 11
784.43803142574438
 21
506.88041727197293
 31
0.0
  0
LINE
  5
14C
100
AcDbEntity
  8
0
  6
Continuous
 62
               4
100
AcDbLine
 10
839.43803142574438
 20
456.88041727197293
 30
0.0
 11
784.43803142574438
 21
456.88041727197293
 31
0.0
  0
LINE
  5
14D
100
AcDbEntity
  8
0
  6
Continuous
 62
               4
100
AcDbLine
 10
789.43803142574438
 20
506.88041727197293
 30
0.0
 11
789.43803142574438
 21
456.88041727197293
 31
0.0
  0
LINE
  5
14E
100
AcDbEntity
  8
0
  6
Continuous
 62
               4
100
AcDbLine
 10
849.43803142574438
 20
481.88041727197293
 30
0.0
 11
791.3538536841279
 21
582.48516423631418
 31
0.0
  0
LINE
  5
14F
100
AcDbEntity
  8
0
  6
Continuous
 62
               4
100
AcDbLine
 10
791.3538536841279
 20
582.48516423631418
 30
0.0
 11
709.44317376399363
 21
582.48516423630804
 31
0.0
  0
LINE
  5
150
100
AcDbEntity
  8
0
  6
Continuous
 62
               4
100
AcDbLine
 10
849.43803142574438
 20
481.88041727197293
 30
0.0
 11
839.7962172804464
 21
493.37108391875773
 31
0.0
  0
LINE
  5
151
100
AcDbEntity
  8
0
  6
Continuous
 62
               4
100
AcDbLine
 10
849.43803142574438
 20
481.88041727197293
 30
0.0
 11
844.3077292758594
 21
495.97580658376154
 31
0.0
  0
LINE
  5
152
100
AcDbEntity
  8
0
  6
Continuous
 62
               4
100
AcDbLine
 10
1179.185386497418
 20
522.16627185908192
 30
0.0
 11
1204.1542240870217
 21
523.41471373856189
 31
0.0
  0
LINE
  5
153
100
AcDbEntity
  8
0
  6
Continuous
 62
               4
100
AcDbLine
 10
1184.1791481918071
 20
422.29103797129727
 30
0.0
 11
1209.1479857814106
 21
423.53947985077735
 31
0.0
  0
LINE
  5
154
100
AcDbEntity
  8
0
  6
Continuous
 62
               4
100
AcDbLine
 10
1199.1604623926326
 20
523.16502565384258
 30
0.0
 11
1204.1542240870215
 21
423.28979176605793
 31
0.0
  0
LINE
  5
155
100
AcDbEntity
  8
0
  6
Continuous
 62
               4
100
AcDbLine
 10
826.75137204813382
 20
564.61953842292496
 30
0.0
 11
825.50293162453659
 21
589.58834689487117
 31
0.0
  0
LINE
  5
156
100
AcDbEntity
  8
0
  6
Continuous
 62
               4
100
AcDbLine
 10
848.93865525630554
 20
516.86794066075163
 30
0.0
 11
845.2532591258464
 21
590.57586326993669
 31
0.0
  0
LINE
  5
157
100
AcDbEntity
  8
0
  6
Continuous
 62
               4
100
AcDbLine
 10
825.75261970925612
 20
584.59458520048179
 30
0.0
 11
845.50294721056571
 21
585.58210157554731
 31
0.0
  0
LINE
  5
158
100
AcDbEntity
  8
0
  6
Continuous
 62
               4
100
AcDbLine
 10
948.72399519917917
 20
523.35908148748354
 30
0.0
 11
945.11350549413623
 21
595.56887558835092
 31
0.0
  0
LINE
  5
159
100
AcDbEntity
  8
0
  6
Continuous
 62
               4
100
AcDbLine
 10
845.50294721056571
 20
585.58210157554731
 30
0.0
 11
945.36319357885554
 21
590.57511389396177
 31
0.0
  0
LINE
  5
15A
100
AcDbEntity
  8
0
  6
Continuous
 62
               4
100
AcDbLine
 10
1176.6885340644997
 20
572.10390432649251
 30
0.0
 11
1201.6573425364454
 21
573.35234475008951
 31
0.0
  0
LINE
  5
15B
100
AcDbEntity
  8
0
  6
Continuous
 62
               4
100
AcDbLine
 10
1178.9357268269748
 20
527.16004907698925
 30
0.0
 11
1203.9045352989203
 21
528.40848950058648
 31
0.0
  0
LINE
  5
15C
100
AcDbEntity
  8
0
  6
Continuous
 62
               4
100
AcDbLine
 10
1196.6635808420563
 20
573.1026566653702
 30
0.0
 11
1198.9107736045312
 21
528.15880141586695
 31
0.0
  0
LINE
  5
15D
100
AcDbEntity
  8
0
  6
Continuous
 62
               4
100
AcDbLine
 10
1102.1620889146498
 20
560.0904012107153
 30
0.0
 11
1042.5171857188082
 21
663.39840395843999
 31
0.0
  0
LINE
  5
15E
100
AcDbEntity
  8
0
  6
Continuous
 62
               4
100
AcDbLine
 10
1042.5171857188082
 20
663.39840395843999
 30
0.0
 11
958.5169800789979
 21
663.39840395843703
 31
0.0
  0
LINE
  5
15F
100
AcDbEntity
  8
0
  6
Continuous
 62
               4
100
AcDbLine
 10
1102.1620889146498
 20
560.0904012107153
 30
0.0
 11
1092.5202747693515
 21
571.58106785749987
 31
0.0
  0
LINE
  5
160
100
AcDbEntity
  8
0
  6
Continuous
 62
               4
100
AcDbLine
 10
1102.1620889146498
 20
560.0904012107153
 30
0.0
 11
1097.0317867647645
 21
574.18579052250379
 31
0.0
  0
LINE
  5
161
100
AcDbEntity
  8
0
  6
Continuous
 62
               7
100
AcDbLine
 10
552.97298775760487
 20
404.30385611999981
 30
0.0
 11
602.97298775760487
 21
404.30385611999981
 31
0.0
  0
LINE
  5
162
100
AcDbEntity
  8
0
  6
Continuous
 62
               4
100
AcDbLine
 10
554.47298775760487
 20
405.60385611999976
 30
0.0
 11
854.4729877576051
 21
405.60385611999976
 31
0.0
  0
LINE
  5
163
100
AcDbEntity
  8
0
  6
Continuous
 62
               4
100
AcDbLine
 10
554.47298775760487
 20
555.60385612000005
 30
0.0
 11
554.47298775760487
 21
405.60385611999976
 31
0.0
  0
LINE
  5
164
100
AcDbEntity
  8
0
  6
Continuous
 62
               4
100
AcDbLine
 10
914.0772765635063
 20
408.78594438988245
 30
0.0
 11
1174.1916248030286
 21
421.79166180185842
 31
0.0
  0
LINE
  5
165
100
AcDbEntity
  8
0
  6
Continuous
 62
               7
100
AcDbLine
 10
602.97298775760487
 20
404.30385611999981
 30
0.0
 11
602.97298775760487
 21
300.15948000254099
 31
0.0
  0
LINE
  5
166
100
AcDbEntity
  8
0
  6
Continuous
 62
               7
100
AcDbLine
 10
802.97298775760487
 20
399.72635768054971
 30
0.0
 11
802.97298775760487
 21
300.15948000254099
 31
0.0
  0
LINE
  5
167
100
AcDbEntity
  8
0
  6
Continuous
 62
               7
100
AcDbLine
 10
646.47298775760487
 20
411.97488755221349
 30
0.0
 11
646.47298775760487
 21
435.38122205390476
 31
0.0
  0
LINE
  5
168
100
AcDbEntity
  8
0
  6
Continuous
 62
               7
100
AcDbLine
 10
649.47298775760487
 20
412.79618684648068
 30
0.0
 11
649.47298775760487
 21
434.16145800333283
 31
0.0
  0
LINE
  5
169
100
AcDbEntity
  8
0
  6
Continuous
 62
               7
100
AcDbLine
 10
653.27835255614491
 20
408.16256232162874
 30
0.0
 11
648.88989821483983
 21
409.0320986394442
 31
0.0
  0
LINE
  5
16A
100
AcDbEntity
  8
0
  6
Continuous
 62
               7
100
AcDbLine
 10
650.27862457668311
 20
411.81525720889096
 30
0.0
 11
654.2642605084493
 21
411.02553606273676
 31
0.0
  0
LINE
  5
16B
100
AcDbEntity
  8
0
  6
Continuous
 62
               7
100
AcDbLine
 10
656.68117096568426
 20
408.08274714996747
 30
0.0
 11
656.68117096568426
 21
407.60385611999976
 31
0.0
  0
LINE
  5
16C
100
AcDbEntity
  8
0
  6
Continuous
 62
               7
100
AcDbLine
 10
653.68117096568403
 20
407.67209750283376
 30
0.0
 11
653.68117096568403
 21
407.60385611999976
 31
0.0
  0
LINE
  5
16D
100
AcDbEntity
  8
0
  6
Continuous
 62
               7
100
AcDbLine
 10
765.4729877576051
 20
403.60385611999976
 30
0.0
 11
643.47298775760487
 21
403.60385611999976
 31
0.0
  0
LINE
  5
16E
100
AcDbEntity
  8
0
  6
Continuous
 62
               7
100
AcDbLine
 10
763.9729877576051
 20
395.60385611999976
 30
0.0
 11
644.97298775760487
 21
395.60385611999976
 31
0.0
  0
LINE
  5
16F
100
AcDbEntity
  8
0
  6
Continuous
 62
               7
100
AcDbLine
 10
757.57298775760523
 20
356.60385611999965
 30
0.0
 11
651.37298775760496
 21
356.60385611999965
 31
0.0
  0
LINE
  5
170
100
AcDbEntity
  8
0
  6
Continuous
 62
               7
100
AcDbLine
 10
765.4729877576051
 20
407.60385611999976
 30
0.0
 11
765.4729877576051
 21
405.90385611999972
 31
0.0
  0
LINE
  5
171
100
AcDbEntity
  8
0
  6
Continuous
 62
               7
100
AcDbLine
 10
643.47298775760487
 20
407.60385611999976
 30
0.0
 11
643.47298775760487
 21
405.90385611999972
 31
0.0
  0
LINE
  5
172
100
AcDbEntity
  8
0
  6
DIVIDE
 62
               7
100
AcDbLine
 10
652.47298775760487
 20
361.60385611999965
 30
0.0
 11
652.47298775760487
 21
403.60385611999976
 31
0.0
  0
LINE
  5
173
100
AcDbEntity
  8
0
  6
Continuous
 62
               7
100
AcDbLine
 10
644.97298775760487
 20
395.60385611999976
 30
0.0
 11
644.97298775760487
 21
403.60385611999976
 31
0.0
  0
LINE
  5
174
100
AcDbEntity
  8
0
  6
Continuous
 62
               7
100
AcDbLine
 10
651.37298775760496
 20
356.60385611999965
 30
0.0
 11
651.37298775760496
 21
395.60385611999976
 31
0.0
  0
LINE
  5
175
100
AcDbEntity
  8
0
  6
DIVIDE
 62
               7
100
AcDbLine
 10
756.4729877576051
 20
361.60385611999965
 30
0.0
 11
652.47298775760487
 21
361.60385611999965
 31
0.0
  0
LINE
  5
176
100
AcDbEntity
  8
0
  6
Continuous
 62
               7
100
AcDbLine
 10
762.4729877576051
 20
411.97488755221349
 30
0.0
 11
762.4729877576051
 21
435.38122205390499
 31
0.0
  0
LINE
  5
177
100
AcDbEntity
  8
0
  6
Continuous
 62
               7
100
AcDbLine
 10
759.4729877576051
 20
412.79618684648068
 30
0.0
 11
759.4729877576051
 21
434.16145800333305
 31
0.0
  0
LINE
  5
178
100
AcDbEntity
  8
0
  6
Continuous
 62
               7
100
AcDbLine
 10
755.66762295906506
 20
408.16256232162874
 30
0.0
 11
760.05607730037036
 21
409.0320986394442
 31
0.0
  0
LINE
  5
179
100
AcDbEntity
  8
0
  6
Continuous
 62
               7
100
AcDbLine
 10
758.66735093852685
 20
411.81525720889096
 30
0.0
 11
754.68171500676067
 21
411.02553606273676
 31
0.0
  0
LINE
  5
17A
100
AcDbEntity
  8
0
  6
Continuous
 62
               7
100
AcDbLine
 10
752.26480454952571
 20
408.08274714996747
 30
0.0
 11
752.26480454952571
 21
407.60385611999976
 31
0.0
  0
LINE
  5
17B
100
AcDbEntity
  8
0
  6
Continuous
 62
               7
100
AcDbLine
 10
755.26480454952593
 20
407.67209750283376
 30
0.0
 11
755.26480454952593
 21
407.60385611999976
 31
0.0
  0
LINE
  5
17C
100
AcDbEntity
  8
0
  6
DIVIDE
 62
               7
100
AcDbLine
 10
756.4729877576051
 20
361.60385611999965
 30
0.0
 11
756.4729877576051
 21
403.60385611999976
 31
0.0
  0
LINE
  5
17D
100
AcDbEntity
  8
0
  6
Continuous
 62
               7
100
AcDbLine
 10
763.9729877576051
 20
395.60385611999976
 30
0.0
 11
763.9729877576051
 21
403.60385611999976
 31
0.0
  0
LINE
  5
17E
100
AcDbEntity
  8
0
  6
Continuous
 62
               7
100
AcDbLine
 10
757.57298775760523
 20
356.60385611999965
 30
0.0
 11
757.57298775760523
 21
395.60385611999976
 31
0.0
  0
LINE
  5
17F
100
AcDbEntity
  8
0
  6
Continuous
 62
               7
100
AcDbLine
 10
674.47298775760487
 20
409.60385611999988
 30
0.0
 11
674.47298775760487
 21
435.38122205390408
 31
0.0
  0
LINE
  5
180
100
AcDbEntity
  8
0
  6
Continuous
 62
               7
100
AcDbLine
 10
677.47298775760487
 20
410.60385611999988
 30
0.0
 11
677.47298775760487
 21
434.89962254857295
 31
0.0
  0
LINE
  5
181
100
AcDbEntity
  8
0
  6
Continuous
 62
               7
100
AcDbLine
 10
682.36163384174529
 20
409.05374273529293
 30
0.0
 11
677.47298775760487
 21
410.60385611999988
 31
0.0
  0
LINE
  5
182
100
AcDbEntity
  8
0
  6
Continuous
 62
               7
100
AcDbLine
 10
683.05938025936098
 20
408.10051518012273
 30
0.0
 11
683.05938025936098
 21
407.60385611999976
 31
0.0
  0
LINE
  5
183
100
AcDbEntity
  8
0
  6
Continuous
 62
               7
100
AcDbLine
 10
643.47298775760487
 20
407.60385611999976
 30
0.0
 11
765.4729877576051
 21
407.60385611999976
 31
0.0
  0
LINE
  5
184
100
AcDbEntity
  8
0
  6
Continuous
 62
               7
100
AcDbLine
 10
734.4729877576051
 20
409.60385611999988
 30
0.0
 11
734.4729877576051
 21
435.38122205390476
 31
0.0
  0
LINE
  5
185
100
AcDbEntity
  8
0
  6
Continuous
 62
               7
100
AcDbLine
 10
731.4729877576051
 20
410.60385611999988
 30
0.0
 11
731.4729877576051
 21
434.89962254857363
 31
0.0
  0
LINE
  5
186
100
AcDbEntity
  8
0
  6
Continuous
 62
               7
100
AcDbLine
 10
726.58434167346468
 20
409.05374273529293
 30
0.0
 11
731.4729877576051
 21
410.60385611999988
 31
0.0
  0
LINE
  5
187
100
AcDbEntity
  8
0
  6
Continuous
 62
               7
100
AcDbLine
 10
725.88659525584899
 20
408.10051518012273
 30
0.0
 11
725.88659525584899
 21
407.60385611999976
 31
0.0
  0
LINE
  5
188
100
AcDbEntity
  8
0
  6
Continuous
 62
               7
100
AcDbLine
 10
697.47298775760487
 20
454.6038561200001
 30
0.0
 11
697.47298775760487
 21
454.77402416324065
 31
0.0
  0
LINE
  5
189
100
AcDbEntity
  8
0
  6
Continuous
 62
               7
100
AcDbLine
 10
711.47298775760532
 20
458.6038561200001
 30
0.0
 11
711.47298775760532
 21
457.91907721740353
 31
0.0
  0
LINE
  5
18A
100
AcDbEntity
  8
0
  6
Continuous
 62
               7
100
AcDbLine
 10
709.4729877576051
 20
460.6038561200001
 30
0.0
 11
699.47298775760487
 21
460.6038561200001
 31
0.0
  0
LINE
  5
18B
100
AcDbEntity
  8
0
  6
Continuous
 62
               7
100
AcDbLine
 10
699.80075782060294
 20
457.6038561200001
 30
0.0
 11
708.4729877576051
 21
457.6038561200001
 31
0.0
  0
LINE
  5
18C
100
AcDbEntity
  8
0
  6
Continuous
 62
               7
100
AcDbLine
 10
708.4729877576051
 20
455.60493445439982
 30
0.0
 11
708.4729877576051
 21
457.6038561200001
 31
0.0
  0
LINE
  5
18D
100
AcDbEntity
  8
0
  6
Continuous
 62
               7
100
AcDbLine
 10
700.47298775760487
 20
456.10818681838083
 30
0.0
 11
700.47298775760487
 21
455.60493445439982
 31
0.0
  0
LINE
  5
18E
100
AcDbEntity
  8
0
  6
Continuous
 62
               7
100
AcDbLine
 10
700.47298775760487
 20
455.6038561200001
 30
0.0
 11
708.4729877576051
 21
455.6038561200001
 31
0.0
  0
LINE
  5
18F
100
AcDbEntity
  8
0
  6
Continuous
 62
               7
100
AcDbLine
 10
699.47298775760487
 20
452.6038561200001
 30
0.0
 11
710.39369444710383
 21
452.6038561200001
 31
0.0
  0
LINE
  5
190
100
AcDbEntity
  8
0
  6
Continuous
 62
               7
100
AcDbLine
 10
697.47298775760487
 20
458.6038561200001
 30
0.0
 11
697.47298775760487
 21
457.91907721740353
 31
0.0
  0
LINE
  5
191
100
AcDbEntity
  8
0
  6
Continuous
 62
               7
100
AcDbLine
 10
710.39369444710383
 20
455.10978867445232
 30
0.0
 11
710.39369444710383
 21
452.6038561200001
 31
0.0
  0
LINE
  5
192
100
AcDbEntity
  8
0
  6
Continuous
 62
               7
100
AcDbLine
 10
697.98556300506607
 20
458.04788192602331
 30
0.0
 11
697.47298775760487
 21
457.91907721740353
 31
0.0
  0
LINE
  5
193
100
AcDbEntity
  8
0
  6
Continuous
 62
               7
100
AcDbLine
 10
759.4729877576051
 20
427.60385611999988
 30
0.0
 11
734.4729877576051
 21
427.60385611999988
 31
0.0
  0
LINE
  5
194
100
AcDbEntity
  8
0
  6
Continuous
 62
               7
100
AcDbLine
 10
759.4729877576051
 20
430.6038561200001
 30
0.0
 11
734.4729877576051
 21
430.6038561200001
 31
0.0
  0
LINE
  5
195
100
AcDbEntity
  8
0
  6
Continuous
 62
               7
100
AcDbLine
 10
674.47298775760487
 20
430.6038561200001
 30
0.0
 11
649.47298775760487
 21
430.6038561200001
 31
0.0
  0
LINE
  5
196
100
AcDbEntity
  8
0
  6
Continuous
 62
               7
100
AcDbLine
 10
674.47298775760487
 20
427.60385611999988
 30
0.0
 11
649.47298775760487
 21
427.60385611999988
 31
0.0
  0
LINE
  5
197
100
AcDbEntity
  8
0
  6
Continuous
 62
               7
100
AcDbLine
 10
731.4729877576051
 20
430.6038561200001
 30
0.0
 11
677.47298775760487
 21
430.6038561200001
 31
0.0
  0
LINE
  5
198
100
AcDbEntity
  8
0
  6
Continuous
 62
               7
100
AcDbLine
 10
731.4729877576051
 20
427.60385611999988
 30
0.0
 11
677.47298775760487
 21
427.60385611999988
 31
0.0
  0
LINE
  5
199
100
AcDbEntity
  8
0
  6
Continuous
 62
               7
100
AcDbLine
 10
765.4729877576051
 20
405.90385611999972
 30
0.0
 11
643.47298775760487
 21
405.90385611999972
 31
0.0
  0
LINE
  5
19A
100
AcDbEntity
  8
0
  6
Continuous
 62
               7
100
AcDbLine
 10
765.4729877576051
 20
405.30385611999981
 30
0.0
 11
643.47298775760487
 21
405.30385611999981
 31
0.0
  0
LINE
  5
19B
100
AcDbEntity
  8
0
  6
Continuous
 62
               7
100
AcDbLine
 10
643.47298775760487
 20
405.30385611999981
 30
0.0
 11
643.47298775760487
 21
403.60385611999976
 31
0.0
  0
LINE
  5
19C
100
AcDbEntity
  8
0
  6
Continuous
 62
               7
100
AcDbLine
 10
765.4729877576051
 20
405.30385611999981
 30
0.0
 11
765.4729877576051
 21
403.60385611999976
 31
0.0
  0
LINE
  5
19D
100
AcDbEntity
  8
0
  6
Continuous
 62
               6
100
AcDbLine
 10
557.47298775760487
 20
555.60385612000005
 30
0.0
 11
557.47298775760487
 21
507.10385611999999
 31
0.0
  0
LINE
  5
19E
100
AcDbEntity
  8
0
  6
Continuous
 62
               4
100
AcDbLine
 10
555.47298775760487
 20
555.10385612000005
 30
0.0
 11
555.47298775760487
 21
540.60385612000005
 31
0.0
  0
LINE
  5
19F
100
AcDbEntity
  8
0
  6
Continuous
 62
               6
100
AcDbLine
 10
554.97298775760487
 20
580.54371978165159
 30
0.0
 11
554.97298775760487
 21
628.88153677233095
 31
0.0
  0
LINE
  5
1A0
100
AcDbEntity
  8
0
  6
Continuous
 62
               6
100
AcDbLine
 10
557.47298775760487
 20
555.60385612000005
 30
0.0
 11
554.97298775760487
 21
580.54371978165159
 31
0.0
  0
LINE
  5
1A1
100
AcDbEntity
  8
0
  6
Continuous
 62
               7
100
AcDbLine
 10
557.97298775760487
 20
600.98029584038841
 30
0.0
 11
558.97298775760487
 21
555.60385611999959
 31
0.0
  0
LINE
  5
1A2
100
AcDbEntity
  8
0
  6
Continuous
 62
               7
100
AcDbLine
 10
555.97298775760487
 20
507.10385611999999
 30
0.0
 11
554.97896618730488
 21
519.36345548703389
 31
0.0
  0
LINE
  5
1A3
100
AcDbEntity
  8
0
  6
Continuous
 62
               6
100
AcDbLine
 10
959.83511496919505
 20
410.7734615442493
 30
0.0
 11
959.8950401095276
 21
409.57495873759586
 31
0.0
  0
LINE
  5
1A4
100
AcDbEntity
  8
0
  6
Continuous
 62
               6
100
AcDbLine
 10
909.95742316563519
 20
407.07807789040129
 30
0.0
 11
959.8950401095276
 21
409.57495873759586
 31
0.0
  0
LINE
  5
1A5
100
AcDbEntity
  8
0
  6
Continuous
 62
               6
100
AcDbLine
 10
911.09600083195596
 20
408.33650583738728
 30
0.0
 11
959.83511496919505
 21
410.7734615442493
 31
0.0
  0
LINE
  5
1A6
100
AcDbEntity
  8
0
  6
Continuous
 62
               7
100
AcDbLine
 10
1098.5942656893621
 20
414.50742157713745
 30
0.0
 11
984.24632411476568
 21
300.15948000254099
 31
0.0
  0
LINE
  5
1A7
100
AcDbEntity
  8
0
  6
Continuous
 62
               7
100
AcDbLine
 10
1083.7078071380665
 20
413.76309864957267
 30
0.0
 11
970.10418849103462
 21
300.15948000254099
 31
0.0
  0
LINE
  5
1A8
100
AcDbEntity
  8
0
  6
Continuous
 62
               7
100
AcDbLine
 10
1068.8213485867707
 20
413.01877572200789
 30
0.0
 11
955.96205286730378
 21
300.15948000254099
 31
0.0
  0
LINE
  5
1A9
100
AcDbEntity
  8
0
  6
Continuous
 62
               7
100
AcDbLine
 10
552.97298775760487
 20
434.57156859461878
 30
0.0
 11
418.56089916552708
 21
300.15948000254099
 31
0.0
  0
LINE
  5
1AA
100
AcDbEntity
  8
0
  6
Continuous
 62
               7
100
AcDbLine
 10
552.97298775760487
 20
448.71370421834973
 30
0.0
 11
404.41876354179612
 21
300.15948000254099
 31
0.0
  0
LINE
  5
1AB
100
AcDbEntity
  8
0
  6
Continuous
 62
               7
100
AcDbLine
 10
552.97298775760487
 20
462.85583984208068
 30
0.0
 11
390.27662791806517
 21
300.15948000254099
 31
0.0
  0
LINE
  5
1AC
100
AcDbEntity
  8
0
  6
Continuous
 62
               7
100
AcDbLine
 10
803.07286299149268
 20
399.73135144224415
 30
0.0
 11
1174.3664064623324
 21
418.29602861578593
 31
0.0
  0
LINE
  5
1AD
100
AcDbEntity
  8
0
  6
DASHED
 62
               6
100
AcDbLine
 10
803.02292537454878
 20
400.73010378112195
 30
0.0
 11
1174.3164688453883
 21
419.29478095466374
 31
0.0
  0
LINE
  5
1AE
100
AcDbEntity
  8
0
  6
DASHDOT
 62
               4
100
AcDbLine
 10
556.34082818835941
 20
602.90218595112424
 30
0.0
 11
505.90043036512787
 21
602.90218595112424
 31
0.0
  0
LINE
  5
1AF
100
AcDbEntity
  8
0
  6
DASHDOT
 62
               4
100
AcDbLine
 10
556.34082818835941
 20
606.23277705639725
 30
0.0
 11
556.34082818835941
 21
599.19038261091032
 31
0.0
  0
LINE
  5
1B0
100
AcDbEntity
  8
0
  6
Continuous
 62
               7
100
AcDbLine
 10
352.97298775760487
 20
714.30385612000146
 30
0.0
 11
352.97298775760487
 21
300.15948000254099
 31
0.0
  0
LINE
  5
1B1
100
AcDbEntity
  8
0
  6
Continuous
 62
               7
100
AcDbLine
 10
513.14802637074126
 20
705.87359092983615
 30
0.0
 11
352.97298775760493
 21
545.69855231669953
 31
0.0
  0
LINE
  5
1B2
100
AcDbEntity
  8
0
  6
Continuous
 62
               7
100
AcDbLine
 10
526.58305521328543
 20
705.16648414864972
 30
0.0
 11
352.97298775760493
 21
531.55641669296892
 31
0.0
  0
LINE
  5
1B3
100
AcDbEntity
  8
0
  6
Continuous
 62
               7
100
AcDbLine
 10
540.01808405583006
 20
704.45937736746305
 30
0.0
 11
352.97298775760493
 21
517.41428106923809
 31
0.0
  0
LINE
  5
1B4
100
AcDbEntity
  8
0
  6
Continuous
 62
               7
100
AcDbLine
 10
552.97298775760498
 20
703.77754033052747
 30
0.0
 11
352.97298775760487
 21
714.30385612000146
 31
0.0
  0
LINE
  5
1B5
100
AcDbEntity
  8
0
  6
Continuous
 62
               7
100
AcDbLine
 10
552.97298775760498
 20
703.77754033052747
 30
0.0
 11
552.97298775760487
 21
404.30385611999981
 31
0.0
  0
LINE
  5
1B6
100
AcDbEntity
  8
0
  6
Continuous
 62
               7
100
AcDbLine
 10
557.97298775760487
 20
705.51715060320544
 30
0.0
 11
557.97298775760487
 21
600.98029584038841
 31
0.0
  0
LINE
  5
1B7
100
AcDbEntity
  8
0
  6
Continuous
 62
               7
100
AcDbLine
 10
458.11120482435393
 20
710.77303391548185
 30
0.0
 11
557.97298775760487
 21
705.51715060320544
 31
0.0
  0
LINE
  5
1B8
100
AcDbEntity
  8
0
  6
DASHDOT
 62
               4
100
AcDbLine
 10
502.21147500331779
 20
709.23271309194843
 30
0.0
 11
499.83007018178091
 21
663.98602148274244
 31
0.0
  0
LINE
  5
1B9
100
AcDbEntity
  8
0
  6
Continuous
 62
               4
100
AcDbLine
 10
572.97298775760487
 20
673.79111698855559
 30
0.0
 11
572.97298775760487
 21
728.79111698855559
 31
0.0
  0
LINE
  5
1BA
100
AcDbEntity
  8
0
  6
Continuous
 62
               4
100
AcDbLine
 10
572.97298775760487
 20
673.79111698855559
 30
0.0
 11
567.97298775760487
 21
673.79111698855559
 31
0.0
  0
LINE
  5
1BB
100
AcDbEntity
  8
0
  6
Continuous
 62
               4
100
AcDbLine
 10
567.97298775760487
 20
673.79111698855559
 30
0.0
 11
567.97298775760487
 21
675.29111698855559
 31
0.0
  0
LINE
  5
1BC
100
AcDbEntity
  8
0
  6
Continuous
 62
               4
100
AcDbLine
 10
571.47298775760487
 20
727.36798823141544
 30
0.0
 11
571.47298775760487
 21
675.29111698855559
 31
0.0
  0
LINE
  5
1BD
100
AcDbEntity
  8
0
  6
Continuous
 62
               4
100
AcDbLine
 10
571.47298775760487
 20
675.29111698855559
 30
0.0
 11
567.97298775760487
 21
675.29111698855559
 31
0.0
  0
LINE
  5
1BE
100
AcDbEntity
  8
0
  6
Continuous
 62
               4
100
AcDbLine
 10
544.23303543661973
 20
727.60000903207083
 30
0.0
 11
543.91768243788306
 21
721.60830205607635
 31
0.0
  0
LINE
  5
1BF
100
AcDbEntity
  8
0
  6
Continuous
 62
               4
100
AcDbLine
 10
544.2330354366195
 20
727.60000903207128
 30
0.0
 11
564.20539202326972
 21
726.54883236961587
 31
0.0
  0
LINE
  5
1C0
100
AcDbEntity
  8
0
  6
Continuous
 62
               4
100
AcDbLine
 10
549.80427174763236
 20
719.2957133986738
 30
0.0
 11
549.75171291450965
 21
718.29709556934222
 31
0.0
  0
LINE
  5
1C1
100
AcDbEntity
  8
0
  6
Continuous
 62
               4
100
AcDbLine
 10
564.20539202326972
 20
726.54883236961587
 30
0.0
 11
571.47298775760487
 21
675.29111698855559
 31
0.0
  0
LINE
  5
1C2
100
AcDbEntity
  8
0
  6
Continuous
 62
               4
100
AcDbLine
 10
560.36692661493566
 20
720.74255236254658
 30
0.0
 11
551.90662507254319
 21
721.18783139109382
 31
0.0
  0
LINE
  5
1C3
100
AcDbEntity
  8
0
  6
Continuous
 62
               4
100
AcDbLine
 10
562.24200395970547
 20
719.02607944775764
 30
0.0
 11
568.44298315370338
 21
675.29111698855559
 31
0.0
  0
LINE
  5
1C4
100
AcDbEntity
  8
0
  6
Continuous
 62
               4
100
AcDbLine
 10
337.97298775760527
 20
748.79111698855581
 30
0.0
 11
337.97298775760527
 21
678.79111698855559
 31
0.0
  0
LINE
  5
1C5
100
AcDbEntity
  8
0
  6
Continuous
 62
               4
100
AcDbLine
 10
337.97298775760527
 20
748.79111698855581
 30
0.0
 11
351.24918576802798
 21
748.09236972484928
 31
0.0
  0
LINE
  5
1C6
100
AcDbEntity
  8
0
  6
Continuous
 62
               4
100
AcDbLine
 10
353.37576553538321
 20
740.34886552656758
 30
0.0
 11
351.24918576802798
 21
748.09236972484928
 31
0.0
  0
LINE
  5
1C7
100
AcDbEntity
  8
0
  6
Continuous
 62
               4
100
AcDbLine
 10
337.97298775760527
 20
678.79111698855559
 30
0.0
 11
343.97298775760527
 21
678.79111698855559
 31
0.0
  0
LINE
  5
1C8
100
AcDbEntity
  8
0
  6
Continuous
 62
               4
100
AcDbLine
 10
343.97298775760527
 20
678.79111698855559
 30
0.0
 11
343.97298775760527
 21
680.29111698855559
 31
0.0
  0
LINE
  5
1C9
100
AcDbEntity
  8
0
  6
Continuous
 62
               4
100
AcDbLine
 10
343.97298775760527
 20
680.29111698855559
 30
0.0
 11
339.47298775760527
 21
680.29111698855559
 31
0.0
  0
LINE
  5
1CA
100
AcDbEntity
  8
0
  6
Continuous
 62
               4
100
AcDbLine
 10
339.47298775760527
 20
680.29111698855559
 30
0.0
 11
339.47298775760527
 21
747.21009349457358
 31
0.0
  0
LINE
  5
1CB
100
AcDbEntity
  8
0
  6
Continuous
 62
               4
100
AcDbLine
 10
339.47298775760527
 20
747.21009349457358
 30
0.0
 11
350.08939649449923
 21
746.65133514000058
 31
0.0
  0
LINE
  5
1CC
100
AcDbEntity
  8
0
  6
Continuous
 62
               4
100
AcDbLine
 10
350.08939649449923
 20
746.65133514000058
 30
0.0
 11
352.21597626185422
 21
738.90783094171888
 31
0.0
  0
LINE
  5
1CD
100
AcDbEntity
  8
0
  6
Continuous
 62
               4
100
AcDbLine
 10
379.32978738334424
 20
736.27912735066525
 30
0.0
 11
357.14599480876944
 21
737.44669538090625
 31
0.0
  0
LINE
  5
1CE
100
AcDbEntity
  8
0
  6
Continuous
 62
               4
100
AcDbLine
 10
380.35468462923762
 20
727.21272863698573
 30
0.0
 11
380.14859867830893
 21
723.29709556934199
 31
0.0
  0
LINE
  5
1CF
100
AcDbEntity
  8
0
  6
Continuous
 62
               4
100
AcDbLine
 10
372.86505090924442
 20
727.60691988540907
 30
0.0
 11
372.63821805050401
 21
723.29709556934245
 31
0.0
  0
LINE
  5
1D0
100
AcDbEntity
  8
0
  6
Continuous
 62
               4
100
AcDbLine
 10
380.14859867830893
 20
723.29709556934199
 30
0.0
 11
372.63821805050401
 21
723.29709556934245
 31
0.0
  0
LINE
  5
1D1
100
AcDbEntity
  8
0
  6
Continuous
 62
               4
100
AcDbLine
 10
379.32978738334424
 20
736.27912735066343
 30
0.0
 11
379.01443438460745
 21
730.28742037466941
 31
0.0
  0
LINE
  5
1D2
100
AcDbEntity
  8
0
  6
Continuous
 62
               4
100
AcDbLine
 10
357.14599480876944
 20
737.44669538090625
 30
0.0
 11
348.12132716092316
 21
729.53749985633362
 31
0.0
  0
LINE
  5
1D3
100
AcDbEntity
  8
0
  6
Continuous
 62
               4
100
AcDbLine
 10
348.12132716097386
 20
729.53749985637774
 30
0.0
 11
339.47298775760527
 21
680.29111698855559
 31
0.0
  0
LINE
  5
1D4
100
AcDbEntity
  8
0
  6
Continuous
 62
               4
100
AcDbLine
 10
350.32740219426552
 20
724.75521942699675
 30
0.0
 11
342.51889674147111
 21
680.29111698855559
 31
0.0
  0
LINE
  5
1D5
100
AcDbEntity
  8
0
  6
Continuous
 62
               4
100
AcDbLine
 10
358.62729411809931
 20
731.3604277571178
 30
0.0
 11
370.0268739206154
 21
730.76044987277442
 31
0.0
  0
LINE
  5
1D6
100
AcDbEntity
  8
0
  6
Continuous
 62
               4
100
AcDbLine
 10
352.21597626185417
 20
738.90783094171911
 30
0.0
 11
571.47298775760487
 21
727.36798823141567
 31
0.0
  0
LINE
  5
1D7
100
AcDbEntity
  8
0
  6
Continuous
 62
               4
100
AcDbLine
 10
353.37576553538332
 20
740.34886552656735
 30
0.0
 11
572.97298775760487
 21
728.79111698855559
 31
0.0
  0
LINE
  5
1D8
100
AcDbEntity
  8
0
  6
Continuous
 62
               4
100
AcDbLine
 10
379.01443438460751
 20
730.28742037467032
 30
0.0
 11
543.91768243788306
 21
721.60830205607635
 31
0.0
  0
LINE
  5
1D9
100
AcDbEntity
  8
0
  6
Continuous
 62
               4
100
AcDbLine
 10
380.35468462923745
 20
727.21272863698232
 30
0.0
 11
549.75171291450965
 21
718.29709556934245
 31
0.0
  0
LINE
  5
1DA
100
AcDbEntity
  8
0
  6
Continuous
 62
               7
100
AcDbLine
 10
558.97298775760487
 20
507.10385611999999
 30
0.0
 11
558.97298775760487
 21
555.60385611999959
 31
0.0
  0
LINE
  5
1DB
100
AcDbEntity
  8
0
  6
Continuous
 62
               4
100
AcDbLine
 10
909.08351486911715
 20
508.66117827766703
 30
0.0
 11
1169.1978631086395
 21
521.66689568964307
 31
0.0
  0
LINE
  5
1DC
100
AcDbEntity
  8
0
  6
Continuous
 62
               6
100
AcDbLine
 10
856.14966932286779
 20
506.01450010315904
 30
0.0
 11
906.08728626675997
 21
508.51138095035373
 31
0.0
  0
LINE
  5
1DD
100
AcDbEntity
  8
0
  6
Continuous
 62
               7
100
AcDbLine
 10
829.57287581973992
 20
509.69190652662786
 30
0.0
 11
1168.9482034381963
 21
526.66067290755041
 31
0.0
  0
LINE
  5
1DE
100
AcDbEntity
  8
0
  6
Continuous
 62
               6
100
AcDbLine
 10
856.14966932286779
 20
506.01450010315904
 30
0.0
 11
856.20959446320057
 21
504.8159972965056
 31
0.0
  0
LINE
  5
1DF
100
AcDbEntity
  8
0
  6
Continuous
 62
               6
100
AcDbLine
 10
856.20959446320057
 20
504.8159972965056
 30
0.0
 11
904.9487086004392
 21
507.25295300336762
 31
0.0
  0
LINE
  5
1E0
100
AcDbEntity
  8
0
  6
Continuous
 62
               4
100
AcDbLine
 10
909.08351486911738
 20
508.66117827766703
 30
0.0
 11
914.0772765635063
 21
408.78594438988245
 31
0.0
  0
LINE
  5
1E1
100
AcDbEntity
  8
0
  6
Continuous
 62
               6
100
AcDbLine
 10
904.94867948278147
 20
507.25295154748466
 30
0.0
 11
909.95742316563519
 21
407.07807789040129
 31
0.0
  0
LINE
  5
1E2
100
AcDbEntity
  8
0
  6
Continuous
 62
               6
100
AcDbLine
 10
906.08725714910247
 20
508.51137949447076
 30
0.0
 11
911.09600083195596
 21
408.33650583738728
 31
0.0
  0
LINE
  5
1E3
100
AcDbEntity
  8
0
  6
Continuous
 62
               4
100
AcDbLine
 10
854.47298775760487
 20
507.1321650885663
 30
0.0
 11
943.19795875746922
 21
511.56841363856
 31
0.0
  0
LINE
  5
1E4
100
AcDbEntity
  8
0
  6
Continuous
 62
               6
100
AcDbLine
 10
949.22337136861825
 20
513.37155809870524
 30
0.0
 11
830.36186175317721
 21
507.42848261793239
 31
0.0
  0
LINE
  5
1E5
100
AcDbEntity
  8
0
  6
Continuous
 62
               7
100
AcDbLine
 10
831.18583243275157
 20
503.96530888287344
 30
0.0
 11
843.90317165489114
 21
505.29880279720584
 31
0.0
  0
LINE
  5
1E6
100
AcDbEntity
  8
0
  6
Continuous
 62
               6
100
AcDbLine
 10
849.43803142574438
 20
506.88041727197304
 30
0.0
 11
830.43676817859318
 21
505.93035410961551
 31
0.0
  0
LINE
  5
1E7
100
AcDbEntity
  8
0
  6
Continuous
 62
               6
100
AcDbLine
 10
850.63803142574443
 20
456.88041727197304
 30
0.0
 11
852.63803142574443
 21
466.42215993738847
 31
0.0
  0
LINE
  5
1E8
100
AcDbEntity
  8
0
  6
Continuous
 62
               6
100
AcDbLine
 10
849.43803142574438
 20
506.88041727197304
 30
0.0
 11
849.43803142574438
 21
456.88041727197304
 31
0.0
  0
LINE
  5
1E9
100
AcDbEntity
  8
0
  6
Continuous
 62
               4
100
AcDbLine
 10
854.4729877576051
 20
507.13216508856652
 30
0.0
 11
854.4729877576051
 21
405.60385611999976
 31
0.0
  0
LINE
  5
1EA
100
AcDbEntity
  8
0
  6
Continuous
 62
               7
100
AcDbLine
 10
827.25074821757289
 20
554.63201503414643
 30
0.0
 11
1166.7010106757211
 21
571.60452815705366
 31
0.0
  0
LINE
  5
1EB
100
AcDbEntity
  8
0
  6
Continuous
 62
               7
100
AcDbLine
 10
827.25074821757289
 20
554.63201503414643
 30
0.0
 11
829.49794098004804
 21
509.68815978464335
 31
0.0
  0
LINE
  5
1EC
100
AcDbEntity
  8
0
  6
Continuous
 62
               7
100
AcDbLine
 10
828.14962532256277
 20
536.65447293434522
 30
0.0
 11
1167.599887780711
 21
553.62698605725222
 31
0.0
  0
LINE
  5
1ED
100
AcDbEntity
  8
0
  6
Continuous
 62
               7
100
AcDbLine
 10
829.32318773502061
 20
514.68566822101729
 30
0.0
 11
1168.698515353477
 21
531.65443460193978
 31
0.0
  0
LINE
  5
1EE
100
AcDbEntity
  8
0
  6
Continuous
 62
               4
100
AcDbLine
 10
1203.2042375962753
 20
28.341677550555055
 30
0.0
 11
1203.2042375962753
 21
61.673677550555055
 31
0.0
  0
LINE
  5
1EF
100
AcDbEntity
  8
0
  6
Continuous
 62
               4
100
AcDbLine
 10
1453.1942375962753
 20
28.341677550555055
 30
0.0
 11
1203.2042375962753
 21
28.341677550555055
 31
0.0
  0
LINE
  5
1F0
100
AcDbEntity
  8
0
  6
Continuous
 62
               4
100
AcDbLine
 10
1453.1942375962753
 20
61.673677550555055
 30
0.0
 11
1453.1942375962753
 21
28.341677550555055
 31
0.0
  0
LINE
  5
1F1
100
AcDbEntity
  8
0
  6
Continuous
 62
               4
100
AcDbLine
 10
1453.1942375962753
 20
61.673677550555055
 30
0.0
 11
1203.2042375962753
 21
61.673677550555055
 31
0.0
  0
LINE
  5
1F2
100
AcDbEntity
  8
0
  6
Continuous
 62
               4
100
AcDbLine
 10
35.509845672550007
 20
986.04446947428005
 30
0.0
 11
35.509845672550007
 21
1019.37646947428
 31
0.0
  0
LINE
  5
1F3
100
AcDbEntity
  8
0
  6
Continuous
 62
               4
100
AcDbLine
 10
285.49984567255001
 20
986.04446947428005
 30
0.0
 11
35.509845672550007
 21
986.04446947428005
 31
0.0
  0
LINE
  5
1F4
100
AcDbEntity
  8
0
  6
Continuous
 62
               4
100
AcDbLine
 10
285.49984567255001
 20
1019.37646947428
 30
0.0
 11
285.49984567255001
 21
986.04446947428005
 31
0.0
  0
LINE
  5
1F5
100
AcDbEntity
  8
0
  6
Continuous
 62
               4
100
AcDbLine
 10
285.49984567255001
 20
1019.37646947428
 30
0.0
 11
35.509845672550007
 21
1019.37646947428
 31
0.0
  0
CIRCLE
  5
1F6
100
AcDbEntity
  8
0
  6
Continuous
 62
               4
100
AcDbCircle
 10
554.47298775760487
 20
240.60385611999982
 30
0.0
 40
2.5
  0
CIRCLE
  5
1F7
100
AcDbEntity
  8
0
  6
Continuous
 62
               4
100
AcDbCircle
 10
854.4729877576051
 20
240.60385611999982
 30
0.0
 40
2.5
  0
CIRCLE
  5
1F8
100
AcDbEntity
  8
0
  6
Continuous
 62
               4
100
AcDbCircle
 10
789.43803142574438
 20
506.88041727197293
 30
0.0
 40
2.5
  0
CIRCLE
  5
1F9
100
AcDbEntity
  8
0
  6
Continuous
 62
               4
100
AcDbCircle
 10
789.43803142574438
 20
456.88041727197293
 30
0.0
 40
2.5
  0
CIRCLE
  5
1FA
100
AcDbEntity
  8
0
  6
Continuous
 62
               4
100
AcDbCircle
 10
1199.1604623926326
 20
523.16502565384258
 30
0.0
 40
2.5
  0
CIRCLE
  5
1FB
100
AcDbEntity
  8
0
  6
Continuous
 62
               4
100
AcDbCircle
 10
1204.1542240870215
 20
423.28979176605793
 30
0.0
 40
2.5
  0
CIRCLE
  5
1FC
100
AcDbEntity
  8
0
  6
Continuous
 62
               4
100
AcDbCircle
 10
825.75261970925612
 20
584.59458520048179
 30
0.0
 40
2.5
  0
CIRCLE
  5
1FD
100
AcDbEntity
  8
0
  6
Continuous
 62
               4
100
AcDbCircle
 10
845.50294721056571
 20
585.58210157554731
 30
0.0
 40
2.5
  0
CIRCLE
  5
1FE
100
AcDbEntity
  8
0
  6
Continuous
 62
               4
100
AcDbCircle
 10
845.50294721056571
 20
585.58210157554731
 30
0.0
 40
2.5
  0
CIRCLE
  5
1FF
100
AcDbEntity
  8
0
  6
Continuous
 62
               4
100
AcDbCircle
 10
945.36319357885554
 20
590.57511389396177
 30
0.0
 40
2.5
  0
CIRCLE
  5
200
100
AcDbEntity
  8
0
  6
Continuous
 62
               4
100
AcDbCircle
 10
1196.6635808420563
 20
573.1026566653702
 30
0.0
 40
2.5
  0
CIRCLE
  5
201
100
AcDbEntity
  8
0
  6
Continuous
 62
               4
100
AcDbCircle
 10
1198.9107736045312
 20
528.15880141586695
 30
0.0
 40
2.5
  0
CIRCLE
  5
202
100
AcDbEntity
  8
0
  6
Continuous
 62
               7
100
AcDbCircle
 10
920.30208422303895
 20
448.49022774527788
 30
0.0
 40
1.0
  0
CIRCLE
  5
203
100
AcDbEntity
  8
0
  6
Continuous
 62
               7
100
AcDbCircle
 10
922.82268666616096
 20
478.10303403120935
 30
0.0
 40
1.0
  0
CIRCLE
  5
204
100
AcDbEntity
  8
0
  6
Continuous
 62
               7
100
AcDbCircle
 10
922.25329820295178
 20
464.68776311915821
 30
0.0
 40
0.1
  0
CIRCLE
  5
205
100
AcDbEntity
  8
0
  6
Continuous
 62
               7
100
AcDbCircle
 10
926.17952117493041
 20
452.94495321577853
 30
0.0
 40
0.5
  0
CIRCLE
  5
206
100
AcDbEntity
  8
0
  6
Continuous
 62
               7
100
AcDbCircle
 10
916.22046385268504
 20
477.75668200743672
 30
0.0
 40
0.1
  0
CIRCLE
  5
207
100
AcDbEntity
  8
0
  6
Continuous
 62
               7
100
AcDbCircle
 10
936.98761638004339
 20
449.3655492837309
 30
0.0
 40
1.0
  0
CIRCLE
  5
208
100
AcDbEntity
  8
0
  6
Continuous
 62
               7
100
AcDbCircle
 10
930.46288278137172
 20
471.81113762055389
 30
0.0
 40
0.5
  0
CIRCLE
  5
209
100
AcDbEntity
  8
0
  6
Continuous
 62
               7
100
AcDbCircle
 10
939.50821882316541
 20
478.97835556966237
 30
0.0
 40
1.0
  0
CIRCLE
  5
20A
100
AcDbEntity
  8
0
  6
Continuous
 62
               7
100
AcDbCircle
 10
938.93883035995646
 20
465.56308465761123
 30
0.0
 40
0.1
  0
CIRCLE
  5
20B
100
AcDbEntity
  8
0
  6
Continuous
 62
               7
100
AcDbCircle
 10
942.86505333193463
 20
453.82027475423155
 30
0.0
 40
0.5
  0
CIRCLE
  5
20C
100
AcDbEntity
  8
0
  6
Continuous
 62
               7
100
AcDbCircle
 10
930.36616310164641
 20
459.09339307022077
 30
0.0
 40
0.1
  0
CIRCLE
  5
20D
100
AcDbEntity
  8
0
  6
Continuous
 62
               7
100
AcDbCircle
 10
932.90599600968949
 20
478.63200354588975
 30
0.0
 40
0.1
  0
CIRCLE
  5
20E
100
AcDbEntity
  8
0
  6
Continuous
 62
               7
100
AcDbCircle
 10
953.67314853704784
 20
450.24087082218404
 30
0.0
 40
1.0
  0
CIRCLE
  5
20F
100
AcDbEntity
  8
0
  6
Continuous
 62
               7
100
AcDbCircle
 10
947.14841493837616
 20
472.68645915900692
 30
0.0
 40
0.5
  0
CIRCLE
  5
210
100
AcDbEntity
  8
0
  6
Continuous
 62
               7
100
AcDbCircle
 10
956.19375098016985
 20
479.85367710811539
 30
0.0
 40
1.0
  0
CIRCLE
  5
211
100
AcDbEntity
  8
0
  6
Continuous
 62
               7
100
AcDbCircle
 10
955.6243625169609
 20
466.43840619606436
 30
0.0
 40
0.1
  0
CIRCLE
  5
212
100
AcDbEntity
  8
0
  6
Continuous
 62
               7
100
AcDbCircle
 10
959.5505854889393
 20
454.69559629268457
 30
0.0
 40
0.5
  0
CIRCLE
  5
213
100
AcDbEntity
  8
0
  6
Continuous
 62
               7
100
AcDbCircle
 10
947.05169525865085
 20
459.96871460867379
 30
0.0
 40
0.1
  0
CIRCLE
  5
214
100
AcDbEntity
  8
0
  6
Continuous
 62
               7
100
AcDbCircle
 10
949.59152816669393
 20
479.50732508434277
 30
0.0
 40
0.1
  0
CIRCLE
  5
215
100
AcDbEntity
  8
0
  6
Continuous
 62
               7
100
AcDbCircle
 10
970.35868069405251
 20
451.11619236063706
 30
0.0
 40
1.0
  0
CIRCLE
  5
216
100
AcDbEntity
  8
0
  6
Continuous
 62
               7
100
AcDbCircle
 10
963.83394709538084
 20
473.56178069746005
 30
0.0
 40
0.5
  0
CIRCLE
  5
217
100
AcDbEntity
  8
0
  6
Continuous
 62
               7
100
AcDbCircle
 10
972.8792831371743
 20
480.72899864656841
 30
0.0
 40
1.0
  0
CIRCLE
  5
218
100
AcDbEntity
  8
0
  6
Continuous
 62
               7
100
AcDbCircle
 10
972.30989467396535
 20
467.31372773451739
 30
0.0
 40
0.1
  0
CIRCLE
  5
219
100
AcDbEntity
  8
0
  6
Continuous
 62
               7
100
AcDbCircle
 10
976.23611764594375
 20
455.57091783113771
 30
0.0
 40
0.5
  0
CIRCLE
  5
21A
100
AcDbEntity
  8
0
  6
Continuous
 62
               7
100
AcDbCircle
 10
963.73722741565552
 20
460.84403614712693
 30
0.0
 40
0.1
  0
CIRCLE
  5
21B
100
AcDbEntity
  8
0
  6
Continuous
 62
               7
100
AcDbCircle
 10
966.27706032369861
 20
480.3826466227959
 30
0.0
 40
0.1
  0
CIRCLE
  5
21C
100
AcDbEntity
  8
0
  6
Continuous
 62
               7
100
AcDbCircle
 10
987.04421285105695
 20
451.99151389909008
 30
0.0
 40
1.0
  0
CIRCLE
  5
21D
100
AcDbEntity
  8
0
  6
Continuous
 62
               7
100
AcDbCircle
 10
980.51947925238528
 20
474.43710223591307
 30
0.0
 40
0.5
  0
CIRCLE
  5
21E
100
AcDbEntity
  8
0
  6
Continuous
 62
               7
100
AcDbCircle
 10
989.56481529417897
 20
481.60432018502155
 30
0.0
 40
1.0
  0
CIRCLE
  5
21F
100
AcDbEntity
  8
0
  6
Continuous
 62
               7
100
AcDbCircle
 10
988.99542683096979
 20
468.18904927297041
 30
0.0
 40
0.1
  0
CIRCLE
  5
220
100
AcDbEntity
  8
0
  6
Continuous
 62
               7
100
AcDbCircle
 10
992.92164980294842
 20
456.44623936959073
 30
0.0
 40
0.5
  0
CIRCLE
  5
221
100
AcDbEntity
  8
0
  6
Continuous
 62
               7
100
AcDbCircle
 10
980.42275957265997
 20
461.71935768557995
 30
0.0
 40
0.1
  0
CIRCLE
  5
222
100
AcDbEntity
  8
0
  6
Continuous
 62
               7
100
AcDbCircle
 10
982.96259248070305
 20
481.25796816124893
 30
0.0
 40
0.1
  0
CIRCLE
  5
223
100
AcDbEntity
  8
0
  6
Continuous
 62
               7
100
AcDbCircle
 10
1003.7297450080614
 20
452.8668354375431
 30
0.0
 40
1.0
  0
CIRCLE
  5
224
100
AcDbEntity
  8
0
  6
Continuous
 62
               7
100
AcDbCircle
 10
997.20501140938973
 20
475.3124237743661
 30
0.0
 40
0.5
  0
CIRCLE
  5
225
100
AcDbEntity
  8
0
  6
Continuous
 62
               7
100
AcDbCircle
 10
1005.6809589879745
 20
469.06437081142354
 30
0.0
 40
0.1
  0
CIRCLE
  5
226
100
AcDbEntity
  8
0
  6
Continuous
 62
               7
100
AcDbCircle
 10
997.10829172966442
 20
462.59467922403297
 30
0.0
 40
0.1
  0
CIRCLE
  5
227
100
AcDbEntity
  8
0
  6
Continuous
 62
               7
100
AcDbCircle
 10
999.6481246377075
 20
482.13328969970195
 30
0.0
 40
0.1
  0
CIRCLE
  5
228
100
AcDbEntity
  8
0
  6
Continuous
 62
               7
100
AcDbCircle
 10
921.89471408174495
 20
418.13123901456953
 30
0.0
 40
1.0
  0
CIRCLE
  5
229
100
AcDbEntity
  8
0
  6
Continuous
 62
               7
100
AcDbCircle
 10
923.84592806165779
 20
434.32877438844986
 30
0.0
 40
0.1
  0
CIRCLE
  5
22A
100
AcDbEntity
  8
0
  6
Continuous
 62
               7
100
AcDbCircle
 10
927.77215103363619
 20
422.58596448507018
 30
0.0
 40
0.5
  0
CIRCLE
  5
22B
100
AcDbEntity
  8
0
  6
Continuous
 62
               7
100
AcDbCircle
 10
938.5802462387494
 20
419.00656055302255
 30
0.0
 40
1.0
  0
CIRCLE
  5
22C
100
AcDbEntity
  8
0
  6
Continuous
 62
               7
100
AcDbCircle
 10
924.74228121591977
 20
441.06849741735897
 30
0.0
 40
0.5
  0
CIRCLE
  5
22D
100
AcDbEntity
  8
0
  6
Continuous
 62
               7
100
AcDbCircle
 10
940.53146021866223
 20
435.20409592690299
 30
0.0
 40
0.1
  0
CIRCLE
  5
22E
100
AcDbEntity
  8
0
  6
Continuous
 62
               7
100
AcDbCircle
 10
944.45768319064064
 20
423.4612860235232
 30
0.0
 40
0.5
  0
CIRCLE
  5
22F
100
AcDbEntity
  8
0
  6
Continuous
 62
               7
100
AcDbCircle
 10
931.95879296035218
 20
428.73440433951242
 30
0.0
 40
0.1
  0
CIRCLE
  5
230
100
AcDbEntity
  8
0
  6
Continuous
 62
               7
100
AcDbCircle
 10
933.38089397546969
 20
416.18749822094634
 30
0.0
 40
0.1
  0
CIRCLE
  5
231
100
AcDbEntity
  8
0
  6
Continuous
 62
               7
100
AcDbCircle
 10
955.26577839575384
 20
419.88188209147569
 30
0.0
 40
1.0
  0
CIRCLE
  5
232
100
AcDbEntity
  8
0
  6
Continuous
 62
               7
100
AcDbCircle
 10
941.42781337292422
 20
441.94381895581199
 30
0.0
 40
0.5
  0
CIRCLE
  5
233
100
AcDbEntity
  8
0
  6
Continuous
 62
               7
100
AcDbCircle
 10
957.21699237566668
 20
436.07941746535602
 30
0.0
 40
0.1
  0
CIRCLE
  5
234
100
AcDbEntity
  8
0
  6
Continuous
 62
               7
100
AcDbCircle
 10
961.14321534764531
 20
424.33660756197622
 30
0.0
 40
0.5
  0
CIRCLE
  5
235
100
AcDbEntity
  8
0
  6
Continuous
 62
               7
100
AcDbCircle
 10
948.64432511735686
 20
429.60972587796545
 30
0.0
 40
0.1
  0
CIRCLE
  5
236
100
AcDbEntity
  8
0
  6
Continuous
 62
               7
100
AcDbCircle
 10
950.06642613247413
 20
417.06281975939936
 30
0.0
 40
0.1
  0
CIRCLE
  5
237
100
AcDbEntity
  8
0
  6
Continuous
 62
               7
100
AcDbCircle
 10
971.95131055275829
 20
420.75720362992871
 30
0.0
 40
1.0
  0
CIRCLE
  5
238
100
AcDbEntity
  8
0
  6
Continuous
 62
               7
100
AcDbCircle
 10
958.11334552992867
 20
442.81914049426513
 30
0.0
 40
0.5
  0
CIRCLE
  5
239
100
AcDbEntity
  8
0
  6
Continuous
 62
               7
100
AcDbCircle
 10
973.90252453267135
 20
436.95473900380904
 30
0.0
 40
0.1
  0
CIRCLE
  5
23A
100
AcDbEntity
  8
0
  6
Continuous
 62
               7
100
AcDbCircle
 10
977.82874750464975
 20
425.21192910042936
 30
0.0
 40
0.5
  0
CIRCLE
  5
23B
100
AcDbEntity
  8
0
  6
Continuous
 62
               7
100
AcDbCircle
 10
965.3298572743613
 20
430.48504741641847
 30
0.0
 40
0.1
  0
CIRCLE
  5
23C
100
AcDbEntity
  8
0
  6
Continuous
 62
               7
100
AcDbCircle
 10
966.75195828947881
 20
417.93814129785238
 30
0.0
 40
0.1
  0
CIRCLE
  5
23D
100
AcDbEntity
  8
0
  6
Continuous
 62
               7
100
AcDbCircle
 10
988.63684270976273
 20
421.63252516838173
 30
0.0
 40
1.0
  0
CIRCLE
  5
23E
100
AcDbEntity
  8
0
  6
Continuous
 62
               7
100
AcDbCircle
 10
974.79887768693334
 20
443.69446203271815
 30
0.0
 40
0.5
  0
CIRCLE
  5
23F
100
AcDbEntity
  8
0
  6
Continuous
 62
               7
100
AcDbCircle
 10
990.5880566896758
 20
437.83006054226206
 30
0.0
 40
0.1
  0
CIRCLE
  5
240
100
AcDbEntity
  8
0
  6
Continuous
 62
               7
100
AcDbCircle
 10
994.5142796616542
 20
426.08725063888238
 30
0.0
 40
0.5
  0
CIRCLE
  5
241
100
AcDbEntity
  8
0
  6
Continuous
 62
               7
100
AcDbCircle
 10
982.01538943136575
 20
431.3603689548716
 30
0.0
 40
0.1
  0
CIRCLE
  5
242
100
AcDbEntity
  8
0
  6
Continuous
 62
               7
100
AcDbCircle
 10
983.43749044648325
 20
418.81346283630552
 30
0.0
 40
0.1
  0
CIRCLE
  5
243
100
AcDbEntity
  8
0
  6
Continuous
 62
               7
100
AcDbCircle
 10
1005.3223748667674
 20
422.50784670683475
 30
0.0
 40
1.0
  0
CIRCLE
  5
244
100
AcDbEntity
  8
0
  6
Continuous
 62
               7
100
AcDbCircle
 10
991.48440984393778
 20
444.56978357117117
 30
0.0
 40
0.5
  0
CIRCLE
  5
245
100
AcDbEntity
  8
0
  6
Continuous
 62
               7
100
AcDbCircle
 10
1007.2735888466802
 20
438.7053820807152
 30
0.0
 40
0.1
  0
CIRCLE
  5
246
100
AcDbEntity
  8
0
  6
Continuous
 62
               7
100
AcDbCircle
 10
998.70092158837042
 20
432.23569049332463
 30
0.0
 40
0.1
  0
CIRCLE
  5
247
100
AcDbEntity
  8
0
  6
Continuous
 62
               7
100
AcDbCircle
 10
1000.1230226034879
 20
419.68878437475854
 30
0.0
 40
0.1
  0
CIRCLE
  5
248
100
AcDbEntity
  8
0
  6
Continuous
 62
               7
100
AcDbCircle
 10
1015.1514603229953
 20
451.8804687592222
 30
0.0
 40
1.0
  0
CIRCLE
  5
249
100
AcDbEntity
  8
0
  6
Continuous
 62
               7
100
AcDbCircle
 10
1017.6720627661173
 20
481.49327504515367
 30
0.0
 40
1.0
  0
CIRCLE
  5
24A
100
AcDbEntity
  8
0
  6
Continuous
 62
               7
100
AcDbCircle
 10
1017.1026743029081
 20
468.07800413310252
 30
0.0
 40
0.1
  0
CIRCLE
  5
24B
100
AcDbEntity
  8
0
  6
Continuous
 62
               7
100
AcDbCircle
 10
1021.0288972748865
 20
456.33519422972284
 30
0.0
 40
0.5
  0
CIRCLE
  5
24C
100
AcDbEntity
  8
0
  6
Continuous
 62
               7
100
AcDbCircle
 10
1011.0698399526414
 20
481.14692302138104
 30
0.0
 40
0.1
  0
CIRCLE
  5
24D
100
AcDbEntity
  8
0
  6
Continuous
 62
               7
100
AcDbCircle
 10
1031.8369924799997
 20
452.75579029767522
 30
0.0
 40
1.0
  0
CIRCLE
  5
24E
100
AcDbEntity
  8
0
  6
Continuous
 62
               7
100
AcDbCircle
 10
1025.312258881328
 20
475.20137863449821
 30
0.0
 40
0.5
  0
CIRCLE
  5
24F
100
AcDbEntity
  8
0
  6
Continuous
 62
               7
100
AcDbCircle
 10
1034.3575949231217
 20
482.36859658360669
 30
0.0
 40
1.0
  0
CIRCLE
  5
250
100
AcDbEntity
  8
0
  6
Continuous
 62
               7
100
AcDbCircle
 10
1033.7882064599125
 20
468.95332567155566
 30
0.0
 40
0.1
  0
CIRCLE
  5
251
100
AcDbEntity
  8
0
  6
Continuous
 62
               7
100
AcDbCircle
 10
1037.7144294318909
 20
457.21051576817587
 30
0.0
 40
0.5
  0
CIRCLE
  5
252
100
AcDbEntity
  8
0
  6
Continuous
 62
               7
100
AcDbCircle
 10
1025.2155392016027
 20
462.48363408416509
 30
0.0
 40
0.1
  0
CIRCLE
  5
253
100
AcDbEntity
  8
0
  6
Continuous
 62
               7
100
AcDbCircle
 10
1027.7553721096458
 20
482.02224455983406
 30
0.0
 40
0.1
  0
CIRCLE
  5
254
100
AcDbEntity
  8
0
  6
Continuous
 62
               7
100
AcDbCircle
 10
1048.5225246370042
 20
453.63111183612835
 30
0.0
 40
1.0
  0
CIRCLE
  5
255
100
AcDbEntity
  8
0
  6
Continuous
 62
               7
100
AcDbCircle
 10
1041.9977910383325
 20
476.07670017295123
 30
0.0
 40
0.5
  0
CIRCLE
  5
256
100
AcDbEntity
  8
0
  6
Continuous
 62
               7
100
AcDbCircle
 10
1051.0431270801262
 20
483.24391812205971
 30
0.0
 40
1.0
  0
CIRCLE
  5
257
100
AcDbEntity
  8
0
  6
Continuous
 62
               7
100
AcDbCircle
 10
1050.4737386169172
 20
469.82864721000868
 30
0.0
 40
0.1
  0
CIRCLE
  5
258
100
AcDbEntity
  8
0
  6
Continuous
 62
               7
100
AcDbCircle
 10
1054.3999615888956
 20
458.08583730662889
 30
0.0
 40
0.5
  0
CIRCLE
  5
259
100
AcDbEntity
  8
0
  6
Continuous
 62
               7
100
AcDbCircle
 10
1041.9010713586072
 20
463.35895562261811
 30
0.0
 40
0.1
  0
CIRCLE
  5
25A
100
AcDbEntity
  8
0
  6
Continuous
 62
               7
100
AcDbCircle
 10
1044.4409042666503
 20
482.89756609828709
 30
0.0
 40
0.1
  0
CIRCLE
  5
25B
100
AcDbEntity
  8
0
  6
Continuous
 62
               7
100
AcDbCircle
 10
1065.2080567940088
 20
454.50643337458138
 30
0.0
 40
1.0
  0
CIRCLE
  5
25C
100
AcDbEntity
  8
0
  6
Continuous
 62
               7
100
AcDbCircle
 10
1058.6833231953369
 20
476.95202171140437
 30
0.0
 40
0.5
  0
CIRCLE
  5
25D
100
AcDbEntity
  8
0
  6
Continuous
 62
               7
100
AcDbCircle
 10
1067.7286592371306
 20
484.11923966051273
 30
0.0
 40
1.0
  0
CIRCLE
  5
25E
100
AcDbEntity
  8
0
  6
Continuous
 62
               7
100
AcDbCircle
 10
1067.1592707739219
 20
470.7039687484617
 30
0.0
 40
0.1
  0
CIRCLE
  5
25F
100
AcDbEntity
  8
0
  6
Continuous
 62
               7
100
AcDbCircle
 10
1071.0854937459003
 20
458.96115884508202
 30
0.0
 40
0.5
  0
CIRCLE
  5
260
100
AcDbEntity
  8
0
  6
Continuous
 62
               7
100
AcDbCircle
 10
1058.5866035156116
 20
464.23427716107113
 30
0.0
 40
0.1
  0
CIRCLE
  5
261
100
AcDbEntity
  8
0
  6
Continuous
 62
               7
100
AcDbCircle
 10
1061.1264364236549
 20
483.77288763674011
 30
0.0
 40
0.1
  0
CIRCLE
  5
262
100
AcDbEntity
  8
0
  6
Continuous
 62
               7
100
AcDbCircle
 10
1081.8935889510135
 20
455.3817549130344
 30
0.0
 40
1.0
  0
CIRCLE
  5
263
100
AcDbEntity
  8
0
  6
Continuous
 62
               7
100
AcDbCircle
 10
1075.3688553523416
 20
477.82734324985739
 30
0.0
 40
0.5
  0
CIRCLE
  5
264
100
AcDbEntity
  8
0
  6
Continuous
 62
               7
100
AcDbCircle
 10
1084.4141913941353
 20
484.99456119896587
 30
0.0
 40
1.0
  0
CIRCLE
  5
265
100
AcDbEntity
  8
0
  6
Continuous
 62
               7
100
AcDbCircle
 10
1083.8448029309263
 20
471.57929028691473
 30
0.0
 40
0.1
  0
CIRCLE
  5
266
100
AcDbEntity
  8
0
  6
Continuous
 62
               7
100
AcDbCircle
 10
1087.7710259029047
 20
459.83648038353505
 30
0.0
 40
0.5
  0
CIRCLE
  5
267
100
AcDbEntity
  8
0
  6
Continuous
 62
               7
100
AcDbCircle
 10
1075.2721356726165
 20
465.10959869952427
 30
0.0
 40
0.1
  0
CIRCLE
  5
268
100
AcDbEntity
  8
0
  6
Continuous
 62
               7
100
AcDbCircle
 10
1077.8119685806594
 20
484.64820917519324
 30
0.0
 40
0.1
  0
CIRCLE
  5
269
100
AcDbEntity
  8
0
  6
Continuous
 62
               7
100
AcDbCircle
 10
1098.5791211080177
 20
456.25707645148742
 30
0.0
 40
1.0
  0
CIRCLE
  5
26A
100
AcDbEntity
  8
0
  6
Continuous
 62
               7
100
AcDbCircle
 10
1092.0543875093463
 20
478.70266478831041
 30
0.0
 40
0.5
  0
CIRCLE
  5
26B
100
AcDbEntity
  8
0
  6
Continuous
 62
               7
100
AcDbCircle
 10
1100.5303350879308
 20
472.45461182536786
 30
0.0
 40
0.1
  0
CIRCLE
  5
26C
100
AcDbEntity
  8
0
  6
Continuous
 62
               7
100
AcDbCircle
 10
1091.9576678296207
 20
465.98492023797729
 30
0.0
 40
0.1
  0
CIRCLE
  5
26D
100
AcDbEntity
  8
0
  6
Continuous
 62
               7
100
AcDbCircle
 10
1094.497500737664
 20
485.52353071364627
 30
0.0
 40
0.1
  0
CIRCLE
  5
26E
100
AcDbEntity
  8
0
  6
Continuous
 62
               7
100
AcDbCircle
 10
1016.744090181701
 20
421.52148002851385
 30
0.0
 40
1.0
  0
CIRCLE
  5
26F
100
AcDbEntity
  8
0
  6
Continuous
 62
               7
100
AcDbCircle
 10
1018.6953041616141
 20
437.71901540239418
 30
0.0
 40
0.1
  0
CIRCLE
  5
270
100
AcDbEntity
  8
0
  6
Continuous
 62
               7
100
AcDbCircle
 10
1022.6215271335925
 20
425.9762054990145
 30
0.0
 40
0.5
  0
CIRCLE
  5
271
100
AcDbEntity
  8
0
  6
Continuous
 62
               7
100
AcDbCircle
 10
1033.4296223387055
 20
422.39680156696687
 30
0.0
 40
1.0
  0
CIRCLE
  5
272
100
AcDbEntity
  8
0
  6
Continuous
 62
               7
100
AcDbCircle
 10
1019.5916573158761
 20
444.45873843130329
 30
0.0
 40
0.5
  0
CIRCLE
  5
273
100
AcDbEntity
  8
0
  6
Continuous
 62
               7
100
AcDbCircle
 10
1035.3808363186185
 20
438.5943369408472
 30
0.0
 40
0.1
  0
CIRCLE
  5
274
100
AcDbEntity
  8
0
  6
Continuous
 62
               7
100
AcDbCircle
 10
1039.307059290597
 20
426.85152703746752
 30
0.0
 40
0.5
  0
CIRCLE
  5
275
100
AcDbEntity
  8
0
  6
Continuous
 62
               7
100
AcDbCircle
 10
1026.8081690603085
 20
432.12464535345674
 30
0.0
 40
0.1
  0
CIRCLE
  5
276
100
AcDbEntity
  8
0
  6
Continuous
 62
               7
100
AcDbCircle
 10
1028.230270075426
 20
419.57773923489054
 30
0.0
 40
0.1
  0
CIRCLE
  5
277
100
AcDbEntity
  8
0
  6
Continuous
 62
               7
100
AcDbCircle
 10
1050.1151544957102
 20
423.27212310542001
 30
0.0
 40
1.0
  0
CIRCLE
  5
278
100
AcDbEntity
  8
0
  6
Continuous
 62
               7
100
AcDbCircle
 10
1036.2771894728805
 20
445.33405996975631
 30
0.0
 40
0.5
  0
CIRCLE
  5
279
100
AcDbEntity
  8
0
  6
Continuous
 62
               7
100
AcDbCircle
 10
1052.066368475623
 20
439.46965847930034
 30
0.0
 40
0.1
  0
CIRCLE
  5
27A
100
AcDbEntity
  8
0
  6
Continuous
 62
               7
100
AcDbCircle
 10
1055.9925914476016
 20
427.72684857592054
 30
0.0
 40
0.5
  0
CIRCLE
  5
27B
100
AcDbEntity
  8
0
  6
Continuous
 62
               7
100
AcDbCircle
 10
1043.4937012173132
 20
432.99996689190976
 30
0.0
 40
0.1
  0
CIRCLE
  5
27C
100
AcDbEntity
  8
0
  6
Continuous
 62
               7
100
AcDbCircle
 10
1044.9158022324305
 20
420.45306077334368
 30
0.0
 40
0.1
  0
CIRCLE
  5
27D
100
AcDbEntity
  8
0
  6
Continuous
 62
               7
100
AcDbCircle
 10
1066.8006866527148
 20
424.14744464387303
 30
0.0
 40
1.0
  0
CIRCLE
  5
27E
100
AcDbEntity
  8
0
  6
Continuous
 62
               7
100
AcDbCircle
 10
1052.962721629885
 20
446.20938150820945
 30
0.0
 40
0.5
  0
CIRCLE
  5
27F
100
AcDbEntity
  8
0
  6
Continuous
 62
               7
100
AcDbCircle
 10
1068.7519006326277
 20
440.34498001775336
 30
0.0
 40
0.1
  0
CIRCLE
  5
280
100
AcDbEntity
  8
0
  6
Continuous
 62
               7
100
AcDbCircle
 10
1072.6781236046061
 20
428.60217011437356
 30
0.0
 40
0.5
  0
CIRCLE
  5
281
100
AcDbEntity
  8
0
  6
Continuous
 62
               7
100
AcDbCircle
 10
1060.1792333743176
 20
433.87528843036279
 30
0.0
 40
0.1
  0
CIRCLE
  5
282
100
AcDbEntity
  8
0
  6
Continuous
 62
               7
100
AcDbCircle
 10
1061.6013343894351
 20
421.3283823117967
 30
0.0
 40
0.1
  0
CIRCLE
  5
283
100
AcDbEntity
  8
0
  6
Continuous
 62
               7
100
AcDbCircle
 10
1083.4862188097193
 20
425.02276618232605
 30
0.0
 40
1.0
  0
CIRCLE
  5
284
100
AcDbEntity
  8
0
  6
Continuous
 62
               7
100
AcDbCircle
 10
1069.6482537868897
 20
447.08470304666247
 30
0.0
 40
0.5
  0
CIRCLE
  5
285
100
AcDbEntity
  8
0
  6
Continuous
 62
               7
100
AcDbCircle
 10
1085.4374327896321
 20
441.22030155620638
 30
0.0
 40
0.1
  0
CIRCLE
  5
286
100
AcDbEntity
  8
0
  6
Continuous
 62
               7
100
AcDbCircle
 10
1089.3636557616105
 20
429.4774916528267
 30
0.0
 40
0.5
  0
CIRCLE
  5
287
100
AcDbEntity
  8
0
  6
Continuous
 62
               7
100
AcDbCircle
 10
1076.8647655313221
 20
434.75060996881592
 30
0.0
 40
0.1
  0
CIRCLE
  5
288
100
AcDbEntity
  8
0
  6
Continuous
 62
               7
100
AcDbCircle
 10
1078.2868665464398
 20
422.20370385024972
 30
0.0
 40
0.1
  0
CIRCLE
  5
289
100
AcDbEntity
  8
0
  6
Continuous
 62
               7
100
AcDbCircle
 10
1100.1717509667237
 20
425.89808772077907
 30
0.0
 40
1.0
  0
CIRCLE
  5
28A
100
AcDbEntity
  8
0
  6
Continuous
 62
               7
100
AcDbCircle
 10
1086.3337859438943
 20
447.96002458511549
 30
0.0
 40
0.5
  0
CIRCLE
  5
28B
100
AcDbEntity
  8
0
  6
Continuous
 62
               7
100
AcDbCircle
 10
1102.1229649466368
 20
442.09562309465952
 30
0.0
 40
0.1
  0
CIRCLE
  5
28C
100
AcDbEntity
  8
0
  6
Continuous
 62
               7
100
AcDbCircle
 10
1093.5502976883267
 20
435.62593150726894
 30
0.0
 40
0.1
  0
CIRCLE
  5
28D
100
AcDbEntity
  8
0
  6
Continuous
 62
               7
100
AcDbCircle
 10
1094.9723987034442
 20
423.07902538870286
 30
0.0
 40
0.1
  0
CIRCLE
  5
28E
100
AcDbEntity
  8
0
  6
Continuous
 62
               7
100
AcDbCircle
 10
1108.225680140125
 20
456.76313408353104
 30
0.0
 40
1.0
  0
CIRCLE
  5
28F
100
AcDbEntity
  8
0
  6
Continuous
 62
               7
100
AcDbCircle
 10
1110.746282583247
 20
486.37594036946251
 30
0.0
 40
1.0
  0
CIRCLE
  5
290
100
AcDbEntity
  8
0
  6
Continuous
 62
               7
100
AcDbCircle
 10
1110.1768941200378
 20
472.96066945741148
 30
0.0
 40
0.1
  0
CIRCLE
  5
291
100
AcDbEntity
  8
0
  6
Continuous
 62
               7
100
AcDbCircle
 10
1114.1031170920162
 20
461.21785955403169
 30
0.0
 40
0.5
  0
CIRCLE
  5
292
100
AcDbEntity
  8
0
  6
Continuous
 62
               7
100
AcDbCircle
 10
1102.1468061447665
 20
485.9248125974986
 30
0.0
 40
0.1
  0
CIRCLE
  5
293
100
AcDbEntity
  8
0
  6
Continuous
 62
               7
100
AcDbCircle
 10
1124.9112122971294
 20
457.63845562198418
 30
0.0
 40
1.0
  0
CIRCLE
  5
294
100
AcDbEntity
  8
0
  6
Continuous
 62
               7
100
AcDbCircle
 10
1118.3864786984577
 20
480.08404395880717
 30
0.0
 40
0.5
  0
CIRCLE
  5
295
100
AcDbEntity
  8
0
  6
Continuous
 62
               7
100
AcDbCircle
 10
1127.4318147402514
 20
487.25126190791553
 30
0.0
 40
1.0
  0
CIRCLE
  5
296
100
AcDbEntity
  8
0
  6
Continuous
 62
               7
100
AcDbCircle
 10
1126.8624262770425
 20
473.83599099586451
 30
0.0
 40
0.1
  0
CIRCLE
  5
297
100
AcDbEntity
  8
0
  6
Continuous
 62
               7
100
AcDbCircle
 10
1130.7886492490209
 20
462.09318109248471
 30
0.0
 40
0.5
  0
CIRCLE
  5
298
100
AcDbEntity
  8
0
  6
Continuous
 62
               7
100
AcDbCircle
 10
1118.2897590187324
 20
467.36629940847394
 30
0.0
 40
0.1
  0
CIRCLE
  5
299
100
AcDbEntity
  8
0
  6
Continuous
 62
               7
100
AcDbCircle
 10
1120.8295919267755
 20
486.90490988414291
 30
0.0
 40
0.1
  0
CIRCLE
  5
29A
100
AcDbEntity
  8
0
  6
Continuous
 62
               7
100
AcDbCircle
 10
1141.5967444541341
 20
458.5137771604372
 30
0.0
 40
1.0
  0
CIRCLE
  5
29B
100
AcDbEntity
  8
0
  6
Continuous
 62
               7
100
AcDbCircle
 10
1135.0720108554622
 20
480.95936549726019
 30
0.0
 40
0.5
  0
CIRCLE
  5
29C
100
AcDbEntity
  8
0
  6
Continuous
 62
               7
100
AcDbCircle
 10
1144.1173468972559
 20
488.12658344636867
 30
0.0
 40
1.0
  0
CIRCLE
  5
29D
100
AcDbEntity
  8
0
  6
Continuous
 62
               7
100
AcDbCircle
 10
1143.5479584340469
 20
474.71131253431753
 30
0.0
 40
0.1
  0
CIRCLE
  5
29E
100
AcDbEntity
  8
0
  6
Continuous
 62
               7
100
AcDbCircle
 10
1147.4741814060255
 20
462.96850263093785
 30
0.0
 40
0.5
  0
CIRCLE
  5
29F
100
AcDbEntity
  8
0
  6
Continuous
 62
               7
100
AcDbCircle
 10
1134.9752911757369
 20
468.24162094692707
 30
0.0
 40
0.1
  0
CIRCLE
  5
2A0
100
AcDbEntity
  8
0
  6
Continuous
 62
               7
100
AcDbCircle
 10
1137.5151240837799
 20
487.78023142259605
 30
0.0
 40
0.1
  0
CIRCLE
  5
2A1
100
AcDbEntity
  8
0
  6
Continuous
 62
               7
100
AcDbCircle
 10
1158.2822766111385
 20
459.38909869889022
 30
0.0
 40
1.0
  0
CIRCLE
  5
2A2
100
AcDbEntity
  8
0
  6
Continuous
 62
               7
100
AcDbCircle
 10
1151.7575430124668
 20
481.83468703571322
 30
0.0
 40
0.5
  0
CIRCLE
  5
2A3
100
AcDbEntity
  8
0
  6
Continuous
 62
               7
100
AcDbCircle
 10
1160.8028790542605
 20
489.00190498482169
 30
0.0
 40
1.0
  0
CIRCLE
  5
2A4
100
AcDbEntity
  8
0
  6
Continuous
 62
               7
100
AcDbCircle
 10
1160.2334905910516
 20
475.58663407277055
 30
0.0
 40
0.1
  0
CIRCLE
  5
2A5
100
AcDbEntity
  8
0
  6
Continuous
 62
               7
100
AcDbCircle
 10
1164.1597135630298
 20
463.84382416939087
 30
0.0
 40
0.5
  0
CIRCLE
  5
2A6
100
AcDbEntity
  8
0
  6
Continuous
 62
               7
100
AcDbCircle
 10
1151.6608233327415
 20
469.11694248538009
 30
0.0
 40
0.1
  0
CIRCLE
  5
2A7
100
AcDbEntity
  8
0
  6
Continuous
 62
               7
100
AcDbCircle
 10
1154.2006562407848
 20
488.65555296104907
 30
0.0
 40
0.1
  0
CIRCLE
  5
2A8
100
AcDbEntity
  8
0
  6
Continuous
 62
               7
100
AcDbCircle
 10
1168.4430751694715
 20
482.71000857416635
 30
0.0
 40
0.5
  0
CIRCLE
  5
2A9
100
AcDbEntity
  8
0
  6
Continuous
 62
               7
100
AcDbCircle
 10
1168.346355489746
 20
469.99226402383312
 30
0.0
 40
0.1
  0
CIRCLE
  5
2AA
100
AcDbEntity
  8
0
  6
Continuous
 62
               7
100
AcDbCircle
 10
1109.8183099988307
 20
426.40414535282281
 30
0.0
 40
1.0
  0
CIRCLE
  5
2AB
100
AcDbEntity
  8
0
  6
Continuous
 62
               7
100
AcDbCircle
 10
1111.7695239787438
 20
442.60168072670314
 30
0.0
 40
0.1
  0
CIRCLE
  5
2AC
100
AcDbEntity
  8
0
  6
Continuous
 62
               7
100
AcDbCircle
 10
1115.6957469507222
 20
430.85887082332334
 30
0.0
 40
0.5
  0
CIRCLE
  5
2AD
100
AcDbEntity
  8
0
  6
Continuous
 62
               7
100
AcDbCircle
 10
1126.5038421558354
 20
427.27946689127583
 30
0.0
 40
1.0
  0
CIRCLE
  5
2AE
100
AcDbEntity
  8
0
  6
Continuous
 62
               7
100
AcDbCircle
 10
1112.6658771330058
 20
449.34140375561213
 30
0.0
 40
0.5
  0
CIRCLE
  5
2AF
100
AcDbEntity
  8
0
  6
Continuous
 62
               7
100
AcDbCircle
 10
1128.4550561357482
 20
443.47700226515616
 30
0.0
 40
0.1
  0
CIRCLE
  5
2B0
100
AcDbEntity
  8
0
  6
Continuous
 62
               7
100
AcDbCircle
 10
1132.3812791077266
 20
431.73419236177637
 30
0.0
 40
0.5
  0
CIRCLE
  5
2B1
100
AcDbEntity
  8
0
  6
Continuous
 62
               7
100
AcDbCircle
 10
1119.8823888774382
 20
437.00731067776559
 30
0.0
 40
0.1
  0
CIRCLE
  5
2B2
100
AcDbEntity
  8
0
  6
Continuous
 62
               7
100
AcDbCircle
 10
1121.3044898925557
 20
424.4604045591995
 30
0.0
 40
0.1
  0
CIRCLE
  5
2B3
100
AcDbEntity
  8
0
  6
Continuous
 62
               7
100
AcDbCircle
 10
1143.1893743128398
 20
428.15478842972885
 30
0.0
 40
1.0
  0
CIRCLE
  5
2B4
100
AcDbEntity
  8
0
  6
Continuous
 62
               7
100
AcDbCircle
 10
1129.3514092900102
 20
450.21672529406527
 30
0.0
 40
0.5
  0
CIRCLE
  5
2B5
100
AcDbEntity
  8
0
  6
Continuous
 62
               7
100
AcDbCircle
 10
1145.1405882927529
 20
444.35232380360918
 30
0.0
 40
0.1
  0
CIRCLE
  5
2B6
100
AcDbEntity
  8
0
  6
Continuous
 62
               7
100
AcDbCircle
 10
1149.0668112647313
 20
432.6095139002295
 30
0.0
 40
0.5
  0
CIRCLE
  5
2B7
100
AcDbEntity
  8
0
  6
Continuous
 62
               7
100
AcDbCircle
 10
1136.5679210344429
 20
437.88263221621872
 30
0.0
 40
0.1
  0
CIRCLE
  5
2B8
100
AcDbEntity
  8
0
  6
Continuous
 62
               7
100
AcDbCircle
 10
1137.9900220495601
 20
425.33572609765253
 30
0.0
 40
0.1
  0
CIRCLE
  5
2B9
100
AcDbEntity
  8
0
  6
Continuous
 62
               7
100
AcDbCircle
 10
1159.8749064698445
 20
429.03010996818188
 30
0.0
 40
1.0
  0
CIRCLE
  5
2BA
100
AcDbEntity
  8
0
  6
Continuous
 62
               7
100
AcDbCircle
 10
1146.0369414470149
 20
451.09204683251829
 30
0.0
 40
0.5
  0
CIRCLE
  5
2BB
100
AcDbEntity
  8
0
  6
Continuous
 62
               7
100
AcDbCircle
 10
1161.8261204497576
 20
445.2276453420622
 30
0.0
 40
0.1
  0
CIRCLE
  5
2BC
100
AcDbEntity
  8
0
  6
Continuous
 62
               7
100
AcDbCircle
 10
1165.7523434217358
 20
433.48483543868252
 30
0.0
 40
0.5
  0
CIRCLE
  5
2BD
100
AcDbEntity
  8
0
  6
Continuous
 62
               7
100
AcDbCircle
 10
1153.2534531914475
 20
438.75795375467175
 30
0.0
 40
0.1
  0
CIRCLE
  5
2BE
100
AcDbEntity
  8
0
  6
Continuous
 62
               7
100
AcDbCircle
 10
1154.6755542065648
 20
426.21104763610566
 30
0.0
 40
0.1
  0
CIRCLE
  5
2BF
100
AcDbEntity
  8
0
  6
Continuous
 62
               7
100
AcDbCircle
 10
1162.7224736040193
 20
451.96736837097143
 30
0.0
 40
0.5
  0
CIRCLE
  5
2C0
100
AcDbEntity
  8
0
  6
Continuous
 62
               7
100
AcDbCircle
 10
1169.938985348452
 20
439.63327529312477
 30
0.0
 40
0.1
  0
CIRCLE
  5
2C1
100
AcDbEntity
  8
0
  6
Continuous
 62
               7
100
AcDbCircle
 10
1171.3610863635697
 20
427.08636917455868
 30
0.0
 40
0.1
  0
CIRCLE
  5
2C2
100
AcDbEntity
  8
0
  6
Continuous
 62
               7
100
AcDbCircle
 10
922.13159662832618
 20
491.92483478790706
 30
0.0
 40
1.0
  0
CIRCLE
  5
2C3
100
AcDbEntity
  8
0
  6
Continuous
 62
               7
100
AcDbCircle
 10
915.52937381485026
 20
491.57848276413444
 30
0.0
 40
0.1
  0
CIRCLE
  5
2C4
100
AcDbEntity
  8
0
  6
Continuous
 62
               7
100
AcDbCircle
 10
929.77179274353693
 20
485.63293837725161
 30
0.0
 40
0.5
  0
CIRCLE
  5
2C5
100
AcDbEntity
  8
0
  6
Continuous
 62
               7
100
AcDbCircle
 10
938.81712878533062
 20
492.80015632636008
 30
0.0
 40
1.0
  0
CIRCLE
  5
2C6
100
AcDbEntity
  8
0
  6
Continuous
 62
               7
100
AcDbCircle
 10
932.21490597185471
 20
492.45380430258746
 30
0.0
 40
0.1
  0
CIRCLE
  5
2C7
100
AcDbEntity
  8
0
  6
Continuous
 62
               7
100
AcDbCircle
 10
946.45732490054138
 20
486.50825991570463
 30
0.0
 40
0.5
  0
CIRCLE
  5
2C8
100
AcDbEntity
  8
0
  6
Continuous
 62
               7
100
AcDbCircle
 10
955.50266094233507
 20
493.6754778648131
 30
0.0
 40
1.0
  0
CIRCLE
  5
2C9
100
AcDbEntity
  8
0
  6
Continuous
 62
               7
100
AcDbCircle
 10
948.90043812885915
 20
493.32912584104048
 30
0.0
 40
0.1
  0
CIRCLE
  5
2CA
100
AcDbEntity
  8
0
  6
Continuous
 62
               7
100
AcDbCircle
 10
963.14285705754605
 20
487.38358145415776
 30
0.0
 40
0.5
  0
CIRCLE
  5
2CB
100
AcDbEntity
  8
0
  6
Continuous
 62
               7
100
AcDbCircle
 10
972.18819309933951
 20
494.55079940326613
 30
0.0
 40
1.0
  0
CIRCLE
  5
2CC
100
AcDbEntity
  8
0
  6
Continuous
 62
               7
100
AcDbCircle
 10
965.58597028586382
 20
494.20444737949362
 30
0.0
 40
0.1
  0
CIRCLE
  5
2CD
100
AcDbEntity
  8
0
  6
Continuous
 62
               7
100
AcDbCircle
 10
979.8283892145505
 20
488.25890299261079
 30
0.0
 40
0.5
  0
CIRCLE
  5
2CE
100
AcDbEntity
  8
0
  6
Continuous
 62
               7
100
AcDbCircle
 10
988.87372525634419
 20
495.42612094171926
 30
0.0
 40
1.0
  0
CIRCLE
  5
2CF
100
AcDbEntity
  8
0
  6
Continuous
 62
               7
100
AcDbCircle
 10
982.27150244286827
 20
495.07976891794664
 30
0.0
 40
0.1
  0
CIRCLE
  5
2D0
100
AcDbEntity
  8
0
  6
Continuous
 62
               7
100
AcDbCircle
 10
996.51392137155494
 20
489.13422453106381
 30
0.0
 40
0.5
  0
CIRCLE
  5
2D1
100
AcDbEntity
  8
0
  6
Continuous
 62
               7
100
AcDbCircle
 10
998.95703459987271
 20
495.95509045639966
 30
0.0
 40
0.1
  0
CIRCLE
  5
2D2
100
AcDbEntity
  8
0
  6
Continuous
 62
               7
100
AcDbCircle
 10
1016.9809727282825
 20
495.31507580185138
 30
0.0
 40
1.0
  0
CIRCLE
  5
2D3
100
AcDbEntity
  8
0
  6
Continuous
 62
               7
100
AcDbCircle
 10
1010.3787499148066
 20
494.96872377807875
 30
0.0
 40
0.1
  0
CIRCLE
  5
2D4
100
AcDbEntity
  8
0
  6
Continuous
 62
               7
100
AcDbCircle
 10
1024.6211688434933
 20
489.02317939119592
 30
0.0
 40
0.5
  0
CIRCLE
  5
2D5
100
AcDbEntity
  8
0
  6
Continuous
 62
               7
100
AcDbCircle
 10
1033.6665048852869
 20
496.1903973403044
 30
0.0
 40
1.0
  0
CIRCLE
  5
2D6
100
AcDbEntity
  8
0
  6
Continuous
 62
               7
100
AcDbCircle
 10
1027.064282071811
 20
495.84404531653178
 30
0.0
 40
0.1
  0
CIRCLE
  5
2D7
100
AcDbEntity
  8
0
  6
Continuous
 62
               7
100
AcDbCircle
 10
1041.3067010004977
 20
489.89850092964895
 30
0.0
 40
0.5
  0
CIRCLE
  5
2D8
100
AcDbEntity
  8
0
  6
Continuous
 62
               7
100
AcDbCircle
 10
1050.3520370422914
 20
497.06571887875742
 30
0.0
 40
1.0
  0
CIRCLE
  5
2D9
100
AcDbEntity
  8
0
  6
Continuous
 62
               7
100
AcDbCircle
 10
1043.7498142288155
 20
496.7193668549848
 30
0.0
 40
0.1
  0
CIRCLE
  5
2DA
100
AcDbEntity
  8
0
  6
Continuous
 62
               7
100
AcDbCircle
 10
1057.9922331575021
 20
490.77382246810208
 30
0.0
 40
0.5
  0
CIRCLE
  5
2DB
100
AcDbEntity
  8
0
  6
Continuous
 62
               7
100
AcDbCircle
 10
1067.0375691992958
 20
497.94104041721044
 30
0.0
 40
1.0
  0
CIRCLE
  5
2DC
100
AcDbEntity
  8
0
  6
Continuous
 62
               7
100
AcDbCircle
 10
1060.4353463858201
 20
497.59468839343782
 30
0.0
 40
0.1
  0
CIRCLE
  5
2DD
100
AcDbEntity
  8
0
  6
Continuous
 62
               7
100
AcDbCircle
 10
1074.6777653145068
 20
491.6491440065551
 30
0.0
 40
0.5
  0
CIRCLE
  5
2DE
100
AcDbEntity
  8
0
  6
Continuous
 62
               7
100
AcDbCircle
 10
1083.7231013563005
 20
498.81636195566358
 30
0.0
 40
1.0
  0
CIRCLE
  5
2DF
100
AcDbEntity
  8
0
  6
Continuous
 62
               7
100
AcDbCircle
 10
1077.1208785428246
 20
498.47000993189096
 30
0.0
 40
0.1
  0
CIRCLE
  5
2E0
100
AcDbEntity
  8
0
  6
Continuous
 62
               7
100
AcDbCircle
 10
1091.3632974715115
 20
492.52446554500813
 30
0.0
 40
0.5
  0
CIRCLE
  5
2E1
100
AcDbEntity
  8
0
  6
Continuous
 62
               7
100
AcDbCircle
 10
1093.8064106998293
 20
499.34533147034398
 30
0.0
 40
0.1
  0
CIRCLE
  5
2E2
100
AcDbEntity
  8
0
  6
Continuous
 62
               7
100
AcDbCircle
 10
1110.0551925454122
 20
500.19774112616022
 30
0.0
 40
1.0
  0
CIRCLE
  5
2E3
100
AcDbEntity
  8
0
  6
Continuous
 62
               7
100
AcDbCircle
 10
1101.4557161069317
 20
499.74661335419631
 30
0.0
 40
0.1
  0
CIRCLE
  5
2E4
100
AcDbEntity
  8
0
  6
Continuous
 62
               7
100
AcDbCircle
 10
1117.6953886606229
 20
493.90584471550488
 30
0.0
 40
0.5
  0
CIRCLE
  5
2E5
100
AcDbEntity
  8
0
  6
Continuous
 62
               7
100
AcDbCircle
 10
1126.7407247024166
 20
501.07306266461325
 30
0.0
 40
1.0
  0
CIRCLE
  5
2E6
100
AcDbEntity
  8
0
  6
Continuous
 62
               7
100
AcDbCircle
 10
1120.1385018889407
 20
500.72671064084062
 30
0.0
 40
0.1
  0
CIRCLE
  5
2E7
100
AcDbEntity
  8
0
  6
Continuous
 62
               7
100
AcDbCircle
 10
1134.3809208176274
 20
494.78116625395791
 30
0.0
 40
0.5
  0
CIRCLE
  5
2E8
100
AcDbEntity
  8
0
  6
Continuous
 62
               7
100
AcDbCircle
 10
1143.4262568594211
 20
501.94838420306638
 30
0.0
 40
1.0
  0
CIRCLE
  5
2E9
100
AcDbEntity
  8
0
  6
Continuous
 62
               7
100
AcDbCircle
 10
1136.8240340459452
 20
501.60203217929376
 30
0.0
 40
0.1
  0
CIRCLE
  5
2EA
100
AcDbEntity
  8
0
  6
Continuous
 62
               7
100
AcDbCircle
 10
1151.0664529746321
 20
495.65648779241093
 30
0.0
 40
0.5
  0
CIRCLE
  5
2EB
100
AcDbEntity
  8
0
  6
Continuous
 62
               7
100
AcDbCircle
 10
1160.1117890164257
 20
502.8237057415194
 30
0.0
 40
1.0
  0
CIRCLE
  5
2EC
100
AcDbEntity
  8
0
  6
Continuous
 62
               7
100
AcDbCircle
 10
1153.5095662029501
 20
502.47735371774678
 30
0.0
 40
0.1
  0
CIRCLE
  5
2ED
100
AcDbEntity
  8
0
  6
Continuous
 62
               7
100
AcDbCircle
 10
1167.7519851316367
 20
496.53180933086406
 30
0.0
 40
0.5
  0
CIRCLE
  5
2EE
100
AcDbEntity
  8
0
  6
Continuous
 62
               7
100
AcDbCircle
 10
921.48931551772193
 20
504.77045699999047
 30
0.0
 40
1.0
  0
CIRCLE
  5
2EF
100
AcDbEntity
  8
0
  6
Continuous
 62
               7
100
AcDbCircle
 10
914.88709270424624
 20
504.42410497621785
 30
0.0
 40
0.1
  0
CIRCLE
  5
2F0
100
AcDbEntity
  8
0
  6
Continuous
 62
               7
100
AcDbCircle
 10
929.12951163293292
 20
498.47856058933502
 30
0.0
 40
0.5
  0
CIRCLE
  5
2F1
100
AcDbEntity
  8
0
  6
Continuous
 62
               7
100
AcDbCircle
 10
938.17484767472638
 20
505.64577853844349
 30
0.0
 40
1.0
  0
CIRCLE
  5
2F2
100
AcDbEntity
  8
0
  6
Continuous
 62
               7
100
AcDbCircle
 10
931.57262486125069
 20
505.29942651467087
 30
0.0
 40
0.1
  0
CIRCLE
  5
2F3
100
AcDbEntity
  8
0
  6
Continuous
 62
               7
100
AcDbCircle
 10
945.81504378993736
 20
499.35388212778804
 30
0.0
 40
0.5
  0
CIRCLE
  5
2F4
100
AcDbEntity
  8
0
  6
Continuous
 62
               7
100
AcDbCircle
 10
954.86037983173105
 20
506.52110007689652
 30
0.0
 40
1.0
  0
CIRCLE
  5
2F5
100
AcDbEntity
  8
0
  6
Continuous
 62
               7
100
AcDbCircle
 10
948.25815701825513
 20
506.17474805312389
 30
0.0
 40
0.1
  0
CIRCLE
  5
2F6
100
AcDbEntity
  8
0
  6
Continuous
 62
               7
100
AcDbCircle
 10
962.50057594694181
 20
500.22920366624118
 30
0.0
 40
0.5
  0
CIRCLE
  5
2F7
100
AcDbEntity
  8
0
  6
Continuous
 62
               7
100
AcDbCircle
 10
971.5459119887355
 20
507.39642161534954
 30
0.0
 40
1.0
  0
CIRCLE
  5
2F8
100
AcDbEntity
  8
0
  6
Continuous
 62
               7
100
AcDbCircle
 10
964.94368917525958
 20
507.05006959157703
 30
0.0
 40
0.1
  0
CIRCLE
  5
2F9
100
AcDbEntity
  8
0
  6
Continuous
 62
               7
100
AcDbCircle
 10
979.18610810394625
 20
501.1045252046942
 30
0.0
 40
0.5
  0
CIRCLE
  5
2FA
100
AcDbEntity
  8
0
  6
Continuous
 62
               7
100
AcDbCircle
 10
988.23144414573994
 20
508.27174315380267
 30
0.0
 40
1.0
  0
CIRCLE
  5
2FB
100
AcDbEntity
  8
0
  6
Continuous
 62
               7
100
AcDbCircle
 10
981.62922133226425
 20
507.92539113003005
 30
0.0
 40
0.1
  0
CIRCLE
  5
2FC
100
AcDbEntity
  8
0
  6
Continuous
 62
               7
100
AcDbCircle
 10
995.87164026095093
 20
501.97984674314722
 30
0.0
 40
0.5
  0
CIRCLE
  5
2FD
100
AcDbEntity
  8
0
  6
Continuous
 62
               7
100
AcDbCircle
 10
998.3147534892687
 20
508.80071266848307
 30
0.0
 40
0.1
  0
CIRCLE
  5
2FE
100
AcDbEntity
  8
0
  6
Continuous
 62
               7
100
AcDbCircle
 10
1016.3386916176783
 20
508.16069801393479
 30
0.0
 40
1.0
  0
CIRCLE
  5
2FF
100
AcDbEntity
  8
0
  6
Continuous
 62
               7
100
AcDbCircle
 10
1009.7364688042023
 20
507.81434599016217
 30
0.0
 40
0.1
  0
CIRCLE
  5
300
100
AcDbEntity
  8
0
  6
Continuous
 62
               7
100
AcDbCircle
 10
1023.978887732889
 20
501.86880160327934
 30
0.0
 40
0.5
  0
CIRCLE
  5
301
100
AcDbEntity
  8
0
  6
Continuous
 62
               7
100
AcDbCircle
 10
1033.0242237746827
 20
509.03601955238781
 30
0.0
 40
1.0
  0
CIRCLE
  5
302
100
AcDbEntity
  8
0
  6
Continuous
 62
               7
100
AcDbCircle
 10
1026.4220009612068
 20
508.68966752861519
 30
0.0
 40
0.1
  0
CIRCLE
  5
303
100
AcDbEntity
  8
0
  6
Continuous
 62
               7
100
AcDbCircle
 10
1040.6644198898935
 20
502.74412314173236
 30
0.0
 40
0.5
  0
CIRCLE
  5
304
100
AcDbEntity
  8
0
  6
Continuous
 62
               7
100
AcDbCircle
 10
1049.7097559316874
 20
509.91134109084084
 30
0.0
 40
1.0
  0
CIRCLE
  5
305
100
AcDbEntity
  8
0
  6
Continuous
 62
               7
100
AcDbCircle
 10
1043.1075331182114
 20
509.56498906706821
 30
0.0
 40
0.1
  0
CIRCLE
  5
306
100
AcDbEntity
  8
0
  6
Continuous
 62
               7
100
AcDbCircle
 10
1057.3499520468981
 20
503.6194446801855
 30
0.0
 40
0.5
  0
CIRCLE
  5
307
100
AcDbEntity
  8
0
  6
Continuous
 62
               7
100
AcDbCircle
 10
1066.3952880886916
 20
510.78666262929386
 30
0.0
 40
1.0
  0
CIRCLE
  5
308
100
AcDbEntity
  8
0
  6
Continuous
 62
               7
100
AcDbCircle
 10
1059.7930652752159
 20
510.44031060552123
 30
0.0
 40
0.1
  0
CIRCLE
  5
309
100
AcDbEntity
  8
0
  6
Continuous
 62
               7
100
AcDbCircle
 10
1074.0354842039026
 20
504.49476621863852
 30
0.0
 40
0.5
  0
CIRCLE
  5
30A
100
AcDbEntity
  8
0
  6
Continuous
 62
               7
100
AcDbCircle
 10
1083.0808202456963
 20
511.66198416774699
 30
0.0
 40
1.0
  0
CIRCLE
  5
30B
100
AcDbEntity
  8
0
  6
Continuous
 62
               7
100
AcDbCircle
 10
1076.4785974322203
 20
511.31563214397437
 30
0.0
 40
0.1
  0
CIRCLE
  5
30C
100
AcDbEntity
  8
0
  6
Continuous
 62
               7
100
AcDbCircle
 10
1090.7210163609072
 20
505.37008775709154
 30
0.0
 40
0.5
  0
CIRCLE
  5
30D
100
AcDbEntity
  8
0
  6
Continuous
 62
               7
100
AcDbCircle
 10
1093.164129589225
 20
512.19095368242733
 30
0.0
 40
0.1
  0
CIRCLE
  5
30E
100
AcDbEntity
  8
0
  6
Continuous
 62
               7
100
AcDbCircle
 10
1109.4129114348079
 20
513.04336333824358
 30
0.0
 40
1.0
  0
CIRCLE
  5
30F
100
AcDbEntity
  8
0
  6
Continuous
 62
               7
100
AcDbCircle
 10
1100.8134349963275
 20
512.59223556627967
 30
0.0
 40
0.1
  0
CIRCLE
  5
310
100
AcDbEntity
  8
0
  6
Continuous
 62
               7
100
AcDbCircle
 10
1117.0531075500187
 20
506.7514669275883
 30
0.0
 40
0.5
  0
CIRCLE
  5
311
100
AcDbEntity
  8
0
  6
Continuous
 62
               7
100
AcDbCircle
 10
1126.0984435918124
 20
513.91868487669672
 30
0.0
 40
1.0
  0
CIRCLE
  5
312
100
AcDbEntity
  8
0
  6
Continuous
 62
               7
100
AcDbCircle
 10
1119.4962207783365
 20
513.57233285292409
 30
0.0
 40
0.1
  0
CIRCLE
  5
313
100
AcDbEntity
  8
0
  6
Continuous
 62
               7
100
AcDbCircle
 10
1133.7386397070231
 20
507.62678846604132
 30
0.0
 40
0.5
  0
CIRCLE
  5
314
100
AcDbEntity
  8
0
  6
Continuous
 62
               7
100
AcDbCircle
 10
1142.7839757488168
 20
514.79400641514985
 30
0.0
 40
1.0
  0
CIRCLE
  5
315
100
AcDbEntity
  8
0
  6
Continuous
 62
               7
100
AcDbCircle
 10
1136.1817529353409
 20
514.44765439137723
 30
0.0
 40
0.1
  0
CIRCLE
  5
316
100
AcDbEntity
  8
0
  6
Continuous
 62
               7
100
AcDbCircle
 10
1150.4241718640278
 20
508.50211000449434
 30
0.0
 40
0.5
  0
CIRCLE
  5
317
100
AcDbEntity
  8
0
  6
Continuous
 62
               7
100
AcDbCircle
 10
1159.4695079058215
 20
515.66932795360276
 30
0.0
 40
1.0
  0
CIRCLE
  5
318
100
AcDbEntity
  8
0
  6
Continuous
 62
               7
100
AcDbCircle
 10
1152.8672850923458
 20
515.32297592983014
 30
0.0
 40
0.1
  0
CIRCLE
  5
319
100
AcDbEntity
  8
0
  6
Continuous
 62
               7
100
AcDbCircle
 10
1167.1097040210325
 20
509.37743154294748
 30
0.0
 40
0.5
  0
ARC
  5
31A
100
AcDbEntity
  8
0
  6
Continuous
 62
               7
100
AcDbCircle
 10
653.68117096568403
 20
408.08274714996747
 30
0.0
 40
3.0
100
AcDbArc
 50
0.0
 51
78.792475197113802
  0
ARC
  5
31B
100
AcDbEntity
  8
0
  6
Continuous
 62
               7
100
AcDbCircle
 10
649.47298775760487
 20
411.97488755221349
 30
0.0
 40
3.0
100
AcDbArc
 50
180.0
 51
258.79247519711373
  0
ARC
  5
31C
100
AcDbEntity
  8
0
  6
Continuous
 62
               7
100
AcDbCircle
 10
653.18117096568403
 20
407.67209750283376
 30
0.0
 40
0.5
100
AcDbArc
 50
0.0
 51
78.792475197113802
  0
ARC
  5
31D
100
AcDbEntity
  8
0
  6
Continuous
 62
               7
100
AcDbCircle
 10
650.47298775760487
 20
412.79618684648068
 30
0.0
 40
1.0
100
AcDbArc
 50
180.0
 51
258.79247519711379
  0
ARC
  5
31E
100
AcDbEntity
  8
0
  6
Continuous
 62
               7
100
AcDbCircle
 10
701.32140884897467
 20
382.80630160234108
 30
0.0
 40
75.976783011025262
100
AcDbArc
 50
92.903422266760472
 51
136.21242316700059
  0
ARC
  5
31F
100
AcDbEntity
  8
0
  6
Continuous
 62
               7
100
AcDbCircle
 10
701.32140884897467
 20
382.80630160234108
 30
0.0
 40
72.976783011025262
100
AcDbArc
 50
98.506934258743286
 51
135.27384486493932
  0
ARC
  5
320
100
AcDbEntity
  8
0
  6
Continuous
 62
               7
100
AcDbCircle
 10
755.26480454952593
 20
408.08274714996747
 30
0.0
 40
3.0
100
AcDbArc
 50
101.2075248028862
 51
180.0
  0
ARC
  5
321
100
AcDbEntity
  8
0
  6
Continuous
 62
               7
100
AcDbCircle
 10
759.4729877576051
 20
411.97488755221349
 30
0.0
 40
3.0
100
AcDbArc
 50
281.20752480288621
 51
0.0
  0
ARC
  5
322
100
AcDbEntity
  8
0
  6
Continuous
 62
               7
100
AcDbCircle
 10
755.76480454952593
 20
407.67209750283376
 30
0.0
 40
0.5
100
AcDbArc
 50
101.2075248028862
 51
180.0
  0
ARC
  5
323
100
AcDbEntity
  8
0
  6
Continuous
 62
               7
100
AcDbCircle
 10
758.4729877576051
 20
412.79618684648068
 30
0.0
 40
1.0
100
AcDbArc
 50
281.20752480288616
 51
0.0
  0
ARC
  5
324
100
AcDbEntity
  8
0
  6
Continuous
 62
               7
100
AcDbCircle
 10
707.62456666623552
 20
382.80630160234108
 30
0.0
 40
75.976783011025262
100
AcDbArc
 50
43.78757683299964
 51
87.096577733239457
  0
ARC
  5
325
100
AcDbEntity
  8
0
  6
Continuous
 62
               7
100
AcDbCircle
 10
707.62456666623552
 20
382.80630160234108
 30
0.0
 40
72.976783011025262
100
AcDbArc
 50
44.726155135060907
 51
81.493065741256714
  0
ARC
  5
326
100
AcDbEntity
  8
0
  6
Continuous
 62
               7
100
AcDbCircle
 10
707.39227689186237
 20
424.79165216488383
 30
0.0
 40
34.580609993741909
100
AcDbArc
 50
106.66918903454548
 51
162.16790860386757
  0
ARC
  5
327
100
AcDbEntity
  8
0
  6
Continuous
 62
               7
100
AcDbCircle
 10
707.39227689186237
 20
424.79165216488383
 30
0.0
 40
31.580609993741909
100
AcDbArc
 50
108.30614530663711
 51
161.33290966083095
  0
ARC
  5
328
100
AcDbEntity
  8
0
  6
Continuous
 62
               7
100
AcDbCircle
 10
682.05938025936098
 20
408.10051518012273
 30
0.0
 40
1.0
100
AcDbArc
 50
0.0
 51
72.406991098185699
  0
ARC
  5
329
100
AcDbEntity
  8
0
  6
Continuous
 62
               7
100
AcDbCircle
 10
676.47298775760487
 20
409.60385611999988
 30
0.0
 40
2.0
100
AcDbArc
 50
180.0
 51
269.99999999999994
  0
ARC
  5
32A
100
AcDbEntity
  8
0
  6
Continuous
 62
               7
100
AcDbCircle
 10
701.5536986233476
 20
424.79165216488383
 30
0.0
 40
34.580609993741909
100
AcDbArc
 50
17.83209139613367
 51
73.330810965454447
  0
ARC
  5
32B
100
AcDbEntity
  8
0
  6
Continuous
 62
               7
100
AcDbCircle
 10
701.5536986233476
 20
424.79165216488383
 30
0.0
 40
31.580609993741909
100
AcDbArc
 50
18.667090339170372
 51
77.343864691469733
  0
ARC
  5
32C
100
AcDbEntity
  8
0
  6
Continuous
 62
               7
100
AcDbCircle
 10
726.88659525584899
 20
408.10051518012273
 30
0.0
 40
1.0
100
AcDbArc
 50
107.5930089018143
 51
180.0
  0
ARC
  5
32D
100
AcDbEntity
  8
0
  6
Continuous
 62
               7
100
AcDbCircle
 10
732.4729877576051
 20
409.60385611999988
 30
0.0
 40
2.0
100
AcDbArc
 50
269.99999999999994
 51
0.0
  0
ARC
  5
32E
100
AcDbEntity
  8
0
  6
Continuous
 62
               7
100
AcDbCircle
 10
699.47298775760487
 20
454.6038561200001
 30
0.0
 40
2.0
100
AcDbArc
 50
180.0
 51
269.99999999999994
  0
ARC
  5
32F
100
AcDbEntity
  8
0
  6
Continuous
 62
               7
100
AcDbCircle
 10
699.47298775760487
 20
458.6038561200001
 30
0.0
 40
2.0
100
AcDbArc
 50
89.999999999999957
 51
180.0
  0
ARC
  5
330
100
AcDbEntity
  8
0
  6
Continuous
 62
               7
100
AcDbCircle
 10
709.4729877576051
 20
458.6038561200001
 30
0.0
 40
2.0
100
AcDbArc
 50
0.0
 51
89.999999999999957
  0
ARC
  5
331
100
AcDbEntity
  8
0
  6
Continuous
 62
               7
100
AcDbCircle
 10
698.47298775760487
 20
456.10818681838083
 30
0.0
 40
2.0
100
AcDbArc
 50
0.0
 51
104.10575193864145
  0
ARC
  5
332
100
AcDbEntity
  8
0
  6
Continuous
 62
               4
100
AcDbCircle
 10
554.97298775760487
 20
555.10385612000005
 30
0.0
 40
0.499999999999972
100
AcDbArc
 50
0.0
 51
180.0
  0
ARC
  5
333
100
AcDbEntity
  8
0
  6
Continuous
 62
               7
100
AcDbCircle
 10
557.47298775760487
 20
507.10385611999999
 30
0.0
 40
1.5
100
AcDbArc
 50
180.0
 51
0.0
  0
ARC
  5
334
100
AcDbEntity
  8
0
  6
Continuous
 62
               4
100
AcDbCircle
 10
551.80150740629733
 20
719.19059573242839
 30
0.0
 40
2.0
100
AcDbArc
 50
86.987212495815413
 51
176.98721249581766
  0
ARC
  5
335
100
AcDbEntity
  8
0
  6
Continuous
 62
               4
100
AcDbCircle
 10
560.26180894869003
 20
718.7453167038816
 30
0.0
 40
2.0
100
AcDbArc
 50
8.0699151912738127
 51
86.987212495815697
  0
ARC
  5
336
100
AcDbEntity
  8
0
  6
Continuous
 62
               4
100
AcDbCircle
 10
369.86919742124684
 20
727.76459638477741
 30
0.0
 40
3.0
100
AcDbArc
 50
356.98721249581661
 51
86.987212495815911
  0
ARC
  5
337
100
AcDbEntity
  8
0
  6
Continuous
 62
               4
100
AcDbCircle
 10
358.20682345311701
 20
723.3714851224579
 30
0.0
 40
8.0
100
AcDbArc
 50
86.987212495814731
 51
170.03964059994635
  0
ARC
  5
338
100
AcDbEntity
  8
0
  6
Continuous
 62
               6
100
AcDbCircle
 10
830.3993149658852
 20
506.67941836377389
 30
0.0
 40
0.750000000000032
100
AcDbArc
 50
92.862405226112585
 51
272.86240522610814
  0
ARC
  5
339
100
AcDbEntity
  8
0
  6
Continuous
 62
               7
100
AcDbCircle
 10
831.04101334361417
 20
506.86169066561916
 30
0.0
 40
2.900000000000039
100
AcDbArc
 50
92.862405226111662
 51
272.86240522611047
  0
ARC
  5
33A
100
AcDbEntity
  8
0
  6
Continuous
 62
               6
100
AcDbCircle
 10
850.03803142574429
 20
456.88041727197304
 30
0.0
 40
0.599999999999966
100
AcDbArc
 50
180.0
 51
0.0
  0
TEXT
  5
33B
100
AcDbEntity
  8
0
 62
               7
100
AcDbText
 10
604.51732410359045
 20
649.4129411973895
 30
0.0
 40
20.0
  1
力板
 41
0.7695
  7
FontTableH_0
 72
               5
 11
644.51732410359045
 21
649.4129411973895
 31
0.0
100
AcDbText
  0
TEXT
  5
33C
100
AcDbEntity
  8
0
 62
               7
100
AcDbText
 10
592.21816590894196
 20
468.40757262650442
 30
0.0
 40
20.0
  1
樋
 41
0.7695
  7
FontTableH_0
 72
               5
 11
612.21816590894196
 21
468.40757262650442
 31
0.0
100
AcDbText
  0
TEXT
  5
33D
100
AcDbEntity
  8
0
 62
               7
100
AcDbText
 10
597.59050094509325
 20
511.11094677817874
 30
0.0
 40
19.999999999999716
  1
落し口
 41
0.7695
  7
FontTableH_0
 72
               5
 11
657.59050094509325
 21
511.11094677817874
 31
0.0
100
AcDbText
  0
TEXT
  5
33E
100
AcDbEntity
  8
0
 62
               7
100
AcDbText
 10
664.47298775760487
 20
240.60385611999982
 30
0.0
 40
20.0
  1
450～600
 41
0.7695
  7
FontTableH_0
 72
               5
 11
744.47298775760487
 21
240.60385611999982
 31
0.0
100
AcDbText
  0
TEXT
  5
33F
100
AcDbEntity
  8
0
 62
               7
100
AcDbText
 10
1050.6127151134701
 20
332.94113766289303
 30
0.0
 40
20.0
  1
断熱材
 41
0.7695
  7
FontTableH_0
 72
               5
 11
1110.6127151134701
 21
332.94113766289303
 31
0.0
100
AcDbText
  0
TEXT
  5
340
100
AcDbEntity
  8
0
 62
               7
100
AcDbText
 10
556.23616251195574
 20
786.48848179750439
 30
0.0
 40
20.0
  1
アルミ笠木（別途）
 41
0.7695
  7
FontTableH_0
 72
               5
 11
736.23616251195574
 21
786.48848179750439
 31
0.0
100
AcDbText
  0
TEXT
  5
341
100
AcDbEntity
  8
0
 62
               7
100
AcDbText
 10
789.43803142574438
 20
471.88041727197293
 30
0.0
 40
20.0
  1
50
 50
90.000000000000028
 41
0.7695
  7
FontTableH_0
 72
               5
 11
789.43803142574438
 21
491.88041727197293
 31
0.0
100
AcDbText
  0
TEXT
  5
342
100
AcDbEntity
  8
0
 62
               7
100
AcDbText
 10
709.44317376399363
 20
582.48516423630804
 30
0.0
 40
20.0
  1
軒先唐草
 41
0.7695
  7
FontTableH_0
 72
               5
 11
789.44317376399363
 21
582.48516423631372
 31
0.0
100
AcDbText
  0
TEXT
  5
343
100
AcDbEntity
  8
0
 62
               7
100
AcDbText
 10
1200.9082789856689
 20
488.2086937931179
 30
0.0
 40
20.000000000000359
  1
100
 50
272.86240522611047
 41
0.7695
  7
FontTableH_0
 72
               5
 11
1202.4064074939849
 21
458.24612362678255
 31
0.0
100
AcDbText
  0
TEXT
  5
344
100
AcDbEntity
  8
0
 62
               7
100
AcDbText
 10
825.64026007113262
 20
584.58896721857559
 30
0.0
 40
19.999999999999833
  1
20
 50
2.8624052261126209
 41
0.7695
  7
FontTableH_0
 72
               5
 11
845.61530684868933
 21
585.58771955745374
 31
0.0
100
AcDbText
  0
TEXT
  5
345
100
AcDbEntity
  8
0
 62
               7
100
AcDbText
 10
880.45178531154306
 20
587.32954348059616
 30
0.0
 40
19.999999999999805
  1
100
 50
2.862405226111532
 41
0.7695
  7
FontTableH_0
 72
               5
 11
910.41435547787842
 21
588.82767198891293
 31
0.0
100
AcDbText
  0
TEXT
  5
346
100
AcDbEntity
  8
0
 62
               7
100
AcDbText
 10
1197.2878010538545
 20
560.61825242939699
 30
0.0
 40
20.000000000000401
  1
45
 50
272.86240522611263
 41
0.7695
  7
FontTableH_0
 72
               5
 11
1198.2865533927327
 21
540.64320565184039
 31
0.0
100
AcDbText
  0
TEXT
  5
347
100
AcDbEntity
  8
0
 62
               7
100
AcDbText
 10
958.5169800789979
 20
663.39840395843703
 30
0.0
 40
20.0
  1
屋根本体
 41
0.7695
  7
FontTableH_0
 72
               5
 11
1038.5169800789979
 21
663.39840395843987
 31
0.0
100
AcDbText
  0
TEXT
  5
348
100
AcDbEntity
  8
0
 62
               7
100
AcDbText
 10
1253.199237596275
 20
37.507677550555059
 30
0.0
 40
15.0
  1
軒先詳細図 【S=1/5】
 41
0.7695
  7
FontTableH_0
 72
               5
 11
1403.199237596275
 21
37.507677550555059
 31
0.0
100
AcDbText
  0
TEXT
  5
349
100
AcDbEntity
  8
0
 62
               7
100
AcDbText
 10
44.254845672550005
 20
995.21046947427999
 30
0.0
 40
15.0
  1
コブラ工法 320G（屋上防水改修）
 41
0.7695
  7
FontTableH_0
 72
               5
 11
276.75484567255
 21
995.21046947427999
 31
0.0
100
AcDbText
  0
ENDSEC
  0
SECTION
  2
OBJECTS
  0
DICTIONARY
  5
19
100
AcDbDictionary
  3
ACAD_GROUP
350
1A
  3
ACAD_MLINESTYLE
350
1B
  3
DWGPROPS
350
34A
  0
DICTIONARY
  5
1A
102
{ACAD_REACTORS
330
19
102
}
100
AcDbDictionary
  0
DICTIONARY
  5
1B
102
{ACAD_REACTORS
330
19
102
}
100
AcDbDictionary
  3
STANDARD
350
1C
  0
MLINESTYLE
  5
1C
102
{ACAD_REACTORS
330
1B
102
}
100
AcDbMlineStyle
  2
Standard
 70
               0
  3

 62
               0
 51
90.0
 52
90.0
 71
               2
 49
0.5
 62
             256
  6
ByLayer
 49
-0.5
 62
             256
  6
ByLayer
  0
XRECORD
  5
34A
100
AcDbXrecord
  1
DWGPROPS COOKIE
  2

  3

  4

  6

  7

  0
ENDSEC
  0
EOF
