  0
SECTION
  2
HEADER
  9
$ACADVER
  1
AC1014
  9
$ACADMAINTVER
 70
               0
  9
$DWGCODEPAGE
  3
ANSI_932
  9
$INSBASE
 10
0.0
 20
0.0
 30
0.0
  9
$EXTMIN
 10
0.0
 20
0.0
 30
0.0
  9
$EXTMAX
 10
1485.0
 20
1050.0
 30
0.0
  9
$LIMMIN
 10
0.0
 20
0.0
  9
$LIMMAX
 10
1485.0
 20
1050.0
  9
$ORTHOMODE
 70
               0
  9
$REGENMODE
 70
               1
  9
$FILLMODE
 70
               1
  9
$QTEXTMODE
 70
               0
  9
$MIRRTEXT
 70
               1
  9
$DRAGMODE
 70
               2
  9
$LTSCALE
 40
5.0
  9
$OSMODE
 70
               0
  9
$ATTMODE
 70
               1
  9
$TEXTSIZE
 40
0.2
  9
$TRACEWID
 40
0.05
  9
$TEXTSTYLE
  7
Standard
  9
$CLAYER
  8
0
  9
$CELTYPE
  6
Continuous
  9
$CECOLOR
 62
             256
  9
$CELTSCALE
 40
1.0
  9
$DELOBJ
 70
               1
  9
$DISPSILH
 70
               0
  9
$DIMSCALE
 40
1.0
  9
$DIMASZ
 40
0.18
  9
$DIMEXO
 40
0.0625
  9
$DIMDLI
 40
0.38
  9
$DIMRND
 40
0.0
  9
$DIMDLE
 40
0.0
  9
$DIMEXE
 40
0.18
  9
$DIMTP
 40
0.0
  9
$DIMTM
 40
0.0
  9
$DIMTXT
 40
0.18
  9
$DIMCEN
 40
0.09
  9
$DIMTSZ
 40
0.0
  9
$DIMTOL
 70
               0
  9
$DIMLIM
 70
               0
  9
$DIMTIH
 70
               1
  9
$DIMTOH
 70
               1
  9
$DIMSE1
 70
               0
  9
$DIMSE2
 70
               0
  9
$DIMTAD
 70
               0
  9
$DIMZIN
 70
               0
  9
$DIMBLK
  1

  9
$DIMASO
 70
               1
  9
$DIMSHO
 70
               1
  9
$DIMPOST
  1

  9
$DIMAPOST
  1

  9
$DIMALT
 70
               0
  9
$DIMALTD
 70
               2
  9
$DIMALTF
 40
25.399999999999999
  9
$DIMLFAC
 40
1.0
  9
$DIMTOFL
 70
               0
  9
$DIMTVP
 40
0.0
  9
$DIMTIX
 70
               0
  9
$DIMSOXD
 70
               0
  9
$DIMSAH
 70
               0
  9
$DIMBLK1
  1

  9
$DIMBLK2
  1

  9
$DIMSTYLE
  2
Standard
  9
$DIMCLRD
 70
               0
  9
$DIMCLRE
 70
               0
  9
$DIMCLRT
 70
               0
  9
$DIMTFAC
 40
1.0
  9
$DIMGAP
 40
0.09
  9
$DIMJUST
 70
               0
  9
$DIMSD1
 70
               0
  9
$DIMSD2
 70
               0
  9
$DIMTOLJ
 70
               1
  9
$DIMTZIN
 70
               0
  9
$DIMALTZ
 70
               0
  9
$DIMALTTZ
 70
               0
  9
$DIMFIT
 70
               3
  9
$DIMUPT
 70
               0
  9
$DIMUNIT
 70
               2
  9
$DIMDEC
 70
               4
  9
$DIMTDEC
 70
               4
  9
$DIMALTU
 70
               2
  9
$DIMALTTD
 70
               2
  9
$DIMTXSTY
  7
Standard
  9
$DIMAUNIT
 70
               0
  9
$LUNITS
 70
               2
  9
$LUPREC
 70
               4
  9
$SKETCHINC
 40
0.1
  9
$FILLETRAD
 40
0.0
  9
$AUNITS
 70
               0
  9
$AUPREC
 70
               0
  9
$MENU
  1
acad
  9
$ELEVATION
 40
0.0
  9
$PELEVATION
 40
0.0
  9
$THICKNESS
 40
0.0
  9
$LIMCHECK
 70
               0
  9
$BLIPMODE
 70
               1
  9
$CHAMFERA
 40
0.0
  9
$CHAMFERB
 40
0.0
  9
$CHAMFERC
 40
0.0
  9
$CHAMFERD
 40
0.0
  9
$SKPOLY
 70
               0
  9
$TDCREATE
 40
0.000000000
  9
$TDUPDATE
 40
0.000000000
  9
$TDINDWG
 40
0.0000000000
  9
$TDUSRTIMER
 40
0.0000000000
  9
$USRTIMER
 70
               1
  9
$ANGBASE
 50
0.0
  9
$ANGDIR
 70
               0
  9
$PDMODE
 70
               0
  9
$PDSIZE
 40
0.0
  9
$PLINEWID
 40
0.0
  9
$COORDS
 70
               0
  9
$SPLFRAME
 70
               0
  9
$SPLINETYPE
 70
               6
  9
$SPLINESEGS
 70
               8
  9
$ATTDIA
 70
               0
  9
$ATTREQ
 70
               1
  9
$HANDLING
 70
               1
  9
$HANDSEED
  5
400
  9
$SURFTAB1
 70
               6
  9
$SURFTAB2
 70
               6
  9
$SURFTYPE
 70
               6
  9
$SURFU
 70
               6
  9
$SURFV
 70
               6
  9
$UCSNAME
  2

  9
$UCSORG
 10
0.0
 20
0.0
 30
0.0
  9
$UCSXDIR
 10
1.0
 20
0.0
 30
0.0
  9
$UCSYDIR
 10
0.0
 20
1.0
 30
0.0
  9
$PUCSNAME
  2

  9
$PUCSORG
 10
0.0
 20
0.0
 30
0.0
  9
$PUCSXDIR
 10
1.0
 20
0.0
 30
0.0
  9
$PUCSYDIR
 10
0.0
 20
1.0
 30
0.0
  9
$USERI1
 70
               0
  9
$USERI2
 70
               0
  9
$USERI3
 70
               0
  9
$USERI4
 70
               0
  9
$USERI5
 70
               0
  9
$USERR1
 40
0.0
  9
$USERR2
 40
0.0
  9
$USERR3
 40
0.0
  9
$USERR4
 40
0.0
  9
$USERR5
 40
0.0
  9
$WORLDVIEW
 70
               1
  9
$SHADEDGE
 70
               3
  9
$SHADEDIF
 70
              70
  9
$TILEMODE
 70
               1
  9
$MAXACTVP
 70
              16
  9
$PINSBASE
 10
0.0
 20
0.0
 30
0.0
  9
$PLIMCHECK
 70
               0
  9
$PEXTMIN
 10
1.0000000000000000E+20
 20
1.0000000000000000E+20
 30
1.0000000000000000E+20
  9
$PEXTMAX
 10
-1.0000000000000000E+20
 20
-1.0000000000000000E+20
 30
-1.0000000000000000E+20
  9
$PLIMMIN
 10
0.0
 20
0.0
  9
$PLIMMAX
 10
12.0
 20
9.0
  9
$UNITMODE
 70
               0
  9
$VISRETAIN
 70
               0
  9
$PLINEGEN
 70
               1
  9
$PSLTSCALE
 70
               0
  9
$TREEDEPTH
 70
            3020
  9
$PICKSTYLE
 70
               1
  9
$CMLSTYLE
  2
Standard
  9
$CMLJUST
 70
               0
  9
$CMLSCALE
 40
1.0
  9
$PROXYGRAPHICS
 70
               0
  9
$MEASUREMENT
 70
               0
  0
ENDSEC
  0
SECTION
  2
CLASSES
  0
CLASS
  1
LWPOLYLINE
  2
AcDbPolyline
  3
"AutoCAD"
 90
        0
280
               0
281
               1
  0
CLASS
  1
IMAGE
  2
AcDbRasterImage
  3
ISM
 90
      127
280
               0
281
               1
  0
CLASS
  1
OLE2FRAME
  2
AcDbOle2Frame
  3
""
 90
        0
280
               0
281
               1
  0
CLASS
  1
HATCH
  2
AcDbHatch
  3
"ACAD_SEDONA"
 90
        0
280
               0
281
               1
  0
CLASS
  1
DICTIONARYVAR
  2
AcDbDictionaryVar
  3
"AutoCAD"
 90
        0
280
               0
281
               0
  0
CLASS
  1
RASTERVARIABLES
  2
AcDbRasterVariables
  3
ISM
 90
        0
280
               0
281
               0
  0
CLASS
  1
IMAGEDEF
  2
AcDbRasterImageDef
  3
ISM
 90
        0
280
               0
281
               0
  0
CLASS
  1
IMAGEDEF_REACTOR
  2
AcDbRasterImageDefReactor
  3
ISM
 90
        1
280
               0
281
               0
  0
CLASS
  1
IDBUFFER
  2
AcDbIdBuffer
  3
"Acad"
 90
        0
280
               0
281
               0
  0
CLASS
  1
SPATIAL_FILTER
  2
AcDbSpatialFilter
  3
"Acad"
 90
        0
280
               0
281
               0
  0
CLASS
  1
XRECORD
  2
AcDbXrecord
  3
"<Built In>"
 90
        0
280
               0
281
               0
  0
CLASS
  1
SORTENTSTABLE
  2
AcDbSortentsTable
  3
"AutoCAD"
 90
        0
280
               0
281
               0
  0
CLASS
  1
LAYER_INDEX
  2
AcDbLayerIndex
  3
"Acad"
 90
        0
280
               0
281
               0
  0
CLASS
  1
SPATIAL_INDEX
  2
AcDbSpatialIndex
  3
"Acad"
 90
        0
280
               0
281
               0
  0
CLASS
  1
OBJECT_PTR
  2
CAseDLPNTableRecord
  3
"ASE-LPNTableRecord"
 90
        1
280
               0
281
               0
  0
CLASS
  1
LAYOUT
  2
AcDbLayout
  3
"AutoCAD 2000"
 90
        0
280
               0
281
               0
  0
CLASS
  1
PLOTSETTINGS
  2
AcDbPlotSettings
  3
"AutoCAD 2000"
 90
        0
280
               0
281
               0
  0
CLASS
  1
ACDBDICTIONARYWDFLT
  2
AcDbDictionaryWithDefault
  3
"AutoCAD 2000"
 90
        0
280
               0
281
               0
  0
CLASS
  1
ACDBPLACEHOLDER
  2
AcDbPlaceHolder
  3
"AutoCAD 2000"
 90
        0
280
               0
281
               0
  0
CLASS
  1
VBA_PROJECT
  2
AcDbVbaProject
  3
"acadvba"
 90
        0
280
               0
281
               0
  0
CLASS
  1
WIPEOUT
  2
AcDbWipeout
  3
WipeOut|AutoCAD Express Tool|expresstools@autodesk.com
 90
      127
280
               0
281
               1
  0
CLASS
  1
WIPEOUTVARIABLES
  2
AcDbWipeoutVariables
  3
WipeOut|AutoCAD Express Tool|expresstools@autodesk.com
 90
        0
280
               0
281
               0
  0
CLASS
  1
RTEXT
  2
RText
  3
RText|AutoCAD Express Tool|expresstools@autodesk.com
 90
        0
280
               0
281
               1
  0
CLASS
  1
ARCALIGNEDTEXT
  2
AcDbArcAlignedText
  3
ATEXT|AutoCAD Express Tool|expresstools@autodesk.com
 90
        0
280
               0
281
               1
  0
ENDSEC
  0
SECTION
  2
TABLES
  0
TABLE
  2
VPORT
  5
7
100
AcDbSymbolTable
 70
               1
  0
VPORT
  5
15
100
AcDbSymbolTableRecord
100
AcDbViewportTableRecord
  2
*ACTIVE
 70
               0
 10
0.0
 20
0.0
 11
1.0
 21
1.0
 12
742.5
 22
525.0
 13
0.0
 23
0.0
 14
10.0
 24
10.0
 15
10.0
 25
10.0
 16
0.0
 26
0.0
 36
1.0
 17
0.0
 27
0.0
 37
0.0
 40
1050.0
 41
1.4142857142857144
 42
50.0
 43
0.0
 44
0.0
 50
0.0
 51
0.0
 71
               0
 72
             100
 73
               1
 74
               1
 75
               0
 76
               0
 77
               0
 78
               0
  0
ENDTAB
  0
TABLE
  2
LTYPE
  5
4
100
AcDbSymbolTable
 70
              24
  0
LTYPE
  5
11
100
AcDbSymbolTableRecord
100
AcDbLinetypeTableRecord
  2
ByBlock
 70
              64
  3

 72
              65
 73
               0
 40
0.0
  0
LTYPE
  5
12
100
AcDbSymbolTableRecord
100
AcDbLinetypeTableRecord
  2
ByLayer
 70
              64
  3

 72
              65
 73
               0
 40
0.0
  0
LTYPE
  5
13
100
AcDbSymbolTableRecord
100
AcDbLinetypeTableRecord
  2
Continuous
 70
              64
  3
Solid line
 72
              65
 73
               0
 40
0.0
  0
LTYPE
  5
1D
100
AcDbSymbolTableRecord
100
AcDbLinetypeTableRecord
  2
DOT
 70
              64
  3
Dot . . . . . . . . . . . . . . . . . . . . . .
 72
              65
 73
               2
 40
6.3499999999999996
 49
0.35
 74
               0
 49
-6.0
 74
               0
  0
LTYPE
  5
1E
100
AcDbSymbolTableRecord
100
AcDbLinetypeTableRecord
  2
DASHED
 70
              64
  3
Dashed __ __ __ __ __ __ __ __ __ __ __ __ __ _
 72
              65
 73
               2
 40
12.699999999999999
 49
6.3499999999999996
 74
               0
 49
-6.3499999999999996
 74
               0
  0
LTYPE
  5
1F
100
AcDbSymbolTableRecord
100
AcDbLinetypeTableRecord
  2
DASHDOT
 70
              64
  3
Dash dot __ . __ . __ . __ . __ . __ . __ . __
 72
              65
 73
               4
 40
25.399999999999999
 49
12.699999999999999
 74
               0
 49
-6.0
 74
               0
 49
0.7
 74
               0
 49
-6.0
 74
               0
  0
LTYPE
  5
20
100
AcDbSymbolTableRecord
100
AcDbLinetypeTableRecord
  2
DIVIDE
 70
              64
  3
Divide ____ . . ____ . . ____ . . ____ . . ____
 72
              65
 73
               6
 40
31.75
 49
12.699999999999999
 74
               0
 49
-6.0
 74
               0
 49
0.875
 74
               0
 49
-6.0
 74
               0
 49
0.875
 74
               0
 49
-6.0
 74
               0
  0
LTYPE
  5
21
100
AcDbSymbolTableRecord
100
AcDbLinetypeTableRecord
  2
HIDDEN
 70
              64
  3
Hidden __ __ __ __ __ __ __ __ __ __ __ __ __ _
 72
              65
 73
               2
 40
9.5250000000000004
 49
6.3499999999999996
 74
               0
 49
-3.1749999999999998
 74
               0
  0
LTYPE
  5
22
100
AcDbSymbolTableRecord
100
AcDbLinetypeTableRecord
  2
CENTER
 70
              64
  3
Center ____ _ ____ _ ____ _ ____ _ ____ _ ____
 72
              65
 73
               4
 40
50.799999999999997
 49
31.75
 74
               0
 49
-6.3499999999999996
 74
               0
 49
6.3499999999999996
 74
               0
 49
-6.3499999999999996
 74
               0
  0
LTYPE
  5
23
100
AcDbSymbolTableRecord
100
AcDbLinetypeTableRecord
  2
PHANTOM
 70
              64
  3
Phantom ______  __  __  ______  __  __  ______
 72
              65
 73
               6
 40
63.5
 49
31.75
 74
               0
 49
-6.3499999999999996
 74
               0
 49
6.3499999999999996
 74
               0
 49
-6.3499999999999996
 74
               0
 49
6.3499999999999996
 74
               0
 49
-6.3499999999999996
 74
               0
  0
LTYPE
  5
24
100
AcDbSymbolTableRecord
100
AcDbLinetypeTableRecord
  2
ACAD_ISO02W100
 70
              64
  3
ISO dash __ __ __ __ __ __ __ __ __ __ __ __ __
 72
              65
 73
               2
 40
15.0
 49
12.0
 74
               0
 49
-3.0
 74
               0
  0
LTYPE
  5
25
100
AcDbSymbolTableRecord
100
AcDbLinetypeTableRecord
  2
ACAD_ISO03W100
 70
              64
  3
ISO dash space __ __ __ __ __ __ __ __ __ __ __ __ __ __
 72
              65
 73
               2
 40
30.0
 49
12.0
 74
               0
 49
-18.0
 74
               0
  0
LTYPE
  5
26
100
AcDbSymbolTableRecord
100
AcDbLinetypeTableRecord
  2
ACAD_ISO04W100
 70
              64
  3
ISO long-dash dot ____ . ____ . ____ . ____ . _
 72
              65
 73
               4
 40
30.0
 49
24.0
 74
               0
 49
-3.0
 74
               0
 49
0.0
 74
               0
 49
-3.0
 74
               0
  0
LTYPE
  5
27
100
AcDbSymbolTableRecord
100
AcDbLinetypeTableRecord
  2
ACAD_ISO05W100
 70
              64
  3
ISO long-dash double-dot ____ .. ____ .. ____ .
 72
              65
 73
               6
 40
33.0
 49
24.0
 74
               0
 49
-3.0
 74
               0
 49
0.0
 74
               0
 49
-3.0
 74
               0
 49
0.0
 74
               0
 49
-3.0
 74
               0
  0
LTYPE
  5
28
100
AcDbSymbolTableRecord
100
AcDbLinetypeTableRecord
  2
ACAD_ISO06W100
 70
              64
  3
ISO long-dash triple-dot ____ ... ____ ... ____
 72
              65
 73
               8
 40
36.0
 49
24.0
 74
               0
 49
-3.0
 74
               0
 49
0.0
 74
               0
 49
-3.0
 74
               0
 49
0.0
 74
               0
 49
-3.0
 74
               0
 49
0.0
 74
               0
 49
-3.0
 74
               0
  0
LTYPE
  5
29
100
AcDbSymbolTableRecord
100
AcDbLinetypeTableRecord
  2
ACAD_ISO07W100
 70
              64
  3
ISO dot . . . . . . . . . . . . . . . . . . . .
 72
              65
 73
               2
 40
3.0
 49
0.0
 74
               0
 49
-3.0
 74
               0
  0
LTYPE
  5
2A
100
AcDbSymbolTableRecord
100
AcDbLinetypeTableRecord
  2
ACAD_ISO08W100
 70
              64
  3
ISO long-dash short-dash ____ __ ____ __ ____ _
 72
              65
 73
               4
 40
36.0
 49
24.0
 74
               0
 49
-3.0
 74
               0
 49
6.0
 74
               0
 49
-3.0
 74
               0
  0
LTYPE
  5
2B
100
AcDbSymbolTableRecord
100
AcDbLinetypeTableRecord
  2
ACAD_ISO09W100
 70
              64
  3
ISO long-dash double-short-dash ____ __ __ ____
 72
              65
 73
               6
 40
45.0
 49
24.0
 74
               0
 49
-3.0
 74
               0
 49
6.0
 74
               0
 49
-3.0
 74
               0
 49
6.0
 74
               0
 49
-3.0
 74
               0
  0
LTYPE
  5
2C
100
AcDbSymbolTableRecord
100
AcDbLinetypeTableRecord
  2
ACAD_ISO10W100
 70
              64
  3
ISO dash dot __ . __ . __ . __ . __ . __ . __ .
 72
              65
 73
               4
 40
18.0
 49
12.0
 74
               0
 49
-3.0
 74
               0
 49
0.0
 74
               0
 49
-3.0
 74
               0
  0
LTYPE
  5
2D
100
AcDbSymbolTableRecord
100
AcDbLinetypeTableRecord
  2
ACAD_ISO11W100
 70
              64
  3
ISO double-dash dot __ __ . __ __ . __ __ . __ 
 72
              65
 73
               6
 40
33.0
 49
12.0
 74
               0
 49
-3.0
 74
               0
 49
12.0
 74
               0
 49
-3.0
 74
               0
 49
0.0
 74
               0
 49
-3.0
 74
               0
  0
LTYPE
  5
2E
100
AcDbSymbolTableRecord
100
AcDbLinetypeTableRecord
  2
ACAD_ISO12W100
 70
              64
  3
ISO dash double-dot __ . . __ . . __ . . __ . .
 72
              65
 73
               6
 40
21.0
 49
12.0
 74
               0
 49
-3.0
 74
               0
 49
0.0
 74
               0
 49
-3.0
 74
               0
 49
0.0
 74
               0
 49
-3.0
 74
               0
  0
LTYPE
  5
2F
100
AcDbSymbolTableRecord
100
AcDbLinetypeTableRecord
  2
ACAD_ISO13W100
 70
              64
  3
ISO double-dash double-dot __ __ . . __ __ . . 
 72
              65
 73
               8
 40
36.0
 49
12.0
 74
               0
 49
-3.0
 74
               0
 49
12.0
 74
               0
 49
-3.0
 74
               0
 49
0.0
 74
               0
 49
-3.0
 74
               0
 49
0.0
 74
               0
 49
-3.0
 74
               0
  0
LTYPE
  5
30
100
AcDbSymbolTableRecord
100
AcDbLinetypeTableRecord
  2
ACAD_ISO14W100
 70
              64
  3
ISO dash triple-dot __ . . . __ . . . __ . . . 
 72
              65
 73
               8
 40
24.0
 49
12.0
 74
               0
 49
-3.0
 74
               0
 49
0.0
 74
               0
 49
-3.0
 74
               0
 49
0.0
 74
               0
 49
-3.0
 74
               0
 49
0.0
 74
               0
 49
-3.0
 74
               0
  0
LTYPE
  5
31
100
AcDbSymbolTableRecord
100
AcDbLinetypeTableRecord
  2
ACAD_ISO15W100
 70
              64
  3
ISO double-dash double-dot __ __ . . __ __ . . 
 72
              65
 73
              10
 40
39.0
 49
12.0
 74
               0
 49
-3.0
 74
               0
 49
12.0
 74
               0
 49
-3.0
 74
               0
 49
0.0
 74
               0
 49
-3.0
 74
               0
 49
0.0
 74
               0
 49
-3.0
 74
               0
 49
0.0
 74
               0
 49
-3.0
 74
               0
  0
ENDTAB
  0
TABLE
  2
LAYER
  5
2
100
AcDbSymbolTable
 70
             256
  0
LAYER
  5
14
100
AcDbSymbolTableRecord
100
AcDbLayerTableRecord
  2
0
 70
               0
 62
               7
  6
Continuous
  0
LAYER
  5
35
100
AcDbSymbolTableRecord
100
AcDbLayerTableRecord
  2
Layer00001
 70
               0
 62
               7
  6
Continuous
  0
LAYER
  5
36
100
AcDbSymbolTableRecord
100
AcDbLayerTableRecord
  2
Layer00002
 70
               0
 62
               7
  6
Continuous
  0
LAYER
  5
37
100
AcDbSymbolTableRecord
100
AcDbLayerTableRecord
  2
Layer00003
 70
               0
 62
               7
  6
Continuous
  0
LAYER
  5
38
100
AcDbSymbolTableRecord
100
AcDbLayerTableRecord
  2
Layer00004
 70
               0
 62
               7
  6
Continuous
  0
LAYER
  5
39
100
AcDbSymbolTableRecord
100
AcDbLayerTableRecord
  2
Layer00005
 70
               0
 62
               7
  6
Continuous
  0
LAYER
  5
3A
100
AcDbSymbolTableRecord
100
AcDbLayerTableRecord
  2
Layer00006
 70
               0
 62
               7
  6
Continuous
  0
LAYER
  5
3B
100
AcDbSymbolTableRecord
100
AcDbLayerTableRecord
  2
Layer00007
 70
               0
 62
               7
  6
Continuous
  0
LAYER
  5
3C
100
AcDbSymbolTableRecord
100
AcDbLayerTableRecord
  2
Layer00008
 70
               0
 62
               7
  6
Continuous
  0
LAYER
  5
3D
100
AcDbSymbolTableRecord
100
AcDbLayerTableRecord
  2
Layer00009
 70
               0
 62
               7
  6
Continuous
  0
LAYER
  5
3E
100
AcDbSymbolTableRecord
100
AcDbLayerTableRecord
  2
Layer00010
 70
               0
 62
               7
  6
Continuous
  0
LAYER
  5
3F
100
AcDbSymbolTableRecord
100
AcDbLayerTableRecord
  2
Layer00011
 70
               0
 62
               7
  6
Continuous
  0
LAYER
  5
40
100
AcDbSymbolTableRecord
100
AcDbLayerTableRecord
  2
Layer00012
 70
               0
 62
               7
  6
Continuous
  0
LAYER
  5
41
100
AcDbSymbolTableRecord
100
AcDbLayerTableRecord
  2
Layer00013
 70
               0
 62
               7
  6
Continuous
  0
LAYER
  5
42
100
AcDbSymbolTableRecord
100
AcDbLayerTableRecord
  2
Layer00014
 70
               0
 62
               7
  6
Continuous
  0
LAYER
  5
43
100
AcDbSymbolTableRecord
100
AcDbLayerTableRecord
  2
Layer00015
 70
               0
 62
               7
  6
Continuous
  0
LAYER
  5
44
100
AcDbSymbolTableRecord
100
AcDbLayerTableRecord
  2
Layer00016
 70
               0
 62
               7
  6
Continuous
  0
LAYER
  5
45
100
AcDbSymbolTableRecord
100
AcDbLayerTableRecord
  2
Layer00017
 70
               0
 62
               7
  6
Continuous
  0
LAYER
  5
46
100
AcDbSymbolTableRecord
100
AcDbLayerTableRecord
  2
Layer00018
 70
               0
 62
               7
  6
Continuous
  0
LAYER
  5
47
100
AcDbSymbolTableRecord
100
AcDbLayerTableRecord
  2
Layer00019
 70
               0
 62
               7
  6
Continuous
  0
LAYER
  5
48
100
AcDbSymbolTableRecord
100
AcDbLayerTableRecord
  2
Layer00020
 70
               0
 62
               7
  6
Continuous
  0
LAYER
  5
49
100
AcDbSymbolTableRecord
100
AcDbLayerTableRecord
  2
Layer00021
 70
               0
 62
               7
  6
Continuous
  0
LAYER
  5
4A
100
AcDbSymbolTableRecord
100
AcDbLayerTableRecord
  2
Layer00022
 70
               0
 62
               7
  6
Continuous
  0
LAYER
  5
4B
100
AcDbSymbolTableRecord
100
AcDbLayerTableRecord
  2
Layer00023
 70
               0
 62
               7
  6
Continuous
  0
LAYER
  5
4C
100
AcDbSymbolTableRecord
100
AcDbLayerTableRecord
  2
Layer00024
 70
               0
 62
               7
  6
Continuous
  0
LAYER
  5
4D
100
AcDbSymbolTableRecord
100
AcDbLayerTableRecord
  2
Layer00025
 70
               0
 62
               7
  6
Continuous
  0
LAYER
  5
4E
100
AcDbSymbolTableRecord
100
AcDbLayerTableRecord
  2
Layer00026
 70
               0
 62
               7
  6
Continuous
  0
LAYER
  5
4F
100
AcDbSymbolTableRecord
100
AcDbLayerTableRecord
  2
Layer00027
 70
               0
 62
               7
  6
Continuous
  0
LAYER
  5
50
100
AcDbSymbolTableRecord
100
AcDbLayerTableRecord
  2
Layer00028
 70
               0
 62
               7
  6
Continuous
  0
LAYER
  5
51
100
AcDbSymbolTableRecord
100
AcDbLayerTableRecord
  2
Layer00029
 70
               0
 62
               7
  6
Continuous
  0
LAYER
  5
52
100
AcDbSymbolTableRecord
100
AcDbLayerTableRecord
  2
Layer00030
 70
               0
 62
               7
  6
Continuous
  0
LAYER
  5
53
100
AcDbSymbolTableRecord
100
AcDbLayerTableRecord
  2
Layer00031
 70
               0
 62
               7
  6
Continuous
  0
LAYER
  5
54
100
AcDbSymbolTableRecord
100
AcDbLayerTableRecord
  2
Layer00032
 70
               0
 62
               7
  6
Continuous
  0
LAYER
  5
55
100
AcDbSymbolTableRecord
100
AcDbLayerTableRecord
  2
Layer00033
 70
               0
 62
               7
  6
Continuous
  0
LAYER
  5
56
100
AcDbSymbolTableRecord
100
AcDbLayerTableRecord
  2
Layer00034
 70
               0
 62
               7
  6
Continuous
  0
LAYER
  5
57
100
AcDbSymbolTableRecord
100
AcDbLayerTableRecord
  2
Layer00035
 70
               0
 62
               7
  6
Continuous
  0
LAYER
  5
58
100
AcDbSymbolTableRecord
100
AcDbLayerTableRecord
  2
Layer00036
 70
               0
 62
               7
  6
Continuous
  0
LAYER
  5
59
100
AcDbSymbolTableRecord
100
AcDbLayerTableRecord
  2
Layer00037
 70
               0
 62
               7
  6
Continuous
  0
LAYER
  5
5A
100
AcDbSymbolTableRecord
100
AcDbLayerTableRecord
  2
Layer00038
 70
               0
 62
               7
  6
Continuous
  0
LAYER
  5
5B
100
AcDbSymbolTableRecord
100
AcDbLayerTableRecord
  2
Layer00039
 70
               0
 62
               7
  6
Continuous
  0
LAYER
  5
5C
100
AcDbSymbolTableRecord
100
AcDbLayerTableRecord
  2
Layer00040
 70
               0
 62
               7
  6
Continuous
  0
LAYER
  5
5D
100
AcDbSymbolTableRecord
100
AcDbLayerTableRecord
  2
Layer00041
 70
               0
 62
               7
  6
Continuous
  0
LAYER
  5
5E
100
AcDbSymbolTableRecord
100
AcDbLayerTableRecord
  2
Layer00042
 70
               0
 62
               7
  6
Continuous
  0
LAYER
  5
5F
100
AcDbSymbolTableRecord
100
AcDbLayerTableRecord
  2
Layer00043
 70
               0
 62
               7
  6
Continuous
  0
LAYER
  5
60
100
AcDbSymbolTableRecord
100
AcDbLayerTableRecord
  2
Layer00044
 70
               0
 62
               7
  6
Continuous
  0
LAYER
  5
61
100
AcDbSymbolTableRecord
100
AcDbLayerTableRecord
  2
Layer00045
 70
               0
 62
               7
  6
Continuous
  0
LAYER
  5
62
100
AcDbSymbolTableRecord
100
AcDbLayerTableRecord
  2
Layer00046
 70
               0
 62
               7
  6
Continuous
  0
LAYER
  5
63
100
AcDbSymbolTableRecord
100
AcDbLayerTableRecord
  2
Layer00047
 70
               0
 62
               7
  6
Continuous
  0
LAYER
  5
64
100
AcDbSymbolTableRecord
100
AcDbLayerTableRecord
  2
Layer00048
 70
               0
 62
               7
  6
Continuous
  0
LAYER
  5
65
100
AcDbSymbolTableRecord
100
AcDbLayerTableRecord
  2
Layer00049
 70
               0
 62
               7
  6
Continuous
  0
LAYER
  5
66
100
AcDbSymbolTableRecord
100
AcDbLayerTableRecord
  2
Layer00050
 70
               0
 62
               7
  6
Continuous
  0
LAYER
  5
67
100
AcDbSymbolTableRecord
100
AcDbLayerTableRecord
  2
Layer00051
 70
               0
 62
               7
  6
Continuous
  0
LAYER
  5
68
100
AcDbSymbolTableRecord
100
AcDbLayerTableRecord
  2
Layer00052
 70
               0
 62
               7
  6
Continuous
  0
LAYER
  5
69
100
AcDbSymbolTableRecord
100
AcDbLayerTableRecord
  2
Layer00053
 70
               0
 62
               7
  6
Continuous
  0
LAYER
  5
6A
100
AcDbSymbolTableRecord
100
AcDbLayerTableRecord
  2
Layer00054
 70
               0
 62
               7
  6
Continuous
  0
LAYER
  5
6B
100
AcDbSymbolTableRecord
100
AcDbLayerTableRecord
  2
Layer00055
 70
               0
 62
               7
  6
Continuous
  0
LAYER
  5
6C
100
AcDbSymbolTableRecord
100
AcDbLayerTableRecord
  2
Layer00056
 70
               0
 62
               7
  6
Continuous
  0
LAYER
  5
6D
100
AcDbSymbolTableRecord
100
AcDbLayerTableRecord
  2
Layer00057
 70
               0
 62
               7
  6
Continuous
  0
LAYER
  5
6E
100
AcDbSymbolTableRecord
100
AcDbLayerTableRecord
  2
Layer00058
 70
               0
 62
               7
  6
Continuous
  0
LAYER
  5
6F
100
AcDbSymbolTableRecord
100
AcDbLayerTableRecord
  2
Layer00059
 70
               0
 62
               7
  6
Continuous
  0
LAYER
  5
70
100
AcDbSymbolTableRecord
100
AcDbLayerTableRecord
  2
Layer00060
 70
               0
 62
               7
  6
Continuous
  0
LAYER
  5
71
100
AcDbSymbolTableRecord
100
AcDbLayerTableRecord
  2
Layer00061
 70
               0
 62
               7
  6
Continuous
  0
LAYER
  5
72
100
AcDbSymbolTableRecord
100
AcDbLayerTableRecord
  2
Layer00062
 70
               0
 62
               7
  6
Continuous
  0
LAYER
  5
73
100
AcDbSymbolTableRecord
100
AcDbLayerTableRecord
  2
Layer00063
 70
               0
 62
               7
  6
Continuous
  0
LAYER
  5
74
100
AcDbSymbolTableRecord
100
AcDbLayerTableRecord
  2
Layer00064
 70
               0
 62
               7
  6
Continuous
  0
LAYER
  5
75
100
AcDbSymbolTableRecord
100
AcDbLayerTableRecord
  2
Layer00065
 70
               0
 62
               7
  6
Continuous
  0
LAYER
  5
76
100
AcDbSymbolTableRecord
100
AcDbLayerTableRecord
  2
Layer00066
 70
               0
 62
               7
  6
Continuous
  0
LAYER
  5
77
100
AcDbSymbolTableRecord
100
AcDbLayerTableRecord
  2
Layer00067
 70
               0
 62
               7
  6
Continuous
  0
LAYER
  5
78
100
AcDbSymbolTableRecord
100
AcDbLayerTableRecord
  2
Layer00068
 70
               0
 62
               7
  6
Continuous
  0
LAYER
  5
79
100
AcDbSymbolTableRecord
100
AcDbLayerTableRecord
  2
Layer00069
 70
               0
 62
               7
  6
Continuous
  0
LAYER
  5
7A
100
AcDbSymbolTableRecord
100
AcDbLayerTableRecord
  2
Layer00070
 70
               0
 62
               7
  6
Continuous
  0
LAYER
  5
7B
100
AcDbSymbolTableRecord
100
AcDbLayerTableRecord
  2
Layer00071
 70
               0
 62
               7
  6
Continuous
  0
LAYER
  5
7C
100
AcDbSymbolTableRecord
100
AcDbLayerTableRecord
  2
Layer00072
 70
               0
 62
               7
  6
Continuous
  0
LAYER
  5
7D
100
AcDbSymbolTableRecord
100
AcDbLayerTableRecord
  2
Layer00073
 70
               0
 62
               7
  6
Continuous
  0
LAYER
  5
7E
100
AcDbSymbolTableRecord
100
AcDbLayerTableRecord
  2
Layer00074
 70
               0
 62
               7
  6
Continuous
  0
LAYER
  5
7F
100
AcDbSymbolTableRecord
100
AcDbLayerTableRecord
  2
Layer00075
 70
               0
 62
               7
  6
Continuous
  0
LAYER
  5
80
100
AcDbSymbolTableRecord
100
AcDbLayerTableRecord
  2
Layer00076
 70
               0
 62
               7
  6
Continuous
  0
LAYER
  5
81
100
AcDbSymbolTableRecord
100
AcDbLayerTableRecord
  2
Layer00077
 70
               0
 62
               7
  6
Continuous
  0
LAYER
  5
82
100
AcDbSymbolTableRecord
100
AcDbLayerTableRecord
  2
Layer00078
 70
               0
 62
               7
  6
Continuous
  0
LAYER
  5
83
100
AcDbSymbolTableRecord
100
AcDbLayerTableRecord
  2
Layer00079
 70
               0
 62
               7
  6
Continuous
  0
LAYER
  5
84
100
AcDbSymbolTableRecord
100
AcDbLayerTableRecord
  2
Layer00080
 70
               0
 62
               7
  6
Continuous
  0
LAYER
  5
85
100
AcDbSymbolTableRecord
100
AcDbLayerTableRecord
  2
Layer00081
 70
               0
 62
               7
  6
Continuous
  0
LAYER
  5
86
100
AcDbSymbolTableRecord
100
AcDbLayerTableRecord
  2
Layer00082
 70
               0
 62
               7
  6
Continuous
  0
LAYER
  5
87
100
AcDbSymbolTableRecord
100
AcDbLayerTableRecord
  2
Layer00083
 70
               0
 62
               7
  6
Continuous
  0
LAYER
  5
88
100
AcDbSymbolTableRecord
100
AcDbLayerTableRecord
  2
Layer00084
 70
               0
 62
               7
  6
Continuous
  0
LAYER
  5
89
100
AcDbSymbolTableRecord
100
AcDbLayerTableRecord
  2
Layer00085
 70
               0
 62
               7
  6
Continuous
  0
LAYER
  5
8A
100
AcDbSymbolTableRecord
100
AcDbLayerTableRecord
  2
Layer00086
 70
               0
 62
               7
  6
Continuous
  0
LAYER
  5
8B
100
AcDbSymbolTableRecord
100
AcDbLayerTableRecord
  2
Layer00087
 70
               0
 62
               7
  6
Continuous
  0
LAYER
  5
8C
100
AcDbSymbolTableRecord
100
AcDbLayerTableRecord
  2
Layer00088
 70
               0
 62
               7
  6
Continuous
  0
LAYER
  5
8D
100
AcDbSymbolTableRecord
100
AcDbLayerTableRecord
  2
Layer00089
 70
               0
 62
               7
  6
Continuous
  0
LAYER
  5
8E
100
AcDbSymbolTableRecord
100
AcDbLayerTableRecord
  2
Layer00090
 70
               0
 62
               7
  6
Continuous
  0
LAYER
  5
8F
100
AcDbSymbolTableRecord
100
AcDbLayerTableRecord
  2
Layer00091
 70
               0
 62
               7
  6
Continuous
  0
LAYER
  5
90
100
AcDbSymbolTableRecord
100
AcDbLayerTableRecord
  2
Layer00092
 70
               0
 62
               7
  6
Continuous
  0
LAYER
  5
91
100
AcDbSymbolTableRecord
100
AcDbLayerTableRecord
  2
Layer00093
 70
               0
 62
               7
  6
Continuous
  0
LAYER
  5
92
100
AcDbSymbolTableRecord
100
AcDbLayerTableRecord
  2
Layer00094
 70
               0
 62
               7
  6
Continuous
  0
LAYER
  5
93
100
AcDbSymbolTableRecord
100
AcDbLayerTableRecord
  2
Layer00095
 70
               0
 62
               7
  6
Continuous
  0
LAYER
  5
94
100
AcDbSymbolTableRecord
100
AcDbLayerTableRecord
  2
Layer00096
 70
               0
 62
               7
  6
Continuous
  0
LAYER
  5
95
100
AcDbSymbolTableRecord
100
AcDbLayerTableRecord
  2
Layer00097
 70
               0
 62
               7
  6
Continuous
  0
LAYER
  5
96
100
AcDbSymbolTableRecord
100
AcDbLayerTableRecord
  2
Layer00098
 70
               0
 62
               7
  6
Continuous
  0
LAYER
  5
97
100
AcDbSymbolTableRecord
100
AcDbLayerTableRecord
  2
Layer00099
 70
               0
 62
               7
  6
Continuous
  0
LAYER
  5
98
100
AcDbSymbolTableRecord
100
AcDbLayerTableRecord
  2
Layer00100
 70
               0
 62
               7
  6
Continuous
  0
LAYER
  5
99
100
AcDbSymbolTableRecord
100
AcDbLayerTableRecord
  2
Layer00101
 70
               0
 62
               7
  6
Continuous
  0
LAYER
  5
9A
100
AcDbSymbolTableRecord
100
AcDbLayerTableRecord
  2
Layer00102
 70
               0
 62
               7
  6
Continuous
  0
LAYER
  5
9B
100
AcDbSymbolTableRecord
100
AcDbLayerTableRecord
  2
Layer00103
 70
               0
 62
               7
  6
Continuous
  0
LAYER
  5
9C
100
AcDbSymbolTableRecord
100
AcDbLayerTableRecord
  2
Layer00104
 70
               0
 62
               7
  6
Continuous
  0
LAYER
  5
9D
100
AcDbSymbolTableRecord
100
AcDbLayerTableRecord
  2
Layer00105
 70
               0
 62
               7
  6
Continuous
  0
LAYER
  5
9E
100
AcDbSymbolTableRecord
100
AcDbLayerTableRecord
  2
Layer00106
 70
               0
 62
               7
  6
Continuous
  0
LAYER
  5
9F
100
AcDbSymbolTableRecord
100
AcDbLayerTableRecord
  2
Layer00107
 70
               0
 62
               7
  6
Continuous
  0
LAYER
  5
A0
100
AcDbSymbolTableRecord
100
AcDbLayerTableRecord
  2
Layer00108
 70
               0
 62
               7
  6
Continuous
  0
LAYER
  5
A1
100
AcDbSymbolTableRecord
100
AcDbLayerTableRecord
  2
Layer00109
 70
               0
 62
               7
  6
Continuous
  0
LAYER
  5
A2
100
AcDbSymbolTableRecord
100
AcDbLayerTableRecord
  2
Layer00110
 70
               0
 62
               7
  6
Continuous
  0
LAYER
  5
A3
100
AcDbSymbolTableRecord
100
AcDbLayerTableRecord
  2
Layer00111
 70
               0
 62
               7
  6
Continuous
  0
LAYER
  5
A4
100
AcDbSymbolTableRecord
100
AcDbLayerTableRecord
  2
Layer00112
 70
               0
 62
               7
  6
Continuous
  0
LAYER
  5
A5
100
AcDbSymbolTableRecord
100
AcDbLayerTableRecord
  2
Layer00113
 70
               0
 62
               7
  6
Continuous
  0
LAYER
  5
A6
100
AcDbSymbolTableRecord
100
AcDbLayerTableRecord
  2
Layer00114
 70
               0
 62
               7
  6
Continuous
  0
LAYER
  5
A7
100
AcDbSymbolTableRecord
100
AcDbLayerTableRecord
  2
Layer00115
 70
               0
 62
               7
  6
Continuous
  0
LAYER
  5
A8
100
AcDbSymbolTableRecord
100
AcDbLayerTableRecord
  2
Layer00116
 70
               0
 62
               7
  6
Continuous
  0
LAYER
  5
A9
100
AcDbSymbolTableRecord
100
AcDbLayerTableRecord
  2
Layer00117
 70
               0
 62
               7
  6
Continuous
  0
LAYER
  5
AA
100
AcDbSymbolTableRecord
100
AcDbLayerTableRecord
  2
Layer00118
 70
               0
 62
               7
  6
Continuous
  0
LAYER
  5
AB
100
AcDbSymbolTableRecord
100
AcDbLayerTableRecord
  2
Layer00119
 70
               0
 62
               7
  6
Continuous
  0
LAYER
  5
AC
100
AcDbSymbolTableRecord
100
AcDbLayerTableRecord
  2
Layer00120
 70
               0
 62
               7
  6
Continuous
  0
LAYER
  5
AD
100
AcDbSymbolTableRecord
100
AcDbLayerTableRecord
  2
Layer00121
 70
               0
 62
               7
  6
Continuous
  0
LAYER
  5
AE
100
AcDbSymbolTableRecord
100
AcDbLayerTableRecord
  2
Layer00122
 70
               0
 62
               7
  6
Continuous
  0
LAYER
  5
AF
100
AcDbSymbolTableRecord
100
AcDbLayerTableRecord
  2
Layer00123
 70
               0
 62
               7
  6
Continuous
  0
LAYER
  5
B0
100
AcDbSymbolTableRecord
100
AcDbLayerTableRecord
  2
Layer00124
 70
               0
 62
               7
  6
Continuous
  0
LAYER
  5
B1
100
AcDbSymbolTableRecord
100
AcDbLayerTableRecord
  2
Layer00125
 70
               0
 62
               7
  6
Continuous
  0
LAYER
  5
B2
100
AcDbSymbolTableRecord
100
AcDbLayerTableRecord
  2
Layer00126
 70
               0
 62
               7
  6
Continuous
  0
LAYER
  5
B3
100
AcDbSymbolTableRecord
100
AcDbLayerTableRecord
  2
Layer00127
 70
               0
 62
               7
  6
Continuous
  0
LAYER
  5
B4
100
AcDbSymbolTableRecord
100
AcDbLayerTableRecord
  2
Layer00128
 70
               0
 62
               7
  6
Continuous
  0
LAYER
  5
B5
100
AcDbSymbolTableRecord
100
AcDbLayerTableRecord
  2
Layer00129
 70
               0
 62
               7
  6
Continuous
  0
LAYER
  5
B6
100
AcDbSymbolTableRecord
100
AcDbLayerTableRecord
  2
Layer00130
 70
               0
 62
               7
  6
Continuous
  0
LAYER
  5
B7
100
AcDbSymbolTableRecord
100
AcDbLayerTableRecord
  2
Layer00131
 70
               0
 62
               7
  6
Continuous
  0
LAYER
  5
B8
100
AcDbSymbolTableRecord
100
AcDbLayerTableRecord
  2
Layer00132
 70
               0
 62
               7
  6
Continuous
  0
LAYER
  5
B9
100
AcDbSymbolTableRecord
100
AcDbLayerTableRecord
  2
Layer00133
 70
               0
 62
               7
  6
Continuous
  0
LAYER
  5
BA
100
AcDbSymbolTableRecord
100
AcDbLayerTableRecord
  2
Layer00134
 70
               0
 62
               7
  6
Continuous
  0
LAYER
  5
BB
100
AcDbSymbolTableRecord
100
AcDbLayerTableRecord
  2
Layer00135
 70
               0
 62
               7
  6
Continuous
  0
LAYER
  5
BC
100
AcDbSymbolTableRecord
100
AcDbLayerTableRecord
  2
Layer00136
 70
               0
 62
               7
  6
Continuous
  0
LAYER
  5
BD
100
AcDbSymbolTableRecord
100
AcDbLayerTableRecord
  2
Layer00137
 70
               0
 62
               7
  6
Continuous
  0
LAYER
  5
BE
100
AcDbSymbolTableRecord
100
AcDbLayerTableRecord
  2
Layer00138
 70
               0
 62
               7
  6
Continuous
  0
LAYER
  5
BF
100
AcDbSymbolTableRecord
100
AcDbLayerTableRecord
  2
Layer00139
 70
               0
 62
               7
  6
Continuous
  0
LAYER
  5
C0
100
AcDbSymbolTableRecord
100
AcDbLayerTableRecord
  2
Layer00140
 70
               0
 62
               7
  6
Continuous
  0
LAYER
  5
C1
100
AcDbSymbolTableRecord
100
AcDbLayerTableRecord
  2
Layer00141
 70
               0
 62
               7
  6
Continuous
  0
LAYER
  5
C2
100
AcDbSymbolTableRecord
100
AcDbLayerTableRecord
  2
Layer00142
 70
               0
 62
               7
  6
Continuous
  0
LAYER
  5
C3
100
AcDbSymbolTableRecord
100
AcDbLayerTableRecord
  2
Layer00143
 70
               0
 62
               7
  6
Continuous
  0
LAYER
  5
C4
100
AcDbSymbolTableRecord
100
AcDbLayerTableRecord
  2
Layer00144
 70
               0
 62
               7
  6
Continuous
  0
LAYER
  5
C5
100
AcDbSymbolTableRecord
100
AcDbLayerTableRecord
  2
Layer00145
 70
               0
 62
               7
  6
Continuous
  0
LAYER
  5
C6
100
AcDbSymbolTableRecord
100
AcDbLayerTableRecord
  2
Layer00146
 70
               0
 62
               7
  6
Continuous
  0
LAYER
  5
C7
100
AcDbSymbolTableRecord
100
AcDbLayerTableRecord
  2
Layer00147
 70
               0
 62
               7
  6
Continuous
  0
LAYER
  5
C8
100
AcDbSymbolTableRecord
100
AcDbLayerTableRecord
  2
Layer00148
 70
               0
 62
               7
  6
Continuous
  0
LAYER
  5
C9
100
AcDbSymbolTableRecord
100
AcDbLayerTableRecord
  2
Layer00149
 70
               0
 62
               7
  6
Continuous
  0
LAYER
  5
CA
100
AcDbSymbolTableRecord
100
AcDbLayerTableRecord
  2
Layer00150
 70
               0
 62
               7
  6
Continuous
  0
LAYER
  5
CB
100
AcDbSymbolTableRecord
100
AcDbLayerTableRecord
  2
Layer00151
 70
               0
 62
               7
  6
Continuous
  0
LAYER
  5
CC
100
AcDbSymbolTableRecord
100
AcDbLayerTableRecord
  2
Layer00152
 70
               0
 62
               7
  6
Continuous
  0
LAYER
  5
CD
100
AcDbSymbolTableRecord
100
AcDbLayerTableRecord
  2
Layer00153
 70
               0
 62
               7
  6
Continuous
  0
LAYER
  5
CE
100
AcDbSymbolTableRecord
100
AcDbLayerTableRecord
  2
Layer00154
 70
               0
 62
               7
  6
Continuous
  0
LAYER
  5
CF
100
AcDbSymbolTableRecord
100
AcDbLayerTableRecord
  2
Layer00155
 70
               0
 62
               7
  6
Continuous
  0
LAYER
  5
D0
100
AcDbSymbolTableRecord
100
AcDbLayerTableRecord
  2
Layer00156
 70
               0
 62
               7
  6
Continuous
  0
LAYER
  5
D1
100
AcDbSymbolTableRecord
100
AcDbLayerTableRecord
  2
Layer00157
 70
               0
 62
               7
  6
Continuous
  0
LAYER
  5
D2
100
AcDbSymbolTableRecord
100
AcDbLayerTableRecord
  2
Layer00158
 70
               0
 62
               7
  6
Continuous
  0
LAYER
  5
D3
100
AcDbSymbolTableRecord
100
AcDbLayerTableRecord
  2
Layer00159
 70
               0
 62
               7
  6
Continuous
  0
LAYER
  5
D4
100
AcDbSymbolTableRecord
100
AcDbLayerTableRecord
  2
Layer00160
 70
               0
 62
               7
  6
Continuous
  0
LAYER
  5
D5
100
AcDbSymbolTableRecord
100
AcDbLayerTableRecord
  2
Layer00161
 70
               0
 62
               7
  6
Continuous
  0
LAYER
  5
D6
100
AcDbSymbolTableRecord
100
AcDbLayerTableRecord
  2
Layer00162
 70
               0
 62
               7
  6
Continuous
  0
LAYER
  5
D7
100
AcDbSymbolTableRecord
100
AcDbLayerTableRecord
  2
Layer00163
 70
               0
 62
               7
  6
Continuous
  0
LAYER
  5
D8
100
AcDbSymbolTableRecord
100
AcDbLayerTableRecord
  2
Layer00164
 70
               0
 62
               7
  6
Continuous
  0
LAYER
  5
D9
100
AcDbSymbolTableRecord
100
AcDbLayerTableRecord
  2
Layer00165
 70
               0
 62
               7
  6
Continuous
  0
LAYER
  5
DA
100
AcDbSymbolTableRecord
100
AcDbLayerTableRecord
  2
Layer00166
 70
               0
 62
               7
  6
Continuous
  0
LAYER
  5
DB
100
AcDbSymbolTableRecord
100
AcDbLayerTableRecord
  2
Layer00167
 70
               0
 62
               7
  6
Continuous
  0
LAYER
  5
DC
100
AcDbSymbolTableRecord
100
AcDbLayerTableRecord
  2
Layer00168
 70
               0
 62
               7
  6
Continuous
  0
LAYER
  5
DD
100
AcDbSymbolTableRecord
100
AcDbLayerTableRecord
  2
Layer00169
 70
               0
 62
               7
  6
Continuous
  0
LAYER
  5
DE
100
AcDbSymbolTableRecord
100
AcDbLayerTableRecord
  2
Layer00170
 70
               0
 62
               7
  6
Continuous
  0
LAYER
  5
DF
100
AcDbSymbolTableRecord
100
AcDbLayerTableRecord
  2
Layer00171
 70
               0
 62
               7
  6
Continuous
  0
LAYER
  5
E0
100
AcDbSymbolTableRecord
100
AcDbLayerTableRecord
  2
Layer00172
 70
               0
 62
               7
  6
Continuous
  0
LAYER
  5
E1
100
AcDbSymbolTableRecord
100
AcDbLayerTableRecord
  2
Layer00173
 70
               0
 62
               7
  6
Continuous
  0
LAYER
  5
E2
100
AcDbSymbolTableRecord
100
AcDbLayerTableRecord
  2
Layer00174
 70
               0
 62
               7
  6
Continuous
  0
LAYER
  5
E3
100
AcDbSymbolTableRecord
100
AcDbLayerTableRecord
  2
Layer00175
 70
               0
 62
               7
  6
Continuous
  0
LAYER
  5
E4
100
AcDbSymbolTableRecord
100
AcDbLayerTableRecord
  2
Layer00176
 70
               0
 62
               7
  6
Continuous
  0
LAYER
  5
E5
100
AcDbSymbolTableRecord
100
AcDbLayerTableRecord
  2
Layer00177
 70
               0
 62
               7
  6
Continuous
  0
LAYER
  5
E6
100
AcDbSymbolTableRecord
100
AcDbLayerTableRecord
  2
Layer00178
 70
               0
 62
               7
  6
Continuous
  0
LAYER
  5
E7
100
AcDbSymbolTableRecord
100
AcDbLayerTableRecord
  2
Layer00179
 70
               0
 62
               7
  6
Continuous
  0
LAYER
  5
E8
100
AcDbSymbolTableRecord
100
AcDbLayerTableRecord
  2
Layer00180
 70
               0
 62
               7
  6
Continuous
  0
LAYER
  5
E9
100
AcDbSymbolTableRecord
100
AcDbLayerTableRecord
  2
Layer00181
 70
               0
 62
               7
  6
Continuous
  0
LAYER
  5
EA
100
AcDbSymbolTableRecord
100
AcDbLayerTableRecord
  2
Layer00182
 70
               0
 62
               7
  6
Continuous
  0
LAYER
  5
EB
100
AcDbSymbolTableRecord
100
AcDbLayerTableRecord
  2
Layer00183
 70
               0
 62
               7
  6
Continuous
  0
LAYER
  5
EC
100
AcDbSymbolTableRecord
100
AcDbLayerTableRecord
  2
Layer00184
 70
               0
 62
               7
  6
Continuous
  0
LAYER
  5
ED
100
AcDbSymbolTableRecord
100
AcDbLayerTableRecord
  2
Layer00185
 70
               0
 62
               7
  6
Continuous
  0
LAYER
  5
EE
100
AcDbSymbolTableRecord
100
AcDbLayerTableRecord
  2
Layer00186
 70
               0
 62
               7
  6
Continuous
  0
LAYER
  5
EF
100
AcDbSymbolTableRecord
100
AcDbLayerTableRecord
  2
Layer00187
 70
               0
 62
               7
  6
Continuous
  0
LAYER
  5
F0
100
AcDbSymbolTableRecord
100
AcDbLayerTableRecord
  2
Layer00188
 70
               0
 62
               7
  6
Continuous
  0
LAYER
  5
F1
100
AcDbSymbolTableRecord
100
AcDbLayerTableRecord
  2
Layer00189
 70
               0
 62
               7
  6
Continuous
  0
LAYER
  5
F2
100
AcDbSymbolTableRecord
100
AcDbLayerTableRecord
  2
Layer00190
 70
               0
 62
               7
  6
Continuous
  0
LAYER
  5
F3
100
AcDbSymbolTableRecord
100
AcDbLayerTableRecord
  2
Layer00191
 70
               0
 62
               7
  6
Continuous
  0
LAYER
  5
F4
100
AcDbSymbolTableRecord
100
AcDbLayerTableRecord
  2
Layer00192
 70
               0
 62
               7
  6
Continuous
  0
LAYER
  5
F5
100
AcDbSymbolTableRecord
100
AcDbLayerTableRecord
  2
Layer00193
 70
               0
 62
               7
  6
Continuous
  0
LAYER
  5
F6
100
AcDbSymbolTableRecord
100
AcDbLayerTableRecord
  2
Layer00194
 70
               0
 62
               7
  6
Continuous
  0
LAYER
  5
F7
100
AcDbSymbolTableRecord
100
AcDbLayerTableRecord
  2
Layer00195
 70
               0
 62
               7
  6
Continuous
  0
LAYER
  5
F8
100
AcDbSymbolTableRecord
100
AcDbLayerTableRecord
  2
Layer00196
 70
               0
 62
               7
  6
Continuous
  0
LAYER
  5
F9
100
AcDbSymbolTableRecord
100
AcDbLayerTableRecord
  2
Layer00197
 70
               0
 62
               7
  6
Continuous
  0
LAYER
  5
FA
100
AcDbSymbolTableRecord
100
AcDbLayerTableRecord
  2
Layer00198
 70
               0
 62
               7
  6
Continuous
  0
LAYER
  5
FB
100
AcDbSymbolTableRecord
100
AcDbLayerTableRecord
  2
Layer00199
 70
               0
 62
               7
  6
Continuous
  0
LAYER
  5
FC
100
AcDbSymbolTableRecord
100
AcDbLayerTableRecord
  2
Layer00200
 70
               0
 62
               7
  6
Continuous
  0
LAYER
  5
FD
100
AcDbSymbolTableRecord
100
AcDbLayerTableRecord
  2
Layer00201
 70
               0
 62
               7
  6
Continuous
  0
LAYER
  5
FE
100
AcDbSymbolTableRecord
100
AcDbLayerTableRecord
  2
Layer00202
 70
               0
 62
               7
  6
Continuous
  0
LAYER
  5
FF
100
AcDbSymbolTableRecord
100
AcDbLayerTableRecord
  2
Layer00203
 70
               0
 62
               7
  6
Continuous
  0
LAYER
  5
100
100
AcDbSymbolTableRecord
100
AcDbLayerTableRecord
  2
Layer00204
 70
               0
 62
               7
  6
Continuous
  0
LAYER
  5
101
100
AcDbSymbolTableRecord
100
AcDbLayerTableRecord
  2
Layer00205
 70
               0
 62
               7
  6
Continuous
  0
LAYER
  5
102
100
AcDbSymbolTableRecord
100
AcDbLayerTableRecord
  2
Layer00206
 70
               0
 62
               7
  6
Continuous
  0
LAYER
  5
103
100
AcDbSymbolTableRecord
100
AcDbLayerTableRecord
  2
Layer00207
 70
               0
 62
               7
  6
Continuous
  0
LAYER
  5
104
100
AcDbSymbolTableRecord
100
AcDbLayerTableRecord
  2
Layer00208
 70
               0
 62
               7
  6
Continuous
  0
LAYER
  5
105
100
AcDbSymbolTableRecord
100
AcDbLayerTableRecord
  2
Layer00209
 70
               0
 62
               7
  6
Continuous
  0
LAYER
  5
106
100
AcDbSymbolTableRecord
100
AcDbLayerTableRecord
  2
Layer00210
 70
               0
 62
               7
  6
Continuous
  0
LAYER
  5
107
100
AcDbSymbolTableRecord
100
AcDbLayerTableRecord
  2
Layer00211
 70
               0
 62
               7
  6
Continuous
  0
LAYER
  5
108
100
AcDbSymbolTableRecord
100
AcDbLayerTableRecord
  2
Layer00212
 70
               0
 62
               7
  6
Continuous
  0
LAYER
  5
109
100
AcDbSymbolTableRecord
100
AcDbLayerTableRecord
  2
Layer00213
 70
               0
 62
               7
  6
Continuous
  0
LAYER
  5
10A
100
AcDbSymbolTableRecord
100
AcDbLayerTableRecord
  2
Layer00214
 70
               0
 62
               7
  6
Continuous
  0
LAYER
  5
10B
100
AcDbSymbolTableRecord
100
AcDbLayerTableRecord
  2
Layer00215
 70
               0
 62
               7
  6
Continuous
  0
LAYER
  5
10C
100
AcDbSymbolTableRecord
100
AcDbLayerTableRecord
  2
Layer00216
 70
               0
 62
               7
  6
Continuous
  0
LAYER
  5
10D
100
AcDbSymbolTableRecord
100
AcDbLayerTableRecord
  2
Layer00217
 70
               0
 62
               7
  6
Continuous
  0
LAYER
  5
10E
100
AcDbSymbolTableRecord
100
AcDbLayerTableRecord
  2
Layer00218
 70
               0
 62
               7
  6
Continuous
  0
LAYER
  5
10F
100
AcDbSymbolTableRecord
100
AcDbLayerTableRecord
  2
Layer00219
 70
               0
 62
               7
  6
Continuous
  0
LAYER
  5
110
100
AcDbSymbolTableRecord
100
AcDbLayerTableRecord
  2
Layer00220
 70
               0
 62
               7
  6
Continuous
  0
LAYER
  5
111
100
AcDbSymbolTableRecord
100
AcDbLayerTableRecord
  2
Layer00221
 70
               0
 62
               7
  6
Continuous
  0
LAYER
  5
112
100
AcDbSymbolTableRecord
100
AcDbLayerTableRecord
  2
Layer00222
 70
               0
 62
               7
  6
Continuous
  0
LAYER
  5
113
100
AcDbSymbolTableRecord
100
AcDbLayerTableRecord
  2
Layer00223
 70
               0
 62
               7
  6
Continuous
  0
LAYER
  5
114
100
AcDbSymbolTableRecord
100
AcDbLayerTableRecord
  2
Layer00224
 70
               0
 62
               7
  6
Continuous
  0
LAYER
  5
115
100
AcDbSymbolTableRecord
100
AcDbLayerTableRecord
  2
Layer00225
 70
               0
 62
               7
  6
Continuous
  0
LAYER
  5
116
100
AcDbSymbolTableRecord
100
AcDbLayerTableRecord
  2
Layer00226
 70
               0
 62
               7
  6
Continuous
  0
LAYER
  5
117
100
AcDbSymbolTableRecord
100
AcDbLayerTableRecord
  2
Layer00227
 70
               0
 62
               7
  6
Continuous
  0
LAYER
  5
118
100
AcDbSymbolTableRecord
100
AcDbLayerTableRecord
  2
Layer00228
 70
               0
 62
               7
  6
Continuous
  0
LAYER
  5
119
100
AcDbSymbolTableRecord
100
AcDbLayerTableRecord
  2
Layer00229
 70
               0
 62
               7
  6
Continuous
  0
LAYER
  5
11A
100
AcDbSymbolTableRecord
100
AcDbLayerTableRecord
  2
Layer00230
 70
               0
 62
               7
  6
Continuous
  0
LAYER
  5
11B
100
AcDbSymbolTableRecord
100
AcDbLayerTableRecord
  2
Layer00231
 70
               0
 62
               7
  6
Continuous
  0
LAYER
  5
11C
100
AcDbSymbolTableRecord
100
AcDbLayerTableRecord
  2
Layer00232
 70
               0
 62
               7
  6
Continuous
  0
LAYER
  5
11D
100
AcDbSymbolTableRecord
100
AcDbLayerTableRecord
  2
Layer00233
 70
               0
 62
               7
  6
Continuous
  0
LAYER
  5
11E
100
AcDbSymbolTableRecord
100
AcDbLayerTableRecord
  2
Layer00234
 70
               0
 62
               7
  6
Continuous
  0
LAYER
  5
11F
100
AcDbSymbolTableRecord
100
AcDbLayerTableRecord
  2
Layer00235
 70
               0
 62
               7
  6
Continuous
  0
LAYER
  5
120
100
AcDbSymbolTableRecord
100
AcDbLayerTableRecord
  2
Layer00236
 70
               0
 62
               7
  6
Continuous
  0
LAYER
  5
121
100
AcDbSymbolTableRecord
100
AcDbLayerTableRecord
  2
Layer00237
 70
               0
 62
               7
  6
Continuous
  0
LAYER
  5
122
100
AcDbSymbolTableRecord
100
AcDbLayerTableRecord
  2
Layer00238
 70
               0
 62
               7
  6
Continuous
  0
LAYER
  5
123
100
AcDbSymbolTableRecord
100
AcDbLayerTableRecord
  2
Layer00239
 70
               0
 62
               7
  6
Continuous
  0
LAYER
  5
124
100
AcDbSymbolTableRecord
100
AcDbLayerTableRecord
  2
Layer00240
 70
               0
 62
               7
  6
Continuous
  0
LAYER
  5
125
100
AcDbSymbolTableRecord
100
AcDbLayerTableRecord
  2
Layer00241
 70
               0
 62
               7
  6
Continuous
  0
LAYER
  5
126
100
AcDbSymbolTableRecord
100
AcDbLayerTableRecord
  2
Layer00242
 70
               0
 62
               7
  6
Continuous
  0
LAYER
  5
127
100
AcDbSymbolTableRecord
100
AcDbLayerTableRecord
  2
Layer00243
 70
               0
 62
               7
  6
Continuous
  0
LAYER
  5
128
100
AcDbSymbolTableRecord
100
AcDbLayerTableRecord
  2
Layer00244
 70
               0
 62
               7
  6
Continuous
  0
LAYER
  5
129
100
AcDbSymbolTableRecord
100
AcDbLayerTableRecord
  2
Layer00245
 70
               0
 62
               7
  6
Continuous
  0
LAYER
  5
12A
100
AcDbSymbolTableRecord
100
AcDbLayerTableRecord
  2
Layer00246
 70
               0
 62
               7
  6
Continuous
  0
LAYER
  5
12B
100
AcDbSymbolTableRecord
100
AcDbLayerTableRecord
  2
Layer00247
 70
               0
 62
               7
  6
Continuous
  0
LAYER
  5
12C
100
AcDbSymbolTableRecord
100
AcDbLayerTableRecord
  2
Layer00248
 70
               0
 62
               7
  6
Continuous
  0
LAYER
  5
12D
100
AcDbSymbolTableRecord
100
AcDbLayerTableRecord
  2
Layer00249
 70
               0
 62
               7
  6
Continuous
  0
LAYER
  5
12E
100
AcDbSymbolTableRecord
100
AcDbLayerTableRecord
  2
Layer00250
 70
               0
 62
               7
  6
Continuous
  0
LAYER
  5
12F
100
AcDbSymbolTableRecord
100
AcDbLayerTableRecord
  2
Layer00251
 70
               0
 62
               7
  6
Continuous
  0
LAYER
  5
130
100
AcDbSymbolTableRecord
100
AcDbLayerTableRecord
  2
Layer00252
 70
               0
 62
               7
  6
Continuous
  0
LAYER
  5
131
100
AcDbSymbolTableRecord
100
AcDbLayerTableRecord
  2
Layer00253
 70
               0
 62
               7
  6
Continuous
  0
LAYER
  5
132
100
AcDbSymbolTableRecord
100
AcDbLayerTableRecord
  2
Layer00254
 70
               0
 62
               7
  6
Continuous
  0
LAYER
  5
133
100
AcDbSymbolTableRecord
100
AcDbLayerTableRecord
  2
Layer00255
 70
               0
 62
               7
  6
Continuous
  0
ENDTAB
  0
TABLE
  2
STYLE
  5
3
100
AcDbSymbolTable
 70
               4
  0
STYLE
  5
17
100
AcDbSymbolTableRecord
100
AcDbTextStyleTableRecord
  2
Standard
 70
               0
 40
0.0
 41
1.0
 50
0.0
 71
               0
 42
0.0
  3
txt.shx
  4
bigfont.shx
  0
STYLE
  5
32
100
AcDbSymbolTableRecord
100
AcDbTextStyleTableRecord
  2
STANDARD_T
 70
               4
 40
0.0
 41
1.0
 50
0.0
 71
               0
 42
0.0
  3
txt.shx
  4
bigfont.shx
  0
STYLE
  5
33
100
AcDbSymbolTableRecord
100
AcDbTextStyleTableRecord
  2
FontTableH_0
 70
               0
 40
0.0
 41
1.0
 50
0.0
 71
               0
 42
0.0
  3
MS Gothic.ttf
  4

1001
ACAD
1000
MS Gothic
1071
    32817
  0
STYLE
  5
34
100
AcDbSymbolTableRecord
100
AcDbTextStyleTableRecord
  2
FontTableV_0
 70
               0
 40
0.0
 41
1.0
 50
0.0
 71
               0
 42
0.0
  3
@MS Gothic.ttf
  4

1001
ACAD
1000
@MS Gothic
1071
    32817
  0
ENDTAB
  0
TABLE
  2
VIEW
  5
5
100
AcDbSymbolTable
 70
               0
  0
ENDTAB
  0
TABLE
  2
UCS
  5
6
100
AcDbSymbolTable
 70
               0
  0
ENDTAB
  0
TABLE
  2
APPID
  5
8
100
AcDbSymbolTable
 70
               1
  0
APPID
  5
16
100
AcDbSymbolTableRecord
100
AcDbRegAppTableRecord
  2
ACAD
 70
               0
  0
ENDTAB
  0
TABLE
  2
DIMSTYLE
  5
9
100
AcDbSymbolTable
 70
               1
  0
DIMSTYLE
105
18
100
AcDbSymbolTableRecord
100
AcDbDimStyleTableRecord
  2
Standard
 70
               0
  3

  4

  5

  6

  7

 40
1.0
 41
0.18
 42
0.0625
 43
0.38
 44
0.18
 45
0.0
 46
0.0
 47
0.0
 48
0.0
 71
               0
 72
               0
 73
               1
 74
               1
 75
               0
 76
               0
 77
               0
 78
               0
140
0.18
141
0.09
142
0.0
143
25.399999999999999
144
1.0
145
0.0
146
1.0
147
0.09
170
               0
171
               2
172
               0
173
               0
174
               0
175
               0
176
               0
177
               0
178
               0
270
               2
271
               4
272
               4
273
               2
274
               2
275
               0
280
               0
281
               0
282
               0
283
               1
284
               0
285
               0
286
               0
287
               0
288
               0
340
17
  0
ENDTAB
  0
TABLE
  2
BLOCK_RECORD
  5
1
100
AcDbSymbolTable
 70
               0
  0
BLOCK_RECORD
  5
A
100
AcDbSymbolTableRecord
100
AcDbBlockTableRecord
  2
*MODEL_SPACE
  0
BLOCK_RECORD
  5
B
100
AcDbSymbolTableRecord
100
AcDbBlockTableRecord
  2
*PAPER_SPACE
  0
ENDTAB
  0
ENDSEC
  0
SECTION
  2
BLOCKS
  0
BLOCK
  5
D
100
AcDbEntity
  8
0
100
AcDbBlockBegin
  2
*MODEL_SPACE
 70
               0
 10
0.0
 20
0.0
 30
0.0
  3
*MODEL_SPACE
  1

  0
ENDBLK
  5
E
100
AcDbEntity
  8
0
100
AcDbBlockEnd
  0
BLOCK
  5
F
100
AcDbEntity
 67
               1
  8
0
100
AcDbBlockBegin
  2
*PAPER_SPACE
 70
               0
 10
0.0
 20
0.0
 30
0.0
  3
*PAPER_SPACE
  1

  0
ENDBLK
  5
10
100
AcDbEntity
 67
               1
  8
0
100
AcDbBlockEnd
  0
ENDSEC
  0
SECTION
  2
ENTITIES
  0
LINE
  5
134
100
AcDbEntity
  8
0
  6
Continuous
 62
               4
100
AcDbLine
 10
725.7851204810338
 20
485.55988825584438
 30
0.0
 11
780.7851204810338
 21
485.55988825584438
 31
0.0
  0
LINE
  5
135
100
AcDbEntity
  8
0
  6
Continuous
 62
               4
100
AcDbLine
 10
775.7851204810338
 20
485.55988825584438
 30
0.0
 11
775.7851204810338
 21
455.55988825584438
 31
0.0
  0
LINE
  5
136
100
AcDbEntity
  8
0
  6
Continuous
 62
               4
100
AcDbLine
 10
718.2851204810338
 20
493.05988825584438
 30
0.0
 11
718.2851204810338
 21
535.55988825584438
 31
0.0
  0
LINE
  5
137
100
AcDbEntity
  8
0
  6
Continuous
 62
               4
100
AcDbLine
 10
693.28512048103403
 20
492.05988825584461
 30
0.0
 11
693.28512048103403
 21
535.55988825584438
 31
0.0
  0
LINE
  5
138
100
AcDbEntity
  8
0
  6
Continuous
 62
               4
100
AcDbLine
 10
718.2851204810338
 20
530.55988825584438
 30
0.0
 11
693.28512048103403
 21
530.55988825584438
 31
0.0
  0
LINE
  5
139
100
AcDbEntity
  8
0
  6
Continuous
 62
               4
100
AcDbLine
 10
718.2851204810338
 20
493.05988825584438
 30
0.0
 11
718.2851204810338
 21
565.55988825584438
 31
0.0
  0
LINE
  5
13A
100
AcDbEntity
  8
0
  6
Continuous
 62
               4
100
AcDbLine
 10
618.2851204810338
 20
560.55988825584438
 30
0.0
 11
718.2851204810338
 21
560.55988825584438
 31
0.0
  0
LINE
  5
13B
100
AcDbEntity
  8
0
  6
Continuous
 62
               4
100
AcDbLine
 10
864.30759006735866
 20
560.55988825584438
 30
0.0
 11
1056.8075900673593
 21
560.55988825584438
 31
0.0
  0
LINE
  5
13C
100
AcDbEntity
  8
0
  6
Continuous
 62
               4
100
AcDbLine
 10
693.2851204810338
 20
471.30988825584461
 30
0.0
 11
739.64111651404346
 21
517.66588428885404
 31
0.0
  0
LINE
  5
13D
100
AcDbEntity
  8
0
  6
Continuous
 62
               4
100
AcDbLine
 10
739.64111651404346
 20
517.66588428885404
 30
0.0
 11
782.4819449497902
 21
517.66588428885404
 31
0.0
  0
LINE
  5
13E
100
AcDbEntity
  8
0
  6
Continuous
 62
               4
100
AcDbLine
 10
693.2851204810338
 20
471.30988825584461
 30
0.0
 11
701.88876702629932
 21
483.59716892017934
 31
0.0
  0
LINE
  5
13F
100
AcDbEntity
  8
0
  6
Continuous
 62
               4
100
AcDbLine
 10
693.2851204810338
 20
471.30988825584461
 30
0.0
 11
705.57240114536876
 21
479.91353480111013
 31
0.0
  0
LINE
  5
140
100
AcDbEntity
  8
0
  6
Continuous
 62
               4
100
AcDbLine
 10
637.43164453667714
 20
485.55988825584438
 30
0.0
 11
710.3318940476463
 21
611.826824293291
 31
0.0
  0
LINE
  5
141
100
AcDbEntity
  8
0
  6
Continuous
 62
               4
100
AcDbLine
 10
710.3318940476463
 20
611.826824293291
 30
0.0
 11
773.01661678513665
 21
611.826824293291
 31
0.0
  0
LINE
  5
142
100
AcDbEntity
  8
0
  6
Continuous
 62
               4
100
AcDbLine
 10
637.43164453667714
 20
485.55988825584438
 30
0.0
 11
642.56194668656212
 21
499.65527756763311
 31
0.0
  0
LINE
  5
143
100
AcDbEntity
  8
0
  6
Continuous
 62
               4
100
AcDbLine
 10
637.43164453667714
 20
485.55988825584438
 30
0.0
 11
647.07345868197513
 21
497.05055490262919
 31
0.0
  0
LINE
  5
144
100
AcDbEntity
  8
0
  6
Continuous
 62
               4
100
AcDbLine
 10
580.52786081643285
 20
711.46948248135675
 30
0.0
 11
612.24847739612778
 21
766.41120204479978
 31
0.0
  0
LINE
  5
145
100
AcDbEntity
  8
0
  6
Continuous
 62
               4
100
AcDbLine
 10
612.24847739612778
 20
766.41120204479978
 30
0.0
 11
796.14829523538515
 21
766.41120204479978
 31
0.0
  0
LINE
  5
146
100
AcDbEntity
  8
0
  6
Continuous
 62
               4
100
AcDbLine
 10
580.52786081643285
 20
711.46948248135675
 30
0.0
 11
585.65816296631806
 21
725.56487179314524
 31
0.0
  0
LINE
  5
147
100
AcDbEntity
  8
0
  6
Continuous
 62
               4
100
AcDbLine
 10
580.52786081643285
 20
711.46948248135675
 30
0.0
 11
590.16967496173106
 21
722.96014912814132
 31
0.0
  0
LINE
  5
148
100
AcDbEntity
  8
0
  6
Continuous
 62
               4
100
AcDbLine
 10
1026.8669679145919
 20
455.55988825584438
 30
0.0
 11
972.47220812717137
 21
658.56389544800106
 31
0.0
  0
LINE
  5
149
100
AcDbEntity
  8
0
  6
Continuous
 62
               4
100
AcDbLine
 10
1026.8669679145919
 20
455.55988825584438
 30
0.0
 11
1020.5276939884816
 21
469.15450506139416
 31
0.0
  0
LINE
  5
14A
100
AcDbEntity
  8
0
  6
Continuous
 62
               4
100
AcDbLine
 10
1026.8669679145919
 20
455.55988825584438
 30
0.0
 11
1025.5596317733771
 21
470.50280872722067
 31
0.0
  0
LINE
  5
14B
100
AcDbEntity
  8
0
  6
Continuous
 62
               4
100
AcDbLine
 10
972.4722081271716
 20
658.56389544800106
 30
0.0
 11
887.20066878886814
 21
658.56389544800106
 31
0.0
  0
LINE
  5
14C
100
AcDbEntity
  8
0
  6
Continuous
 62
               4
100
AcDbLine
 10
864.30759006736184
 20
510.55988825587883
 30
0.0
 11
864.30759006736184
 21
565.55988825584473
 31
0.0
  0
LINE
  5
14D
100
AcDbEntity
  8
0
  6
Continuous
 62
               4
100
AcDbLine
 10
718.2851204810338
 20
560.55988825584473
 30
0.0
 11
864.30759006736184
 21
560.55988825584473
 31
0.0
  0
LINE
  5
14E
100
AcDbEntity
  8
0
  6
Continuous
 62
               4
100
AcDbLine
 10
1066.8075900673593
 20
500.55988825586189
 30
0.0
 11
1106.8075900673593
 21
500.55988825586189
 31
0.0
  0
LINE
  5
14F
100
AcDbEntity
  8
0
  6
Continuous
 62
               4
100
AcDbLine
 10
1066.8075900673593
 20
455.55988825586201
 30
0.0
 11
1106.8075900673593
 21
455.55988825586201
 31
0.0
  0
LINE
  5
150
100
AcDbEntity
  8
0
  6
Continuous
 62
               4
100
AcDbLine
 10
1101.8075900673593
 20
500.55988825586189
 30
0.0
 11
1101.8075900673593
 21
455.55988825586201
 31
0.0
  0
LINE
  5
151
100
AcDbEntity
  8
0
  6
Continuous
 62
               4
100
AcDbLine
 10
1066.8075900673596
 20
352.55988825584427
 30
0.0
 11
1106.8075900673596
 21
352.55988825584427
 31
0.0
  0
LINE
  5
152
100
AcDbEntity
  8
0
  6
Continuous
 62
               4
100
AcDbLine
 10
1066.8075900673596
 20
452.55988825584427
 30
0.0
 11
1106.8075900673596
 21
452.55988825584427
 31
0.0
  0
LINE
  5
153
100
AcDbEntity
  8
0
  6
Continuous
 62
               4
100
AcDbLine
 10
1101.8075900673596
 20
352.55988825584427
 30
0.0
 11
1101.8075900673596
 21
452.55988825584427
 31
0.0
  0
LINE
  5
154
100
AcDbEntity
  8
0
  6
Continuous
 62
               4
100
AcDbLine
 10
689.85364059885114
 20
349.35988825584423
 30
0.0
 11
668.2267867029459
 21
311.90107850026789
 31
0.0
  0
LINE
  5
155
100
AcDbEntity
  8
0
  6
Continuous
 62
               4
100
AcDbLine
 10
668.2267867029459
 20
311.90107850026789
 30
0.0
 11
546.37666985574469
 21
311.90107850027255
 31
0.0
  0
LINE
  5
156
100
AcDbEntity
  8
0
  6
Continuous
 62
               4
100
AcDbLine
 10
689.85364059885114
 20
349.35988825584423
 30
0.0
 11
684.72333844896593
 21
335.26449894405562
 31
0.0
  0
LINE
  5
157
100
AcDbEntity
  8
0
  6
Continuous
 62
               4
100
AcDbLine
 10
689.85364059885114
 20
349.35988825584423
 30
0.0
 11
680.21182645355293
 21
337.86922160905965
 31
0.0
  0
LINE
  5
158
100
AcDbEntity
  8
0
  6
Continuous
 62
               4
100
AcDbLine
 10
768.5569515141101
 20
372.25527948503395
 30
0.0
 11
711.04222343240576
 21
272.63684826401374
 31
0.0
  0
LINE
  5
159
100
AcDbEntity
  8
0
  6
Continuous
 62
               4
100
AcDbLine
 10
711.04222343240576
 20
272.63684826401374
 30
0.0
 11
646.75662844181079
 21
272.63684826401482
 31
0.0
  0
LINE
  5
15A
100
AcDbEntity
  8
0
  6
Continuous
 62
               4
100
AcDbLine
 10
768.5569515141101
 20
372.25527948503395
 30
0.0
 11
763.42664936422511
 21
358.15989017324523
 31
0.0
  0
LINE
  5
15B
100
AcDbEntity
  8
0
  6
Continuous
 62
               4
100
AcDbLine
 10
768.5569515141101
 20
372.25527948503395
 30
0.0
 11
758.91513736881211
 21
360.76461283824926
 31
0.0
  0
LINE
  5
15C
100
AcDbEntity
  8
0
  6
Continuous
 62
               4
100
AcDbLine
 10
615.88512048103416
 20
452.55988825584438
 30
0.0
 11
862.30759006736002
 21
452.55988825584438
 31
0.0
  0
LINE
  5
15D
100
AcDbEntity
  8
0
  6
Continuous
 62
               7
100
AcDbLine
 10
618.2851204810338
 20
485.55988825584461
 30
0.0
 11
715.7851204810338
 21
485.55988825584461
 31
0.0
  0
LINE
  5
15E
100
AcDbEntity
  8
0
  6
Continuous
 62
               6
100
AcDbLine
 10
615.5849122777056
 20
481.35988825584457
 30
0.0
 11
615.58511462165302
 21
533.15988825584452
 31
0.0
  0
LINE
  5
15F
100
AcDbEntity
  8
0
  6
Continuous
 62
               6
100
AcDbLine
 10
616.7851204810338
 20
482.55988825584461
 30
0.0
 11
616.7851204810338
 21
533.15988825584452
 31
0.0
  0
LINE
  5
160
100
AcDbEntity
  8
0
  6
Continuous
 62
               6
100
AcDbLine
 10
615.58511462165302
 20
533.15988825584452
 30
0.0
 11
616.7851204810338
 21
533.15988825584452
 31
0.0
  0
LINE
  5
161
100
AcDbEntity
  8
0
  6
Continuous
 62
               7
100
AcDbLine
 10
618.2851204810338
 20
485.55988825584461
 30
0.0
 11
618.2851204810338
 21
571.4711158287331
 31
0.0
  0
LINE
  5
162
100
AcDbEntity
  8
0
  6
Continuous
 62
               4
100
AcDbLine
 10
716.0351204810338
 20
483.55988825584461
 30
0.0
 11
648.87149389500541
 21
483.55988825584461
 31
0.0
  0
LINE
  5
163
100
AcDbEntity
  8
0
  6
Continuous
 62
               4
100
AcDbLine
 10
693.2851204810338
 20
482.05988825584461
 30
0.0
 11
716.0351204810338
 21
482.05988825584461
 31
0.0
  0
LINE
  5
164
100
AcDbEntity
  8
0
  6
Continuous
 62
               6
100
AcDbLine
 10
616.7851204810338
 20
482.55988825584461
 30
0.0
 11
692.0351204810338
 21
482.55988825584461
 31
0.0
  0
LINE
  5
165
100
AcDbEntity
  8
0
  6
Continuous
 62
               6
100
AcDbLine
 10
615.5849122777056
 20
481.35988825584457
 30
0.0
 11
690.83512048103398
 21
481.35988825584457
 31
0.0
  0
LINE
  5
166
100
AcDbEntity
  8
0
  6
Continuous
 62
               4
100
AcDbLine
 10
693.2851204810338
 20
482.05988825584461
 30
0.0
 11
693.2851204810338
 21
460.55988825584438
 31
0.0
  0
LINE
  5
167
100
AcDbEntity
  8
0
  6
Continuous
 62
               6
100
AcDbLine
 10
692.0351204810338
 20
482.55988825584461
 30
0.0
 11
692.0351204810338
 21
458.80988825584438
 31
0.0
  0
LINE
  5
168
100
AcDbEntity
  8
0
  6
Continuous
 62
               6
100
AcDbLine
 10
690.83512048103398
 20
481.35988825584457
 30
0.0
 11
690.83512048103398
 21
457.60988825584434
 31
0.0
  0
LINE
  5
169
100
AcDbEntity
  8
0
  6
Continuous
 62
               4
100
AcDbLine
 10
693.2851204810338
 20
460.55988825584438
 30
0.0
 11
722.5351204810338
 21
458.55988825584438
 31
0.0
  0
LINE
  5
16A
100
AcDbEntity
  8
0
  6
Continuous
 62
               4
100
AcDbLine
 10
722.5351204810338
 20
457.05988825584438
 30
0.0
 11
713.2851204810338
 21
456.05988825584438
 31
0.0
  0
LINE
  5
16B
100
AcDbEntity
  8
0
  6
Continuous
 62
               6
100
AcDbLine
 10
690.83512048103398
 20
457.60988825584434
 30
0.0
 11
710.83512048103398
 21
457.60988825584434
 31
0.0
  0
LINE
  5
16C
100
AcDbEntity
  8
0
  6
Continuous
 62
               6
100
AcDbLine
 10
692.0351204810338
 20
458.80988825584438
 30
0.0
 11
710.83512048103398
 21
458.80988825584438
 31
0.0
  0
LINE
  5
16D
100
AcDbEntity
  8
0
  6
DASHDOT
 62
               4
100
AcDbLine
 10
617.80829251437331
 20
511.83166205952705
 30
0.0
 11
581.21863375075304
 21
511.83166205952705
 31
0.0
  0
LINE
  5
16E
100
AcDbEntity
  8
0
  6
Continuous
 62
               7
100
AcDbLine
 10
618.2851204810338
 20
571.4711158287331
 30
0.0
 11
616.02970785606544
 21
625.88368126460443
 31
0.0
  0
LINE
  5
16F
100
AcDbEntity
  8
0
  6
Continuous
 62
               6
100
AcDbLine
 10
710.83512048103398
 20
458.80988825584438
 30
0.0
 11
710.83512048103398
 21
457.60988825584434
 31
0.0
  0
LINE
  5
170
100
AcDbEntity
  8
0
  6
Continuous
 62
               4
100
AcDbLine
 10
620.88512048103416
 20
517.05354852422408
 30
0.0
 11
619.89109891073372
 21
529.31314789125793
 31
0.0
  0
LINE
  5
171
100
AcDbEntity
  8
0
  6
Continuous
 62
               6
100
AcDbLine
 10
622.38733944068258
 20
516.99588738512568
 30
0.0
 11
619.26525684461944
 21
598.09376702978568
 31
0.0
  0
LINE
  5
172
100
AcDbEntity
  8
0
  6
DASHDOT
 62
               4
100
AcDbLine
 10
620.66079087964977
 20
579.0338568717483
 30
0.0
 11
581.21863375075304
 21
579.0338568717483
 31
0.0
  0
LINE
  5
173
100
AcDbEntity
  8
0
  6
Continuous
 62
               7
100
AcDbLine
 10
711.30108825220918
 20
456.74462762498104
 30
0.0
 11
710.11634888307231
 21
455.55988825584438
 31
0.0
  0
LINE
  5
174
100
AcDbEntity
  8
0
  6
Continuous
 62
               7
100
AcDbLine
 10
710.75213532069915
 20
457.60988825584434
 30
0.0
 11
708.70213532069943
 21
455.55988825584438
 31
0.0
  0
LINE
  5
175
100
AcDbEntity
  8
0
  6
Continuous
 62
               7
100
AcDbLine
 10
709.33792175832627
 20
457.60988825584434
 30
0.0
 11
707.28792175832609
 21
455.55988825584438
 31
0.0
  0
LINE
  5
176
100
AcDbEntity
  8
0
  6
Continuous
 62
               7
100
AcDbLine
 10
707.92370819595294
 20
457.60988825584434
 30
0.0
 11
705.87370819595321
 21
455.55988825584438
 31
0.0
  0
LINE
  5
177
100
AcDbEntity
  8
0
  6
Continuous
 62
               7
100
AcDbLine
 10
706.50949463358006
 20
457.60988825584434
 30
0.0
 11
704.45949463357988
 21
455.55988825584438
 31
0.0
  0
LINE
  5
178
100
AcDbEntity
  8
0
  6
Continuous
 62
               7
100
AcDbLine
 10
705.09528107120673
 20
457.60988825584434
 30
0.0
 11
703.045281071207
 21
455.55988825584438
 31
0.0
  0
LINE
  5
179
100
AcDbEntity
  8
0
  6
Continuous
 62
               7
100
AcDbLine
 10
703.68106750883385
 20
457.60988825584434
 30
0.0
 11
701.63106750883367
 21
455.55988825584438
 31
0.0
  0
LINE
  5
17A
100
AcDbEntity
  8
0
  6
Continuous
 62
               7
100
AcDbLine
 10
702.26685394646051
 20
457.60988825584434
 30
0.0
 11
700.21685394646079
 21
455.55988825584438
 31
0.0
  0
LINE
  5
17B
100
AcDbEntity
  8
0
  6
Continuous
 62
               7
100
AcDbLine
 10
700.85264038408764
 20
457.60988825584434
 30
0.0
 11
698.80264038408745
 21
455.55988825584438
 31
0.0
  0
LINE
  5
17C
100
AcDbEntity
  8
0
  6
Continuous
 62
               7
100
AcDbLine
 10
699.4384268217143
 20
457.60988825584434
 30
0.0
 11
697.38842682171457
 21
455.55988825584438
 31
0.0
  0
LINE
  5
17D
100
AcDbEntity
  8
0
  6
Continuous
 62
               7
100
AcDbLine
 10
698.02421325934142
 20
457.60988825584434
 30
0.0
 11
695.97421325934124
 21
455.55988825584438
 31
0.0
  0
LINE
  5
17E
100
AcDbEntity
  8
0
  6
Continuous
 62
               7
100
AcDbLine
 10
696.60999969696809
 20
457.60988825584434
 30
0.0
 11
694.55999969696836
 21
455.55988825584438
 31
0.0
  0
LINE
  5
17F
100
AcDbEntity
  8
0
  6
Continuous
 62
               7
100
AcDbLine
 10
695.19578613459521
 20
457.60988825584434
 30
0.0
 11
693.14578613459503
 21
455.55988825584438
 31
0.0
  0
LINE
  5
180
100
AcDbEntity
  8
0
  6
Continuous
 62
               7
100
AcDbLine
 10
693.78157257222188
 20
457.60988825584434
 30
0.0
 11
691.73157257222215
 21
455.55988825584438
 31
0.0
  0
LINE
  5
181
100
AcDbEntity
  8
0
  6
Continuous
 62
               7
100
AcDbLine
 10
692.367359009849
 20
457.60988825584434
 30
0.0
 11
690.59014456191676
 21
455.83267380791187
 31
0.0
  0
LINE
  5
182
100
AcDbEntity
  8
0
  6
Continuous
 62
               7
100
AcDbLine
 10
690.95314544747566
 20
457.60988825584434
 30
0.0
 11
690.47688401233358
 21
457.13362682070226
 31
0.0
  0
LINE
  5
183
100
AcDbEntity
  8
0
  6
Continuous
 62
               4
100
AcDbLine
 10
617.88512048103416
 20
639.29906890987593
 30
0.0
 11
620.7468678474595
 21
597.07262778827851
 31
0.0
  0
LINE
  5
184
100
AcDbEntity
  8
0
  6
Continuous
 62
               4
100
AcDbLine
 10
681.5049724227722
 20
483.55988825584461
 30
0.0
 11
681.5049724227722
 21
481.35988825584411
 31
0.0
  0
LINE
  5
185
100
AcDbEntity
  8
0
  6
Continuous
 62
               4
100
AcDbLine
 10
685.70497242277202
 20
483.55988825584461
 30
0.0
 11
685.70497242277247
 21
481.35988825584343
 31
0.0
  0
LINE
  5
186
100
AcDbEntity
  8
0
  6
Continuous
 62
               4
100
AcDbLine
 10
681.71775954822374
 20
485.50745816844221
 30
0.0
 11
679.65497242277183
 21
484.05988825584461
 31
0.0
  0
LINE
  5
187
100
AcDbEntity
  8
0
  6
Continuous
 62
               4
100
AcDbLine
 10
685.49218529732002
 20
485.50745816844221
 30
0.0
 11
687.55497242277193
 21
484.05988825584438
 31
0.0
  0
LINE
  5
188
100
AcDbEntity
  8
0
  6
Continuous
 62
               4
100
AcDbLine
 10
683.60497242277211
 20
479.40594905442765
 30
0.0
 11
684.53081514665041
 21
479.92030612324891
 31
0.0
  0
LINE
  5
189
100
AcDbEntity
  8
0
  6
Continuous
 62
               4
100
AcDbLine
 10
682.67912969889335
 20
479.92030612324891
 30
0.0
 11
683.60497242277211
 21
479.40594905442765
 31
0.0
  0
LINE
  5
18A
100
AcDbEntity
  8
0
  6
Continuous
 62
               4
100
AcDbLine
 10
682.5049724227722
 20
485.09817982221114
 30
0.0
 11
682.5049724227722
 21
484.05988825584461
 31
0.0
  0
LINE
  5
18B
100
AcDbEntity
  8
0
  6
Continuous
 62
               4
100
AcDbLine
 10
684.70497242277202
 20
485.09817982221114
 30
0.0
 11
684.70497242277202
 21
484.05988825584461
 31
0.0
  0
LINE
  5
18C
100
AcDbEntity
  8
0
  6
Continuous
 62
               4
100
AcDbLine
 10
679.65497242277183
 20
484.05988825584461
 30
0.0
 11
687.55497242277193
 21
484.05988825584438
 31
0.0
  0
LINE
  5
18D
100
AcDbEntity
  8
0
  6
Continuous
 62
               4
100
AcDbLine
 10
679.65497242277183
 20
483.55988825584461
 30
0.0
 11
687.55497242277193
 21
483.55988825584461
 31
0.0
  0
LINE
  5
18E
100
AcDbEntity
  8
0
  6
Continuous
 62
               4
100
AcDbLine
 10
679.65494800870943
 20
484.05988825584461
 30
0.0
 11
679.65497242277183
 21
483.55988825584461
 31
0.0
  0
LINE
  5
18F
100
AcDbEntity
  8
0
  6
Continuous
 62
               4
100
AcDbLine
 10
687.55497242277193
 20
484.05988825584438
 30
0.0
 11
687.55497242277193
 21
483.55988825584461
 31
0.0
  0
LINE
  5
190
100
AcDbEntity
  8
0
  6
Continuous
 62
               7
100
AcDbLine
 10
715.7851204810338
 20
480.55988825584461
 30
0.0
 11
700.8727149635863
 21
478.86681942591997
 31
0.0
  0
LINE
  5
191
100
AcDbEntity
  8
0
  6
Continuous
 62
               4
100
AcDbLine
 10
1056.8075900673596
 20
452.55988825584438
 30
0.0
 11
866.30759006736002
 21
452.55988825584438
 31
0.0
  0
LINE
  5
192
100
AcDbEntity
  8
0
  6
DASHDOT
 62
               4
100
AcDbLine
 10
562.12360772674697
 20
689.15543333924381
 30
0.0
 11
559.74220290521021
 21
643.90874173003783
 31
0.0
  0
LINE
  5
193
100
AcDbEntity
  8
0
  6
Continuous
 62
               4
100
AcDbLine
 10
632.88512048103416
 20
653.71383723585075
 30
0.0
 11
632.88512048103416
 21
708.71383723585097
 31
0.0
  0
LINE
  5
194
100
AcDbEntity
  8
0
  6
Continuous
 62
               4
100
AcDbLine
 10
632.88512048103416
 20
653.71383723585075
 30
0.0
 11
627.88512048103416
 21
653.71383723585075
 31
0.0
  0
LINE
  5
195
100
AcDbEntity
  8
0
  6
Continuous
 62
               4
100
AcDbLine
 10
627.88512048103416
 20
653.71383723585075
 30
0.0
 11
627.88512048103416
 21
655.21383723585075
 31
0.0
  0
LINE
  5
196
100
AcDbEntity
  8
0
  6
Continuous
 62
               4
100
AcDbLine
 10
631.38512048103416
 20
707.29070847871083
 30
0.0
 11
631.38512048103416
 21
655.21383723585075
 31
0.0
  0
LINE
  5
197
100
AcDbEntity
  8
0
  6
Continuous
 62
               4
100
AcDbLine
 10
631.38512048103416
 20
655.21383723585075
 30
0.0
 11
627.88512048103416
 21
655.21383723585075
 31
0.0
  0
LINE
  5
198
100
AcDbEntity
  8
0
  6
Continuous
 62
               4
100
AcDbLine
 10
604.14516816004902
 20
707.52272927936622
 30
0.0
 11
603.82981516131235
 21
701.53102230337174
 31
0.0
  0
LINE
  5
199
100
AcDbEntity
  8
0
  6
Continuous
 62
               4
100
AcDbLine
 10
604.1451681600488
 20
707.52272927936667
 30
0.0
 11
624.11752474669879
 21
706.47155261691125
 31
0.0
  0
LINE
  5
19A
100
AcDbEntity
  8
0
  6
Continuous
 62
               4
100
AcDbLine
 10
609.71640447106142
 20
699.21843364596918
 30
0.0
 11
609.66384563793895
 21
698.21981581663761
 31
0.0
  0
LINE
  5
19B
100
AcDbEntity
  8
0
  6
Continuous
 62
               4
100
AcDbLine
 10
624.11752474669879
 20
706.47155261691125
 30
0.0
 11
631.38512048103416
 21
655.21383723585075
 31
0.0
  0
LINE
  5
19C
100
AcDbEntity
  8
0
  6
Continuous
 62
               4
100
AcDbLine
 10
620.27905933836496
 20
700.66527260984196
 30
0.0
 11
611.81875779597249
 21
701.11055163838921
 31
0.0
  0
LINE
  5
19D
100
AcDbEntity
  8
0
  6
Continuous
 62
               4
100
AcDbLine
 10
622.15413668313477
 20
698.94879969505303
 30
0.0
 11
628.35511587713268
 21
655.21383723585075
 31
0.0
  0
LINE
  5
19E
100
AcDbEntity
  8
0
  6
Continuous
 62
               4
100
AcDbLine
 10
397.88512048103462
 20
728.71383723585097
 30
0.0
 11
397.88512048103462
 21
658.71383723585097
 31
0.0
  0
LINE
  5
19F
100
AcDbEntity
  8
0
  6
Continuous
 62
               4
100
AcDbLine
 10
397.88512048103462
 20
728.71383723585097
 30
0.0
 11
411.16131849145722
 21
728.01508997214444
 31
0.0
  0
LINE
  5
1A0
100
AcDbEntity
  8
0
  6
Continuous
 62
               4
100
AcDbLine
 10
413.28789825881245
 20
720.27158577386274
 30
0.0
 11
411.16131849145722
 21
728.01508997214444
 31
0.0
  0
LINE
  5
1A1
100
AcDbEntity
  8
0
  6
Continuous
 62
               4
100
AcDbLine
 10
397.88512048103462
 20
658.71383723585097
 30
0.0
 11
403.88512048103462
 21
658.71383723585097
 31
0.0
  0
LINE
  5
1A2
100
AcDbEntity
  8
0
  6
Continuous
 62
               4
100
AcDbLine
 10
403.88512048103462
 20
658.71383723585097
 30
0.0
 11
403.88512048103462
 21
660.21383723585097
 31
0.0
  0
LINE
  5
1A3
100
AcDbEntity
  8
0
  6
Continuous
 62
               4
100
AcDbLine
 10
403.88512048103462
 20
660.21383723585097
 30
0.0
 11
399.38512048103462
 21
660.21383723585097
 31
0.0
  0
LINE
  5
1A4
100
AcDbEntity
  8
0
  6
Continuous
 62
               4
100
AcDbLine
 10
399.38512048103462
 20
660.21383723585097
 30
0.0
 11
399.38512048103462
 21
727.13281374186874
 31
0.0
  0
LINE
  5
1A5
100
AcDbEntity
  8
0
  6
Continuous
 62
               4
100
AcDbLine
 10
399.38512048103462
 20
727.13281374186874
 30
0.0
 11
410.00152921792846
 21
726.57405538729574
 31
0.0
  0
LINE
  5
1A6
100
AcDbEntity
  8
0
  6
Continuous
 62
               4
100
AcDbLine
 10
410.00152921792846
 20
726.57405538729574
 30
0.0
 11
412.12810898528346
 21
718.83055118901405
 31
0.0
  0
LINE
  5
1A7
100
AcDbEntity
  8
0
  6
Continuous
 62
               4
100
AcDbLine
 10
439.24192010677348
 20
716.20184759796041
 30
0.0
 11
417.05812753219857
 21
717.36941562820141
 31
0.0
  0
LINE
  5
1A8
100
AcDbEntity
  8
0
  6
Continuous
 62
               4
100
AcDbLine
 10
440.26681735266698
 20
707.13544888428089
 30
0.0
 11
440.06073140173817
 21
703.21981581663715
 31
0.0
  0
LINE
  5
1A9
100
AcDbEntity
  8
0
  6
Continuous
 62
               4
100
AcDbLine
 10
432.77718363267354
 20
707.52964013270423
 30
0.0
 11
432.55035077393336
 21
703.21981581663761
 31
0.0
  0
LINE
  5
1AA
100
AcDbEntity
  8
0
  6
Continuous
 62
               4
100
AcDbLine
 10
440.06073140173817
 20
703.21981581663715
 30
0.0
 11
432.55035077393336
 21
703.21981581663761
 31
0.0
  0
LINE
  5
1AB
100
AcDbEntity
  8
0
  6
Continuous
 62
               4
100
AcDbLine
 10
439.24192010677348
 20
716.20184759795859
 30
0.0
 11
438.92656710803681
 21
710.21014062196457
 31
0.0
  0
LINE
  5
1AC
100
AcDbEntity
  8
0
  6
Continuous
 62
               4
100
AcDbLine
 10
417.05812753219857
 20
717.36941562820141
 30
0.0
 11
408.0334598843524
 21
709.46022010362879
 31
0.0
  0
LINE
  5
1AD
100
AcDbEntity
  8
0
  6
Continuous
 62
               4
100
AcDbLine
 10
408.0334598844031
 20
709.4602201036729
 30
0.0
 11
399.38512048103462
 21
660.21383723585097
 31
0.0
  0
LINE
  5
1AE
100
AcDbEntity
  8
0
  6
Continuous
 62
               4
100
AcDbLine
 10
410.23953491769475
 20
704.67793967429191
 30
0.0
 11
402.43102946490035
 21
660.21383723585097
 31
0.0
  0
LINE
  5
1AF
100
AcDbEntity
  8
0
  6
Continuous
 62
               4
100
AcDbLine
 10
418.53942684152867
 20
711.28314800441296
 30
0.0
 11
429.93900664404464
 21
710.68317012006958
 31
0.0
  0
LINE
  5
1B0
100
AcDbEntity
  8
0
  6
Continuous
 62
               4
100
AcDbLine
 10
412.12810898528346
 20
718.83055118901427
 30
0.0
 11
631.38512048103416
 21
707.29070847871083
 31
0.0
  0
LINE
  5
1B1
100
AcDbEntity
  8
0
  6
Continuous
 62
               4
100
AcDbLine
 10
413.28789825881245
 20
720.27158577386274
 30
0.0
 11
632.88512048103416
 21
708.71383723585097
 31
0.0
  0
LINE
  5
1B2
100
AcDbEntity
  8
0
  6
Continuous
 62
               4
100
AcDbLine
 10
438.92656710803681
 20
710.21014062196571
 30
0.0
 11
603.82981516131235
 21
701.53102230337174
 31
0.0
  0
LINE
  5
1B3
100
AcDbEntity
  8
0
  6
Continuous
 62
               4
100
AcDbLine
 10
440.26681735266675
 20
707.13544888427771
 30
0.0
 11
609.66384563793895
 21
698.21981581663761
 31
0.0
  0
LINE
  5
1B4
100
AcDbEntity
  8
0
  6
Continuous
 62
               7
100
AcDbLine
 10
612.88512048103416
 20
683.70026057782286
 30
0.0
 11
412.88512048103416
 21
694.22657636729662
 31
0.0
  0
LINE
  5
1B5
100
AcDbEntity
  8
0
  6
Continuous
 62
               7
100
AcDbLine
 10
617.88512048103416
 20
685.4398708505006
 30
0.0
 11
518.02333754778306
 21
690.69575416277723
 31
0.0
  0
LINE
  5
1B6
100
AcDbEntity
  8
0
  6
Continuous
 62
               4
100
AcDbLine
 10
617.88512048103416
 20
685.4398708505006
 30
0.0
 11
617.88512048103416
 21
639.29906890987593
 31
0.0
  0
LINE
  5
1B7
100
AcDbEntity
  8
0
  6
Continuous
 62
               4
100
AcDbLine
 10
1056.8075900673593
 20
560.55988825584438
 30
0.0
 11
1042.0354737721761
 21
557.95516559084047
 31
0.0
  0
LINE
  5
1B8
100
AcDbEntity
  8
0
  6
Continuous
 62
               4
100
AcDbLine
 10
1056.8075900673593
 20
560.55988825584438
 30
0.0
 11
1042.0354737721761
 21
563.16461092084853
 31
0.0
  0
LINE
  5
1B9
100
AcDbEntity
  8
0
  6
Continuous
 62
               7
100
AcDbLine
 10
412.88512048103416
 20
280.08220024983632
 30
0.0
 11
412.88512048103416
 21
694.22657636729662
 31
0.0
  0
LINE
  5
1BA
100
AcDbEntity
  8
0
  6
Continuous
 62
               7
100
AcDbLine
 10
612.88512048103416
 20
414.494288841914
 30
0.0
 11
478.47303188895648
 21
280.08220024983621
 31
0.0
  0
LINE
  5
1BB
100
AcDbEntity
  8
0
  6
Continuous
 62
               7
100
AcDbLine
 10
612.88512048103416
 20
428.63642446564495
 30
0.0
 11
464.33089626522542
 21
280.08220024983621
 31
0.0
  0
LINE
  5
1BC
100
AcDbEntity
  8
0
  6
Continuous
 62
               7
100
AcDbLine
 10
612.88512048103416
 20
442.7785600893759
 30
0.0
 11
450.18876064149435
 21
280.08220024983621
 31
0.0
  0
LINE
  5
1BD
100
AcDbEntity
  8
0
  6
Continuous
 62
               7
100
AcDbLine
 10
573.06015909417056
 20
685.79631117713143
 30
0.0
 11
412.88512048103416
 21
525.62127256399481
 31
0.0
  0
LINE
  5
1BE
100
AcDbEntity
  8
0
  6
Continuous
 62
               7
100
AcDbLine
 10
586.49518793671473
 20
685.08920439594488
 30
0.0
 11
412.88512048103416
 21
511.47913694026408
 31
0.0
  0
LINE
  5
1BF
100
AcDbEntity
  8
0
  6
Continuous
 62
               7
100
AcDbLine
 10
599.93021677925935
 20
684.38209761475821
 30
0.0
 11
412.88512048103416
 21
497.33700131653325
 31
0.0
  0
LINE
  5
1C0
100
AcDbEntity
  8
0
  6
Continuous
 62
               7
100
AcDbLine
 10
1056.8075900673593
 20
292.73133347900102
 30
0.0
 11
1044.1584568381945
 21
280.08220024983621
 31
0.0
  0
LINE
  5
1C1
100
AcDbEntity
  8
0
  6
Continuous
 62
               7
100
AcDbLine
 10
1056.8075900673593
 20
306.87346910273197
 30
0.0
 11
1030.0163212144639
 21
280.08220024983621
 31
0.0
  0
LINE
  5
1C2
100
AcDbEntity
  8
0
  6
Continuous
 62
               7
100
AcDbLine
 10
1056.8075900673596
 20
321.01560472646258
 30
0.0
 11
1015.8741855907331
 21
280.08220024983621
 31
0.0
  0
LINE
  5
1C3
100
AcDbEntity
  8
0
  6
Continuous
 62
               4
100
AcDbLine
 10
623.80924095941577
 20
517.52459083966551
 30
0.0
 11
620.7468678474595
 21
597.07262778827851
 31
0.0
  0
LINE
  5
1C4
100
AcDbEntity
  8
0
  6
Continuous
 62
               2
100
AcDbLine
 10
862.15759006736198
 20
486.55988825587883
 30
0.0
 11
862.15759006736198
 21
460.55988825583836
 31
0.0
  0
LINE
  5
1C5
100
AcDbEntity
  8
0
  6
Continuous
 62
               2
100
AcDbLine
 10
866.45759006736171
 20
460.55988825583836
 30
0.0
 11
866.45759006736171
 21
482.82046607818324
 31
0.0
  0
LINE
  5
1C6
100
AcDbEntity
  8
0
  6
Continuous
 62
               2
100
AcDbLine
 10
861.15759006736198
 20
487.55988825587883
 30
0.0
 11
858.30759006736207
 21
487.55988825587883
 31
0.0
  0
LINE
  5
1C7
100
AcDbEntity
  8
0
  6
Continuous
 62
               2
100
AcDbLine
 10
857.30759006736207
 20
488.55988825587883
 30
0.0
 11
857.30759006736207
 21
492.43856791231906
 31
0.0
  0
LINE
  5
1C8
100
AcDbEntity
  8
0
  6
Continuous
 62
               2
100
AcDbLine
 10
857.89337650498874
 20
493.85278147469216
 30
0.0
 11
860.81411599935177
 21
496.77352096905497
 31
0.0
  0
LINE
  5
1C9
100
AcDbEntity
  8
0
  6
Continuous
 62
               2
100
AcDbLine
 10
868.10048328617563
 20
495.04481249637047
 30
0.0
 11
870.56469684854846
 21
492.58059893399741
 31
0.0
  0
LINE
  5
1CA
100
AcDbEntity
  8
0
  6
Continuous
 62
               2
100
AcDbLine
 10
870.8575900673618
 20
491.87349215281097
 30
0.0
 11
870.8575900673618
 21
488.55988825587883
 31
0.0
  0
LINE
  5
1CB
100
AcDbEntity
  8
0
  6
Continuous
 62
               2
100
AcDbLine
 10
867.80759006736207
 20
495.75191927755714
 30
0.0
 11
867.80759006736207
 21
496.55988825587883
 31
0.0
  0
LINE
  5
1CC
100
AcDbEntity
  8
0
  6
Continuous
 62
               2
100
AcDbLine
 10
859.71139598964919
 20
486.96369417816641
 30
0.0
 11
858.69510398720104
 21
485.94740217571803
 31
0.0
  0
LINE
  5
1CD
100
AcDbEntity
  8
0
  6
Continuous
 62
               2
100
AcDbLine
 10
860.41850277083586
 20
486.96369417816641
 30
0.0
 11
861.47916294261563
 21
485.90303400638663
 31
0.0
  0
LINE
  5
1CE
100
AcDbEntity
  8
0
  6
Continuous
 62
               2
100
AcDbLine
 10
897.30759006736162
 20
460.55988825583836
 30
0.0
 11
866.45759006736171
 21
460.55988825583836
 31
0.0
  0
LINE
  5
1CF
100
AcDbEntity
  8
0
  6
Continuous
 62
               2
100
AcDbLine
 10
862.15759006736198
 20
460.55988825583836
 30
0.0
 11
831.30759006736207
 21
460.55988825583836
 31
0.0
  0
LINE
  5
1D0
100
AcDbEntity
  8
0
  6
Continuous
 62
               2
100
AcDbLine
 10
831.30759006736207
 20
460.55988825583836
 30
0.0
 11
828.42083872141393
 21
455.55988825583836
 31
0.0
  0
LINE
  5
1D1
100
AcDbEntity
  8
0
  6
Continuous
 62
               2
100
AcDbLine
 10
897.30759006736162
 20
460.55988825583836
 30
0.0
 11
900.19434141330976
 21
455.55988825583836
 31
0.0
  0
LINE
  5
1D2
100
AcDbEntity
  8
0
  6
Continuous
 62
               7
100
AcDbLine
 10
868.72984761814678
 20
493.12193508783093
 30
0.0
 11
865.66114345795631
 21
499.41344164647307
 31
0.0
  0
LINE
  5
1D3
100
AcDbEntity
  8
0
  6
Continuous
 62
               7
100
AcDbLine
 10
859.88533251657691
 20
493.12193508783093
 30
0.0
 11
862.95403667676737
 21
499.41344164647307
 31
0.0
  0
LINE
  5
1D4
100
AcDbEntity
  8
0
  6
Continuous
 62
               2
100
AcDbLine
 10
765.80759006738663
 20
455.55988825584427
 30
0.0
 11
828.42083872141711
 21
455.55988825584427
 31
0.0
  0
LINE
  5
1D5
100
AcDbEntity
  8
0
  6
Continuous
 62
               2
100
AcDbLine
 10
962.80759006731978
 20
455.55988825585018
 30
0.0
 11
900.19434141330294
 21
455.55988825585018
 31
0.0
  0
LINE
  5
1D6
100
AcDbEntity
  8
0
  6
Continuous
 62
               2
100
AcDbLine
 10
1056.8075900673593
 20
455.55988825586201
 30
0.0
 11
979.80759006735525
 21
455.55988825586201
 31
0.0
  0
LINE
  5
1D7
100
AcDbEntity
  8
0
  6
Continuous
 62
               2
100
AcDbLine
 10
748.80759006736434
 20
455.55988825588406
 30
0.0
 11
614.88512048103416
 21
455.55988825588406
 31
0.0
  0
LINE
  5
1D8
100
AcDbEntity
  8
0
  6
Continuous
 62
               2
100
AcDbLine
 10
614.88512048103416
 20
455.55988825584438
 30
0.0
 11
614.88512048103416
 21
554.80988825584484
 31
0.0
  0
LINE
  5
1D9
100
AcDbEntity
  8
0
  6
Continuous
 62
               4
100
AcDbLine
 10
615.88512048103416
 20
352.55988825584427
 30
0.0
 11
862.30759006736002
 21
352.55988825584427
 31
0.0
  0
LINE
  5
1DA
100
AcDbEntity
  8
0
  6
DASHED
 62
               6
100
AcDbLine
 10
1056.8075900673591
 20
349.359888255844
 30
0.0
 11
613.88512048103416
 21
349.35988825584423
 31
0.0
  0
LINE
  5
1DB
100
AcDbEntity
  8
0
  6
Continuous
 62
               4
100
AcDbLine
 10
1056.8075900673596
 20
352.55988825584427
 30
0.0
 11
866.30759006736002
 21
352.55988825584427
 31
0.0
  0
LINE
  5
1DC
100
AcDbEntity
  8
0
  6
Continuous
 62
               7
100
AcDbLine
 10
1056.8075900673591
 20
347.85988825584423
 30
0.0
 11
612.88512048103416
 21
347.85988825584423
 31
0.0
  0
LINE
  5
1DD
100
AcDbEntity
  8
0
  6
Continuous
 62
               7
100
AcDbLine
 10
823.80759006736184
 20
350.359888255844
 30
0.0
 11
863.80759006736184
 21
350.359888255844
 31
0.0
  0
LINE
  5
1DE
100
AcDbEntity
  8
0
  6
Continuous
 62
               7
100
AcDbLine
 10
904.80759006736184
 20
350.359888255844
 30
0.0
 11
864.80759006736184
 21
350.359888255844
 31
0.0
  0
LINE
  5
1DF
100
AcDbEntity
  8
0
  6
DASHDOT
 62
               4
100
AcDbLine
 10
843.80759006736162
 20
351.36420624702657
 30
0.0
 11
843.80759006736162
 21
293.37002148909608
 31
0.0
  0
LINE
  5
1E0
100
AcDbEntity
  8
0
  6
DASHDOT
 62
               4
100
AcDbLine
 10
841.80759006736162
 20
351.36420624702657
 30
0.0
 11
845.80759006736162
 21
351.36420624702657
 31
0.0
  0
LINE
  5
1E1
100
AcDbEntity
  8
0
  6
DASHDOT
 62
               4
100
AcDbLine
 10
884.80759006736207
 20
351.36420624702657
 30
0.0
 11
884.80759006736207
 21
293.37002148909608
 31
0.0
  0
LINE
  5
1E2
100
AcDbEntity
  8
0
  6
DASHDOT
 62
               4
100
AcDbLine
 10
886.80759006736207
 20
351.36420624702657
 30
0.0
 11
882.80759006736207
 21
351.36420624702657
 31
0.0
  0
LINE
  5
1E3
100
AcDbEntity
  8
0
  6
Continuous
 62
               7
100
AcDbLine
 10
829.09343236958375
 20
347.85988825584411
 30
0.0
 11
761.31574436357596
 21
280.08220024983621
 31
0.0
  0
LINE
  5
1E4
100
AcDbEntity
  8
0
  6
Continuous
 62
               7
100
AcDbLine
 10
814.95129674585269
 20
347.85988825584411
 30
0.0
 11
747.17360873984489
 21
280.08220024983621
 31
0.0
  0
LINE
  5
1E5
100
AcDbEntity
  8
0
  6
Continuous
 62
               7
100
AcDbLine
 10
800.80916112212162
 20
347.85988825584411
 30
0.0
 11
733.03147311611383
 21
280.08220024983621
 31
0.0
  0
LINE
  5
1E6
100
AcDbEntity
  8
0
  6
Continuous
 62
               7
100
AcDbLine
 10
612.88512048103439
 20
347.85988825584423
 30
0.0
 11
612.88512048103416
 21
683.70026057782286
 31
0.0
  0
LINE
  5
1E7
100
AcDbEntity
  8
0
  6
Continuous
 62
               4
100
AcDbLine
 10
615.88512048103394
 20
352.55988825584416
 30
0.0
 11
615.88512048103394
 21
452.55988825584427
 31
0.0
  0
LINE
  5
1E8
100
AcDbEntity
  8
0
  6
DASHED
 62
               6
100
AcDbLine
 10
613.88512048103416
 20
349.35988825584423
 30
0.0
 11
613.88512048103416
 21
683.64762899887558
 31
0.0
  0
LINE
  5
1E9
100
AcDbEntity
  8
0
  6
Continuous
 62
               7
100
AcDbLine
 10
863.80759006736184
 20
350.359888255844
 30
0.0
 11
863.80759006736184
 21
499.05988825587872
 31
0.0
  0
LINE
  5
1EA
100
AcDbEntity
  8
0
  6
Continuous
 62
               7
100
AcDbLine
 10
864.80759006736207
 20
350.359888255844
 30
0.0
 11
864.80759006736207
 21
499.05988825587872
 31
0.0
  0
LINE
  5
1EB
100
AcDbEntity
  8
0
  6
Continuous
 62
               4
100
AcDbLine
 10
866.30759006736002
 20
352.55988825584416
 30
0.0
 11
866.30759006736002
 21
452.55988825584427
 31
0.0
  0
LINE
  5
1EC
100
AcDbEntity
  8
0
  6
Continuous
 62
               4
100
AcDbLine
 10
862.30759006736002
 20
352.55988825584416
 30
0.0
 11
862.30759006736002
 21
452.55988825584427
 31
0.0
  0
LINE
  5
1ED
100
AcDbEntity
  8
0
  6
Continuous
 62
               4
100
AcDbLine
 10
1203.2042375962753
 20
28.341677550555005
 30
0.0
 11
1203.2042375962753
 21
61.673677550555112
 31
0.0
  0
LINE
  5
1EE
100
AcDbEntity
  8
0
  6
Continuous
 62
               4
100
AcDbLine
 10
1453.1942375962753
 20
28.341677550555005
 30
0.0
 11
1203.2042375962753
 21
28.341677550555005
 31
0.0
  0
LINE
  5
1EF
100
AcDbEntity
  8
0
  6
Continuous
 62
               4
100
AcDbLine
 10
1453.1942375962753
 20
61.673677550555112
 30
0.0
 11
1453.1942375962753
 21
28.341677550555005
 31
0.0
  0
LINE
  5
1F0
100
AcDbEntity
  8
0
  6
Continuous
 62
               4
100
AcDbLine
 10
1453.1942375962753
 20
61.673677550555112
 30
0.0
 11
1203.2042375962753
 21
61.673677550555112
 31
0.0
  0
LINE
  5
1F1
100
AcDbEntity
  8
0
  6
Continuous
 62
               4
100
AcDbLine
 10
35.509845672550007
 20
986.04446947428005
 30
0.0
 11
35.509845672550007
 21
1019.37646947428
 31
0.0
  0
LINE
  5
1F2
100
AcDbEntity
  8
0
  6
Continuous
 62
               4
100
AcDbLine
 10
285.49984567255001
 20
986.04446947428005
 30
0.0
 11
35.509845672550007
 21
986.04446947428005
 31
0.0
  0
LINE
  5
1F3
100
AcDbEntity
  8
0
  6
Continuous
 62
               4
100
AcDbLine
 10
285.49984567255001
 20
1019.37646947428
 30
0.0
 11
285.49984567255001
 21
986.04446947428005
 31
0.0
  0
LINE
  5
1F4
100
AcDbEntity
  8
0
  6
Continuous
 62
               4
100
AcDbLine
 10
285.49984567255001
 20
1019.37646947428
 30
0.0
 11
35.509845672550007
 21
1019.37646947428
 31
0.0
  0
CIRCLE
  5
1F5
100
AcDbEntity
  8
0
  6
Continuous
 62
               4
100
AcDbCircle
 10
775.7851204810338
 20
485.55988825584438
 30
0.0
 40
2.5
  0
CIRCLE
  5
1F6
100
AcDbEntity
  8
0
  6
Continuous
 62
               4
100
AcDbCircle
 10
775.7851204810338
 20
455.55988825584438
 30
0.0
 40
2.5
  0
CIRCLE
  5
1F7
100
AcDbEntity
  8
0
  6
Continuous
 62
               4
100
AcDbCircle
 10
718.2851204810338
 20
530.55988825584438
 30
0.0
 40
2.5
  0
CIRCLE
  5
1F8
100
AcDbEntity
  8
0
  6
Continuous
 62
               4
100
AcDbCircle
 10
693.28512048103403
 20
530.55988825584438
 30
0.0
 40
2.5
  0
CIRCLE
  5
1F9
100
AcDbEntity
  8
0
  6
Continuous
 62
               4
100
AcDbCircle
 10
618.2851204810338
 20
560.55988825584438
 30
0.0
 40
2.5
  0
CIRCLE
  5
1FA
100
AcDbEntity
  8
0
  6
Continuous
 62
               4
100
AcDbCircle
 10
718.2851204810338
 20
560.55988825584438
 30
0.0
 40
2.5
  0
CIRCLE
  5
1FB
100
AcDbEntity
  8
0
  6
Continuous
 62
               4
100
AcDbCircle
 10
864.30759006735866
 20
560.55988825584438
 30
0.0
 40
2.5
  0
CIRCLE
  5
1FC
100
AcDbEntity
  8
0
  6
Continuous
 62
               4
100
AcDbCircle
 10
718.2851204810338
 20
560.55988825584473
 30
0.0
 40
2.5
  0
CIRCLE
  5
1FD
100
AcDbEntity
  8
0
  6
Continuous
 62
               4
100
AcDbCircle
 10
864.30759006736184
 20
560.55988825584473
 30
0.0
 40
2.5
  0
CIRCLE
  5
1FE
100
AcDbEntity
  8
0
  6
Continuous
 62
               4
100
AcDbCircle
 10
1101.8075900673593
 20
500.55988825586189
 30
0.0
 40
2.5
  0
CIRCLE
  5
1FF
100
AcDbEntity
  8
0
  6
Continuous
 62
               4
100
AcDbCircle
 10
1101.8075900673593
 20
455.55988825586201
 30
0.0
 40
2.5
  0
CIRCLE
  5
200
100
AcDbEntity
  8
0
  6
Continuous
 62
               4
100
AcDbCircle
 10
1101.8075900673596
 20
352.55988825584427
 30
0.0
 40
2.5
  0
CIRCLE
  5
201
100
AcDbEntity
  8
0
  6
Continuous
 62
               4
100
AcDbCircle
 10
1101.8075900673596
 20
452.55988825584427
 30
0.0
 40
2.5
  0
CIRCLE
  5
202
100
AcDbEntity
  8
0
  6
Continuous
 62
               7
100
AcDbCircle
 10
873.51368324056989
 20
419.17492698421358
 30
0.0
 40
1.0
  0
CIRCLE
  5
203
100
AcDbEntity
  8
0
  6
Continuous
 62
               7
100
AcDbCircle
 10
877.58217639125473
 20
448.61502033133468
 30
0.0
 40
1.0
  0
CIRCLE
  5
204
100
AcDbEntity
  8
0
  6
Continuous
 62
               7
100
AcDbCircle
 10
876.31077228166555
 20
435.24800015270546
 30
0.0
 40
0.1
  0
CIRCLE
  5
205
100
AcDbEntity
  8
0
  6
Continuous
 62
               7
100
AcDbCircle
 10
879.61642296659716
 20
423.31562885435017
 30
0.0
 40
0.5
  0
CIRCLE
  5
206
100
AcDbEntity
  8
0
  6
Continuous
 62
               7
100
AcDbCircle
 10
870.97087502139152
 20
448.61502033133468
 30
0.0
 40
0.1
  0
CIRCLE
  5
207
100
AcDbEntity
  8
0
  6
Continuous
 62
               7
100
AcDbCircle
 10
890.2221592679673
 20
419.17492698421358
 30
0.0
 40
1.0
  0
CIRCLE
  5
208
100
AcDbEntity
  8
0
  6
Continuous
 62
               7
100
AcDbCircle
 10
884.88226200769327
 20
441.93151024202018
 30
0.0
 40
0.5
  0
CIRCLE
  5
209
100
AcDbEntity
  8
0
  6
Continuous
 62
               7
100
AcDbCircle
 10
894.29065241865214
 20
448.61502033133468
 30
0.0
 40
1.0
  0
CIRCLE
  5
20A
100
AcDbEntity
  8
0
  6
Continuous
 62
               7
100
AcDbCircle
 10
893.01924830906296
 20
435.24800015270546
 30
0.0
 40
0.1
  0
CIRCLE
  5
20B
100
AcDbEntity
  8
0
  6
Continuous
 62
               7
100
AcDbCircle
 10
896.32489899399457
 20
423.31562885435017
 30
0.0
 40
0.5
  0
CIRCLE
  5
20C
100
AcDbEntity
  8
0
  6
Continuous
 62
               7
100
AcDbCircle
 10
884.11941954193958
 20
429.2362964779112
 30
0.0
 40
0.1
  0
CIRCLE
  5
20D
100
AcDbEntity
  8
0
  6
Continuous
 62
               7
100
AcDbCircle
 10
887.67935104878893
 20
448.61502033133468
 30
0.0
 40
0.1
  0
CIRCLE
  5
20E
100
AcDbEntity
  8
0
  6
Continuous
 62
               7
100
AcDbCircle
 10
906.93063529536471
 20
419.17492698421358
 30
0.0
 40
1.0
  0
CIRCLE
  5
20F
100
AcDbEntity
  8
0
  6
Continuous
 62
               7
100
AcDbCircle
 10
901.59073803509023
 20
441.93151024202018
 30
0.0
 40
0.5
  0
CIRCLE
  5
210
100
AcDbEntity
  8
0
  6
Continuous
 62
               7
100
AcDbCircle
 10
910.99912844604955
 20
448.61502033133468
 30
0.0
 40
1.0
  0
CIRCLE
  5
211
100
AcDbEntity
  8
0
  6
Continuous
 62
               7
100
AcDbCircle
 10
909.72772433646037
 20
435.24800015270546
 30
0.0
 40
0.1
  0
CIRCLE
  5
212
100
AcDbEntity
  8
0
  6
Continuous
 62
               7
100
AcDbCircle
 10
913.03337502139198
 20
423.31562885435017
 30
0.0
 40
0.5
  0
CIRCLE
  5
213
100
AcDbEntity
  8
0
  6
Continuous
 62
               7
100
AcDbCircle
 10
900.82789556933699
 20
429.2362964779112
 30
0.0
 40
0.1
  0
CIRCLE
  5
214
100
AcDbEntity
  8
0
  6
Continuous
 62
               7
100
AcDbCircle
 10
904.38782707618634
 20
448.61502033133468
 30
0.0
 40
0.1
  0
CIRCLE
  5
215
100
AcDbEntity
  8
0
  6
Continuous
 62
               7
100
AcDbCircle
 10
923.63911132276166
 20
419.17492698421358
 30
0.0
 40
1.0
  0
CIRCLE
  5
216
100
AcDbEntity
  8
0
  6
Continuous
 62
               7
100
AcDbCircle
 10
918.29921406248809
 20
441.93151024202018
 30
0.0
 40
0.5
  0
CIRCLE
  5
217
100
AcDbEntity
  8
0
  6
Continuous
 62
               7
100
AcDbCircle
 10
927.70760447344696
 20
448.61502033133468
 30
0.0
 40
1.0
  0
CIRCLE
  5
218
100
AcDbEntity
  8
0
  6
Continuous
 62
               7
100
AcDbCircle
 10
926.43620036385778
 20
435.24800015270546
 30
0.0
 40
0.1
  0
CIRCLE
  5
219
100
AcDbEntity
  8
0
  6
Continuous
 62
               7
100
AcDbCircle
 10
929.74185104878939
 20
423.31562885435017
 30
0.0
 40
0.5
  0
CIRCLE
  5
21A
100
AcDbEntity
  8
0
  6
Continuous
 62
               7
100
AcDbCircle
 10
917.5363715967344
 20
429.2362964779112
 30
0.0
 40
0.1
  0
CIRCLE
  5
21B
100
AcDbEntity
  8
0
  6
Continuous
 62
               7
100
AcDbCircle
 10
921.09630310358375
 20
448.61502033133468
 30
0.0
 40
0.1
  0
CIRCLE
  5
21C
100
AcDbEntity
  8
0
  6
Continuous
 62
               7
100
AcDbCircle
 10
940.34758735015907
 20
419.17492698421358
 30
0.0
 40
1.0
  0
CIRCLE
  5
21D
100
AcDbEntity
  8
0
  6
Continuous
 62
               7
100
AcDbCircle
 10
935.00769008988505
 20
441.93151024202018
 30
0.0
 40
0.5
  0
CIRCLE
  5
21E
100
AcDbEntity
  8
0
  6
Continuous
 62
               7
100
AcDbCircle
 10
944.41608050084437
 20
448.61502033133468
 30
0.0
 40
1.0
  0
CIRCLE
  5
21F
100
AcDbEntity
  8
0
  6
Continuous
 62
               7
100
AcDbCircle
 10
943.14467639125519
 20
435.24800015270546
 30
0.0
 40
0.1
  0
CIRCLE
  5
220
100
AcDbEntity
  8
0
  6
Continuous
 62
               7
100
AcDbCircle
 10
946.4503270761868
 20
423.31562885435017
 30
0.0
 40
0.5
  0
CIRCLE
  5
221
100
AcDbEntity
  8
0
  6
Continuous
 62
               7
100
AcDbCircle
 10
934.24484762413181
 20
429.2362964779112
 30
0.0
 40
0.1
  0
CIRCLE
  5
222
100
AcDbEntity
  8
0
  6
Continuous
 62
               7
100
AcDbCircle
 10
937.80477913098116
 20
448.61502033133468
 30
0.0
 40
0.1
  0
CIRCLE
  5
223
100
AcDbEntity
  8
0
  6
Continuous
 62
               7
100
AcDbCircle
 10
957.05606337755648
 20
419.17492698421358
 30
0.0
 40
1.0
  0
CIRCLE
  5
224
100
AcDbEntity
  8
0
  6
Continuous
 62
               7
100
AcDbCircle
 10
951.71616611728291
 20
441.93151024202018
 30
0.0
 40
0.5
  0
CIRCLE
  5
225
100
AcDbEntity
  8
0
  6
Continuous
 62
               7
100
AcDbCircle
 10
959.8531524186526
 20
435.24800015270546
 30
0.0
 40
0.1
  0
CIRCLE
  5
226
100
AcDbEntity
  8
0
  6
Continuous
 62
               7
100
AcDbCircle
 10
950.95332365152922
 20
429.2362964779112
 30
0.0
 40
0.1
  0
CIRCLE
  5
227
100
AcDbEntity
  8
0
  6
Continuous
 62
               7
100
AcDbCircle
 10
954.51325515837857
 20
448.61502033133468
 30
0.0
 40
0.1
  0
CIRCLE
  5
228
100
AcDbEntity
  8
0
  6
Continuous
 62
               7
100
AcDbCircle
 10
873.51368324056989
 20
388.77419234476599
 30
0.0
 40
1.0
  0
CIRCLE
  5
229
100
AcDbEntity
  8
0
  6
Continuous
 62
               7
100
AcDbCircle
 10
876.31077228166555
 20
404.84726551325787
 30
0.0
 40
0.1
  0
CIRCLE
  5
22A
100
AcDbEntity
  8
0
  6
Continuous
 62
               7
100
AcDbCircle
 10
879.61642296659716
 20
392.91489421490235
 30
0.0
 40
0.5
  0
CIRCLE
  5
22B
100
AcDbEntity
  8
0
  6
Continuous
 62
               7
100
AcDbCircle
 10
890.2221592679673
 20
388.77419234476599
 30
0.0
 40
1.0
  0
CIRCLE
  5
22C
100
AcDbEntity
  8
0
  6
Continuous
 62
               7
100
AcDbCircle
 10
877.5589743364601
 20
411.53077560257236
 30
0.0
 40
0.5
  0
CIRCLE
  5
22D
100
AcDbEntity
  8
0
  6
Continuous
 62
               7
100
AcDbCircle
 10
893.01924830906296
 20
404.84726551325787
 30
0.0
 40
0.1
  0
CIRCLE
  5
22E
100
AcDbEntity
  8
0
  6
Continuous
 62
               7
100
AcDbCircle
 10
896.32489899399457
 20
392.91489421490235
 30
0.0
 40
0.5
  0
CIRCLE
  5
22F
100
AcDbEntity
  8
0
  6
Continuous
 62
               7
100
AcDbCircle
 10
884.11941954193958
 20
398.8355618384636
 30
0.0
 40
0.1
  0
CIRCLE
  5
230
100
AcDbEntity
  8
0
  6
Continuous
 62
               7
100
AcDbCircle
 10
884.88226200769327
 20
386.23138412558785
 30
0.0
 40
0.1
  0
CIRCLE
  5
231
100
AcDbEntity
  8
0
  6
Continuous
 62
               7
100
AcDbCircle
 10
906.93063529536471
 20
388.77419234476599
 30
0.0
 40
1.0
  0
CIRCLE
  5
232
100
AcDbEntity
  8
0
  6
Continuous
 62
               7
100
AcDbCircle
 10
894.26745036385751
 20
411.53077560257236
 30
0.0
 40
0.5
  0
CIRCLE
  5
233
100
AcDbEntity
  8
0
  6
Continuous
 62
               7
100
AcDbCircle
 10
909.72772433646037
 20
404.84726551325787
 30
0.0
 40
0.1
  0
CIRCLE
  5
234
100
AcDbEntity
  8
0
  6
Continuous
 62
               7
100
AcDbCircle
 10
913.03337502139198
 20
392.91489421490235
 30
0.0
 40
0.5
  0
CIRCLE
  5
235
100
AcDbEntity
  8
0
  6
Continuous
 62
               7
100
AcDbCircle
 10
900.82789556933699
 20
398.8355618384636
 30
0.0
 40
0.1
  0
CIRCLE
  5
236
100
AcDbEntity
  8
0
  6
Continuous
 62
               7
100
AcDbCircle
 10
901.59073803509023
 20
386.23138412558785
 30
0.0
 40
0.1
  0
CIRCLE
  5
237
100
AcDbEntity
  8
0
  6
Continuous
 62
               7
100
AcDbCircle
 10
923.63911132276166
 20
388.77419234476599
 30
0.0
 40
1.0
  0
CIRCLE
  5
238
100
AcDbEntity
  8
0
  6
Continuous
 62
               7
100
AcDbCircle
 10
910.97592639125492
 20
411.53077560257236
 30
0.0
 40
0.5
  0
CIRCLE
  5
239
100
AcDbEntity
  8
0
  6
Continuous
 62
               7
100
AcDbCircle
 10
926.43620036385778
 20
404.84726551325787
 30
0.0
 40
0.1
  0
CIRCLE
  5
23A
100
AcDbEntity
  8
0
  6
Continuous
 62
               7
100
AcDbCircle
 10
929.74185104878939
 20
392.91489421490235
 30
0.0
 40
0.5
  0
CIRCLE
  5
23B
100
AcDbEntity
  8
0
  6
Continuous
 62
               7
100
AcDbCircle
 10
917.5363715967344
 20
398.8355618384636
 30
0.0
 40
0.1
  0
CIRCLE
  5
23C
100
AcDbEntity
  8
0
  6
Continuous
 62
               7
100
AcDbCircle
 10
918.29921406248809
 20
386.23138412558785
 30
0.0
 40
0.1
  0
CIRCLE
  5
23D
100
AcDbEntity
  8
0
  6
Continuous
 62
               7
100
AcDbCircle
 10
940.34758735015907
 20
388.77419234476599
 30
0.0
 40
1.0
  0
CIRCLE
  5
23E
100
AcDbEntity
  8
0
  6
Continuous
 62
               7
100
AcDbCircle
 10
927.68440241865233
 20
411.53077560257236
 30
0.0
 40
0.5
  0
CIRCLE
  5
23F
100
AcDbEntity
  8
0
  6
Continuous
 62
               7
100
AcDbCircle
 10
943.14467639125519
 20
404.84726551325787
 30
0.0
 40
0.1
  0
CIRCLE
  5
240
100
AcDbEntity
  8
0
  6
Continuous
 62
               7
100
AcDbCircle
 10
946.4503270761868
 20
392.91489421490235
 30
0.0
 40
0.5
  0
CIRCLE
  5
241
100
AcDbEntity
  8
0
  6
Continuous
 62
               7
100
AcDbCircle
 10
934.24484762413181
 20
398.8355618384636
 30
0.0
 40
0.1
  0
CIRCLE
  5
242
100
AcDbEntity
  8
0
  6
Continuous
 62
               7
100
AcDbCircle
 10
935.00769008988505
 20
386.23138412558785
 30
0.0
 40
0.1
  0
CIRCLE
  5
243
100
AcDbEntity
  8
0
  6
Continuous
 62
               7
100
AcDbCircle
 10
957.05606337755648
 20
388.77419234476599
 30
0.0
 40
1.0
  0
CIRCLE
  5
244
100
AcDbEntity
  8
0
  6
Continuous
 62
               7
100
AcDbCircle
 10
944.39287844604974
 20
411.53077560257236
 30
0.0
 40
0.5
  0
CIRCLE
  5
245
100
AcDbEntity
  8
0
  6
Continuous
 62
               7
100
AcDbCircle
 10
959.8531524186526
 20
404.84726551325787
 30
0.0
 40
0.1
  0
CIRCLE
  5
246
100
AcDbEntity
  8
0
  6
Continuous
 62
               7
100
AcDbCircle
 10
950.95332365152922
 20
398.8355618384636
 30
0.0
 40
0.1
  0
CIRCLE
  5
247
100
AcDbEntity
  8
0
  6
Continuous
 62
               7
100
AcDbCircle
 10
951.71616611728291
 20
386.23138412558785
 30
0.0
 40
0.1
  0
CIRCLE
  5
248
100
AcDbEntity
  8
0
  6
Continuous
 62
               7
100
AcDbCircle
 10
968.41042088245717
 20
417.59155538840912
 30
0.0
 40
1.0
  0
CIRCLE
  5
249
100
AcDbEntity
  8
0
  6
Continuous
 62
               7
100
AcDbCircle
 10
972.47891403314247
 20
447.03164873553021
 30
0.0
 40
1.0
  0
CIRCLE
  5
24A
100
AcDbEntity
  8
0
  6
Continuous
 62
               7
100
AcDbCircle
 10
971.20750992355329
 20
433.66462855690099
 30
0.0
 40
0.1
  0
CIRCLE
  5
24B
100
AcDbEntity
  8
0
  6
Continuous
 62
               7
100
AcDbCircle
 10
974.5131606084849
 20
421.73225725854547
 30
0.0
 40
0.5
  0
CIRCLE
  5
24C
100
AcDbEntity
  8
0
  6
Continuous
 62
               7
100
AcDbCircle
 10
965.86761266327926
 20
447.03164873553021
 30
0.0
 40
0.1
  0
CIRCLE
  5
24D
100
AcDbEntity
  8
0
  6
Continuous
 62
               7
100
AcDbCircle
 10
985.11889690985458
 20
417.59155538840912
 30
0.0
 40
1.0
  0
CIRCLE
  5
24E
100
AcDbEntity
  8
0
  6
Continuous
 62
               7
100
AcDbCircle
 10
979.77899964958056
 20
440.34813864621549
 30
0.0
 40
0.5
  0
CIRCLE
  5
24F
100
AcDbEntity
  8
0
  6
Continuous
 62
               7
100
AcDbCircle
 10
989.18739006053943
 20
447.03164873553021
 30
0.0
 40
1.0
  0
CIRCLE
  5
250
100
AcDbEntity
  8
0
  6
Continuous
 62
               7
100
AcDbCircle
 10
987.9159859509507
 20
433.66462855690099
 30
0.0
 40
0.1
  0
CIRCLE
  5
251
100
AcDbEntity
  8
0
  6
Continuous
 62
               7
100
AcDbCircle
 10
991.22163663588185
 20
421.73225725854547
 30
0.0
 40
0.5
  0
CIRCLE
  5
252
100
AcDbEntity
  8
0
  6
Continuous
 62
               7
100
AcDbCircle
 10
979.01615718382732
 20
427.65292488210673
 30
0.0
 40
0.1
  0
CIRCLE
  5
253
100
AcDbEntity
  8
0
  6
Continuous
 62
               7
100
AcDbCircle
 10
982.57608869067667
 20
447.03164873553021
 30
0.0
 40
0.1
  0
CIRCLE
  5
254
100
AcDbEntity
  8
0
  6
Continuous
 62
               7
100
AcDbCircle
 10
1001.827372937252
 20
417.59155538840912
 30
0.0
 40
1.0
  0
CIRCLE
  5
255
100
AcDbEntity
  8
0
  6
Continuous
 62
               7
100
AcDbCircle
 10
996.48747567697797
 20
440.34813864621549
 30
0.0
 40
0.5
  0
CIRCLE
  5
256
100
AcDbEntity
  8
0
  6
Continuous
 62
               7
100
AcDbCircle
 10
1005.8958660879368
 20
447.03164873553021
 30
0.0
 40
1.0
  0
CIRCLE
  5
257
100
AcDbEntity
  8
0
  6
Continuous
 62
               7
100
AcDbCircle
 10
1004.6244619783477
 20
433.66462855690099
 30
0.0
 40
0.1
  0
CIRCLE
  5
258
100
AcDbEntity
  8
0
  6
Continuous
 62
               7
100
AcDbCircle
 10
1007.9301126632793
 20
421.73225725854547
 30
0.0
 40
0.5
  0
CIRCLE
  5
259
100
AcDbEntity
  8
0
  6
Continuous
 62
               7
100
AcDbCircle
 10
995.72463321122473
 20
427.65292488210673
 30
0.0
 40
0.1
  0
CIRCLE
  5
25A
100
AcDbEntity
  8
0
  6
Continuous
 62
               7
100
AcDbCircle
 10
999.28456471807363
 20
447.03164873553021
 30
0.0
 40
0.1
  0
CIRCLE
  5
25B
100
AcDbEntity
  8
0
  6
Continuous
 62
               7
100
AcDbCircle
 10
1018.5358489646494
 20
417.59155538840912
 30
0.0
 40
1.0
  0
CIRCLE
  5
25C
100
AcDbEntity
  8
0
  6
Continuous
 62
               7
100
AcDbCircle
 10
1013.1959517043754
 20
440.34813864621549
 30
0.0
 40
0.5
  0
CIRCLE
  5
25D
100
AcDbEntity
  8
0
  6
Continuous
 62
               7
100
AcDbCircle
 10
1022.6043421153342
 20
447.03164873553021
 30
0.0
 40
1.0
  0
CIRCLE
  5
25E
100
AcDbEntity
  8
0
  6
Continuous
 62
               7
100
AcDbCircle
 10
1021.3329380057455
 20
433.66462855690099
 30
0.0
 40
0.1
  0
CIRCLE
  5
25F
100
AcDbEntity
  8
0
  6
Continuous
 62
               7
100
AcDbCircle
 10
1024.6385886906767
 20
421.73225725854547
 30
0.0
 40
0.5
  0
CIRCLE
  5
260
100
AcDbEntity
  8
0
  6
Continuous
 62
               7
100
AcDbCircle
 10
1012.4331092386217
 20
427.65292488210673
 30
0.0
 40
0.1
  0
CIRCLE
  5
261
100
AcDbEntity
  8
0
  6
Continuous
 62
               7
100
AcDbCircle
 10
1015.9930407454715
 20
447.03164873553021
 30
0.0
 40
0.1
  0
CIRCLE
  5
262
100
AcDbEntity
  8
0
  6
Continuous
 62
               7
100
AcDbCircle
 10
1035.2443249920468
 20
417.59155538840912
 30
0.0
 40
1.0
  0
CIRCLE
  5
263
100
AcDbEntity
  8
0
  6
Continuous
 62
               7
100
AcDbCircle
 10
1029.9044277317728
 20
440.34813864621549
 30
0.0
 40
0.5
  0
CIRCLE
  5
264
100
AcDbEntity
  8
0
  6
Continuous
 62
               7
100
AcDbCircle
 10
1039.3128181427317
 20
447.03164873553021
 30
0.0
 40
1.0
  0
CIRCLE
  5
265
100
AcDbEntity
  8
0
  6
Continuous
 62
               7
100
AcDbCircle
 10
1038.0414140331429
 20
433.66462855690099
 30
0.0
 40
0.1
  0
CIRCLE
  5
266
100
AcDbEntity
  8
0
  6
Continuous
 62
               7
100
AcDbCircle
 10
1041.3470647180741
 20
421.73225725854547
 30
0.0
 40
0.5
  0
CIRCLE
  5
267
100
AcDbEntity
  8
0
  6
Continuous
 62
               7
100
AcDbCircle
 10
1029.1415852660195
 20
427.65292488210673
 30
0.0
 40
0.1
  0
CIRCLE
  5
268
100
AcDbEntity
  8
0
  6
Continuous
 62
               7
100
AcDbCircle
 10
1032.7015167728689
 20
447.03164873553021
 30
0.0
 40
0.1
  0
CIRCLE
  5
269
100
AcDbEntity
  8
0
  6
Continuous
 62
               7
100
AcDbCircle
 10
1051.9528010194442
 20
417.59155538840912
 30
0.0
 40
1.0
  0
CIRCLE
  5
26A
100
AcDbEntity
  8
0
  6
Continuous
 62
               7
100
AcDbCircle
 10
1046.6129037591702
 20
440.34813864621549
 30
0.0
 40
0.5
  0
CIRCLE
  5
26B
100
AcDbEntity
  8
0
  6
Continuous
 62
               7
100
AcDbCircle
 10
1054.7498900605399
 20
433.66462855690099
 30
0.0
 40
0.1
  0
CIRCLE
  5
26C
100
AcDbEntity
  8
0
  6
Continuous
 62
               7
100
AcDbCircle
 10
1045.8500612934165
 20
427.65292488210673
 30
0.0
 40
0.1
  0
CIRCLE
  5
26D
100
AcDbEntity
  8
0
  6
Continuous
 62
               7
100
AcDbCircle
 10
1049.4099928002663
 20
447.03164873553021
 30
0.0
 40
0.1
  0
CIRCLE
  5
26E
100
AcDbEntity
  8
0
  6
Continuous
 62
               7
100
AcDbCircle
 10
968.41042088245717
 20
387.1908207489613
 30
0.0
 40
1.0
  0
CIRCLE
  5
26F
100
AcDbEntity
  8
0
  6
Continuous
 62
               7
100
AcDbCircle
 10
971.20750992355329
 20
403.26389391745317
 30
0.0
 40
0.1
  0
CIRCLE
  5
270
100
AcDbEntity
  8
0
  6
Continuous
 62
               7
100
AcDbCircle
 10
974.5131606084849
 20
391.33152261909788
 30
0.0
 40
0.5
  0
CIRCLE
  5
271
100
AcDbEntity
  8
0
  6
Continuous
 62
               7
100
AcDbCircle
 10
985.11889690985458
 20
387.1908207489613
 30
0.0
 40
1.0
  0
CIRCLE
  5
272
100
AcDbEntity
  8
0
  6
Continuous
 62
               7
100
AcDbCircle
 10
972.45571197834784
 20
409.94740400676767
 30
0.0
 40
0.5
  0
CIRCLE
  5
273
100
AcDbEntity
  8
0
  6
Continuous
 62
               7
100
AcDbCircle
 10
987.9159859509507
 20
403.26389391745317
 30
0.0
 40
0.1
  0
CIRCLE
  5
274
100
AcDbEntity
  8
0
  6
Continuous
 62
               7
100
AcDbCircle
 10
991.22163663588185
 20
391.33152261909788
 30
0.0
 40
0.5
  0
CIRCLE
  5
275
100
AcDbEntity
  8
0
  6
Continuous
 62
               7
100
AcDbCircle
 10
979.01615718382732
 20
397.25219024265891
 30
0.0
 40
0.1
  0
CIRCLE
  5
276
100
AcDbEntity
  8
0
  6
Continuous
 62
               7
100
AcDbCircle
 10
979.77899964958056
 20
384.64801252978316
 30
0.0
 40
0.1
  0
CIRCLE
  5
277
100
AcDbEntity
  8
0
  6
Continuous
 62
               7
100
AcDbCircle
 10
1001.827372937252
 20
387.1908207489613
 30
0.0
 40
1.0
  0
CIRCLE
  5
278
100
AcDbEntity
  8
0
  6
Continuous
 62
               7
100
AcDbCircle
 10
989.16418800574525
 20
409.94740400676767
 30
0.0
 40
0.5
  0
CIRCLE
  5
279
100
AcDbEntity
  8
0
  6
Continuous
 62
               7
100
AcDbCircle
 10
1004.6244619783477
 20
403.26389391745317
 30
0.0
 40
0.1
  0
CIRCLE
  5
27A
100
AcDbEntity
  8
0
  6
Continuous
 62
               7
100
AcDbCircle
 10
1007.9301126632793
 20
391.33152261909788
 30
0.0
 40
0.5
  0
CIRCLE
  5
27B
100
AcDbEntity
  8
0
  6
Continuous
 62
               7
100
AcDbCircle
 10
995.72463321122473
 20
397.25219024265891
 30
0.0
 40
0.1
  0
CIRCLE
  5
27C
100
AcDbEntity
  8
0
  6
Continuous
 62
               7
100
AcDbCircle
 10
996.48747567697797
 20
384.64801252978316
 30
0.0
 40
0.1
  0
CIRCLE
  5
27D
100
AcDbEntity
  8
0
  6
Continuous
 62
               7
100
AcDbCircle
 10
1018.5358489646494
 20
387.1908207489613
 30
0.0
 40
1.0
  0
CIRCLE
  5
27E
100
AcDbEntity
  8
0
  6
Continuous
 62
               7
100
AcDbCircle
 10
1005.8726640331427
 20
409.94740400676767
 30
0.0
 40
0.5
  0
CIRCLE
  5
27F
100
AcDbEntity
  8
0
  6
Continuous
 62
               7
100
AcDbCircle
 10
1021.3329380057455
 20
403.26389391745317
 30
0.0
 40
0.1
  0
CIRCLE
  5
280
100
AcDbEntity
  8
0
  6
Continuous
 62
               7
100
AcDbCircle
 10
1024.6385886906767
 20
391.33152261909788
 30
0.0
 40
0.5
  0
CIRCLE
  5
281
100
AcDbEntity
  8
0
  6
Continuous
 62
               7
100
AcDbCircle
 10
1012.4331092386217
 20
397.25219024265891
 30
0.0
 40
0.1
  0
CIRCLE
  5
282
100
AcDbEntity
  8
0
  6
Continuous
 62
               7
100
AcDbCircle
 10
1013.1959517043754
 20
384.64801252978316
 30
0.0
 40
0.1
  0
CIRCLE
  5
283
100
AcDbEntity
  8
0
  6
Continuous
 62
               7
100
AcDbCircle
 10
1035.2443249920468
 20
387.1908207489613
 30
0.0
 40
1.0
  0
CIRCLE
  5
284
100
AcDbEntity
  8
0
  6
Continuous
 62
               7
100
AcDbCircle
 10
1022.5811400605401
 20
409.94740400676767
 30
0.0
 40
0.5
  0
CIRCLE
  5
285
100
AcDbEntity
  8
0
  6
Continuous
 62
               7
100
AcDbCircle
 10
1038.0414140331429
 20
403.26389391745317
 30
0.0
 40
0.1
  0
CIRCLE
  5
286
100
AcDbEntity
  8
0
  6
Continuous
 62
               7
100
AcDbCircle
 10
1041.3470647180741
 20
391.33152261909788
 30
0.0
 40
0.5
  0
CIRCLE
  5
287
100
AcDbEntity
  8
0
  6
Continuous
 62
               7
100
AcDbCircle
 10
1029.1415852660195
 20
397.25219024265891
 30
0.0
 40
0.1
  0
CIRCLE
  5
288
100
AcDbEntity
  8
0
  6
Continuous
 62
               7
100
AcDbCircle
 10
1029.9044277317728
 20
384.64801252978316
 30
0.0
 40
0.1
  0
CIRCLE
  5
289
100
AcDbEntity
  8
0
  6
Continuous
 62
               7
100
AcDbCircle
 10
1051.9528010194442
 20
387.1908207489613
 30
0.0
 40
1.0
  0
CIRCLE
  5
28A
100
AcDbEntity
  8
0
  6
Continuous
 62
               7
100
AcDbCircle
 10
1039.2896160879375
 20
409.94740400676767
 30
0.0
 40
0.5
  0
CIRCLE
  5
28B
100
AcDbEntity
  8
0
  6
Continuous
 62
               7
100
AcDbCircle
 10
1054.7498900605399
 20
403.26389391745317
 30
0.0
 40
0.1
  0
CIRCLE
  5
28C
100
AcDbEntity
  8
0
  6
Continuous
 62
               7
100
AcDbCircle
 10
1045.8500612934165
 20
397.25219024265891
 30
0.0
 40
0.1
  0
CIRCLE
  5
28D
100
AcDbEntity
  8
0
  6
Continuous
 62
               7
100
AcDbCircle
 10
1046.6129037591702
 20
384.64801252978316
 30
0.0
 40
0.1
  0
CIRCLE
  5
28E
100
AcDbEntity
  8
0
  6
Continuous
 62
               7
100
AcDbCircle
 10
620.89586608793638
 20
447.03164873553021
 30
0.0
 40
1.0
  0
CIRCLE
  5
28F
100
AcDbEntity
  8
0
  6
Continuous
 62
               7
100
AcDbCircle
 10
619.6244619783472
 20
433.66462855690099
 30
0.0
 40
0.1
  0
CIRCLE
  5
290
100
AcDbEntity
  8
0
  6
Continuous
 62
               7
100
AcDbCircle
 10
622.93011266327881
 20
421.73225725854547
 30
0.0
 40
0.5
  0
CIRCLE
  5
291
100
AcDbEntity
  8
0
  6
Continuous
 62
               7
100
AcDbCircle
 10
633.53584896464895
 20
417.59155538840912
 30
0.0
 40
1.0
  0
CIRCLE
  5
292
100
AcDbEntity
  8
0
  6
Continuous
 62
               7
100
AcDbCircle
 10
628.19595170437447
 20
440.34813864621549
 30
0.0
 40
0.5
  0
CIRCLE
  5
293
100
AcDbEntity
  8
0
  6
Continuous
 62
               7
100
AcDbCircle
 10
637.60434211533379
 20
447.03164873553021
 30
0.0
 40
1.0
  0
CIRCLE
  5
294
100
AcDbEntity
  8
0
  6
Continuous
 62
               7
100
AcDbCircle
 10
636.33293800574461
 20
433.66462855690099
 30
0.0
 40
0.1
  0
CIRCLE
  5
295
100
AcDbEntity
  8
0
  6
Continuous
 62
               7
100
AcDbCircle
 10
639.63858869067622
 20
421.73225725854547
 30
0.0
 40
0.5
  0
CIRCLE
  5
296
100
AcDbEntity
  8
0
  6
Continuous
 62
               7
100
AcDbCircle
 10
627.43310923862123
 20
427.65292488210673
 30
0.0
 40
0.1
  0
CIRCLE
  5
297
100
AcDbEntity
  8
0
  6
Continuous
 62
               7
100
AcDbCircle
 10
630.99304074547058
 20
447.03164873553021
 30
0.0
 40
0.1
  0
CIRCLE
  5
298
100
AcDbEntity
  8
0
  6
Continuous
 62
               7
100
AcDbCircle
 10
650.2443249920459
 20
417.59155538840912
 30
0.0
 40
1.0
  0
CIRCLE
  5
299
100
AcDbEntity
  8
0
  6
Continuous
 62
               7
100
AcDbCircle
 10
644.90442773177188
 20
440.34813864621549
 30
0.0
 40
0.5
  0
CIRCLE
  5
29A
100
AcDbEntity
  8
0
  6
Continuous
 62
               7
100
AcDbCircle
 10
654.3128181427312
 20
447.03164873553021
 30
0.0
 40
1.0
  0
CIRCLE
  5
29B
100
AcDbEntity
  8
0
  6
Continuous
 62
               7
100
AcDbCircle
 10
653.04141403314202
 20
433.66462855690099
 30
0.0
 40
0.1
  0
CIRCLE
  5
29C
100
AcDbEntity
  8
0
  6
Continuous
 62
               7
100
AcDbCircle
 10
656.34706471807363
 20
421.73225725854547
 30
0.0
 40
0.5
  0
CIRCLE
  5
29D
100
AcDbEntity
  8
0
  6
Continuous
 62
               7
100
AcDbCircle
 10
644.14158526601864
 20
427.65292488210673
 30
0.0
 40
0.1
  0
CIRCLE
  5
29E
100
AcDbEntity
  8
0
  6
Continuous
 62
               7
100
AcDbCircle
 10
647.70151677286799
 20
447.03164873553021
 30
0.0
 40
0.1
  0
CIRCLE
  5
29F
100
AcDbEntity
  8
0
  6
Continuous
 62
               7
100
AcDbCircle
 10
666.95280101944331
 20
417.59155538840912
 30
0.0
 40
1.0
  0
CIRCLE
  5
2A0
100
AcDbEntity
  8
0
  6
Continuous
 62
               7
100
AcDbCircle
 10
661.61290375916928
 20
440.34813864621549
 30
0.0
 40
0.5
  0
CIRCLE
  5
2A1
100
AcDbEntity
  8
0
  6
Continuous
 62
               7
100
AcDbCircle
 10
669.74989006053943
 20
433.66462855690099
 30
0.0
 40
0.1
  0
CIRCLE
  5
2A2
100
AcDbEntity
  8
0
  6
Continuous
 62
               7
100
AcDbCircle
 10
660.85006129341605
 20
427.65292488210673
 30
0.0
 40
0.1
  0
CIRCLE
  5
2A3
100
AcDbEntity
  8
0
  6
Continuous
 62
               7
100
AcDbCircle
 10
664.4099928002654
 20
447.03164873553021
 30
0.0
 40
0.1
  0
CIRCLE
  5
2A4
100
AcDbEntity
  8
0
  6
Continuous
 62
               7
100
AcDbCircle
 10
619.6244619783472
 20
403.26389391745317
 30
0.0
 40
0.1
  0
CIRCLE
  5
2A5
100
AcDbEntity
  8
0
  6
Continuous
 62
               7
100
AcDbCircle
 10
622.93011266327881
 20
391.33152261909788
 30
0.0
 40
0.5
  0
CIRCLE
  5
2A6
100
AcDbEntity
  8
0
  6
Continuous
 62
               7
100
AcDbCircle
 10
633.53584896464895
 20
387.1908207489613
 30
0.0
 40
1.0
  0
CIRCLE
  5
2A7
100
AcDbEntity
  8
0
  6
Continuous
 62
               7
100
AcDbCircle
 10
620.87266403314175
 20
409.94740400676767
 30
0.0
 40
0.5
  0
CIRCLE
  5
2A8
100
AcDbEntity
  8
0
  6
Continuous
 62
               7
100
AcDbCircle
 10
636.33293800574461
 20
403.26389391745317
 30
0.0
 40
0.1
  0
CIRCLE
  5
2A9
100
AcDbEntity
  8
0
  6
Continuous
 62
               7
100
AcDbCircle
 10
639.63858869067622
 20
391.33152261909788
 30
0.0
 40
0.5
  0
CIRCLE
  5
2AA
100
AcDbEntity
  8
0
  6
Continuous
 62
               7
100
AcDbCircle
 10
627.43310923862123
 20
397.25219024265891
 30
0.0
 40
0.1
  0
CIRCLE
  5
2AB
100
AcDbEntity
  8
0
  6
Continuous
 62
               7
100
AcDbCircle
 10
628.19595170437447
 20
384.64801252978316
 30
0.0
 40
0.1
  0
CIRCLE
  5
2AC
100
AcDbEntity
  8
0
  6
Continuous
 62
               7
100
AcDbCircle
 10
650.2443249920459
 20
387.1908207489613
 30
0.0
 40
1.0
  0
CIRCLE
  5
2AD
100
AcDbEntity
  8
0
  6
Continuous
 62
               7
100
AcDbCircle
 10
637.58114006053916
 20
409.94740400676767
 30
0.0
 40
0.5
  0
CIRCLE
  5
2AE
100
AcDbEntity
  8
0
  6
Continuous
 62
               7
100
AcDbCircle
 10
653.04141403314202
 20
403.26389391745317
 30
0.0
 40
0.1
  0
CIRCLE
  5
2AF
100
AcDbEntity
  8
0
  6
Continuous
 62
               7
100
AcDbCircle
 10
656.34706471807363
 20
391.33152261909788
 30
0.0
 40
0.5
  0
CIRCLE
  5
2B0
100
AcDbEntity
  8
0
  6
Continuous
 62
               7
100
AcDbCircle
 10
644.14158526601864
 20
397.25219024265891
 30
0.0
 40
0.1
  0
CIRCLE
  5
2B1
100
AcDbEntity
  8
0
  6
Continuous
 62
               7
100
AcDbCircle
 10
644.90442773177188
 20
384.64801252978316
 30
0.0
 40
0.1
  0
CIRCLE
  5
2B2
100
AcDbEntity
  8
0
  6
Continuous
 62
               7
100
AcDbCircle
 10
666.95280101944331
 20
387.1908207489613
 30
0.0
 40
1.0
  0
CIRCLE
  5
2B3
100
AcDbEntity
  8
0
  6
Continuous
 62
               7
100
AcDbCircle
 10
654.28961608793657
 20
409.94740400676767
 30
0.0
 40
0.5
  0
CIRCLE
  5
2B4
100
AcDbEntity
  8
0
  6
Continuous
 62
               7
100
AcDbCircle
 10
669.74989006053943
 20
403.26389391745317
 30
0.0
 40
0.1
  0
CIRCLE
  5
2B5
100
AcDbEntity
  8
0
  6
Continuous
 62
               7
100
AcDbCircle
 10
660.85006129341605
 20
397.25219024265891
 30
0.0
 40
0.1
  0
CIRCLE
  5
2B6
100
AcDbEntity
  8
0
  6
Continuous
 62
               7
100
AcDbCircle
 10
661.61290375916928
 20
384.64801252978316
 30
0.0
 40
0.1
  0
CIRCLE
  5
2B7
100
AcDbEntity
  8
0
  6
Continuous
 62
               7
100
AcDbCircle
 10
676.61262480080018
 20
417.59155538840912
 30
0.0
 40
1.0
  0
CIRCLE
  5
2B8
100
AcDbEntity
  8
0
  6
Continuous
 62
               7
100
AcDbCircle
 10
680.68111795148502
 20
447.03164873553021
 30
0.0
 40
1.0
  0
CIRCLE
  5
2B9
100
AcDbEntity
  8
0
  6
Continuous
 62
               7
100
AcDbCircle
 10
679.40971384189584
 20
433.66462855690099
 30
0.0
 40
0.1
  0
CIRCLE
  5
2BA
100
AcDbEntity
  8
0
  6
Continuous
 62
               7
100
AcDbCircle
 10
682.71536452682744
 20
421.73225725854547
 30
0.0
 40
0.5
  0
CIRCLE
  5
2BB
100
AcDbEntity
  8
0
  6
Continuous
 62
               7
100
AcDbCircle
 10
672.06981658162181
 20
447.03164873553021
 30
0.0
 40
0.1
  0
CIRCLE
  5
2BC
100
AcDbEntity
  8
0
  6
Continuous
 62
               7
100
AcDbCircle
 10
693.32110082819759
 20
417.59155538840912
 30
0.0
 40
1.0
  0
CIRCLE
  5
2BD
100
AcDbEntity
  8
0
  6
Continuous
 62
               7
100
AcDbCircle
 10
687.98120356792356
 20
440.34813864621549
 30
0.0
 40
0.5
  0
CIRCLE
  5
2BE
100
AcDbEntity
  8
0
  6
Continuous
 62
               7
100
AcDbCircle
 10
697.38959397888243
 20
447.03164873553021
 30
0.0
 40
1.0
  0
CIRCLE
  5
2BF
100
AcDbEntity
  8
0
  6
Continuous
 62
               7
100
AcDbCircle
 10
696.11818986929325
 20
433.66462855690099
 30
0.0
 40
0.1
  0
CIRCLE
  5
2C0
100
AcDbEntity
  8
0
  6
Continuous
 62
               7
100
AcDbCircle
 10
699.42384055422485
 20
421.73225725854547
 30
0.0
 40
0.5
  0
CIRCLE
  5
2C1
100
AcDbEntity
  8
0
  6
Continuous
 62
               7
100
AcDbCircle
 10
687.21836110216987
 20
427.65292488210673
 30
0.0
 40
0.1
  0
CIRCLE
  5
2C2
100
AcDbEntity
  8
0
  6
Continuous
 62
               7
100
AcDbCircle
 10
690.77829260901922
 20
447.03164873553021
 30
0.0
 40
0.1
  0
CIRCLE
  5
2C3
100
AcDbEntity
  8
0
  6
Continuous
 62
               7
100
AcDbCircle
 10
710.02957685559454
 20
417.59155538840912
 30
0.0
 40
1.0
  0
CIRCLE
  5
2C4
100
AcDbEntity
  8
0
  6
Continuous
 62
               7
100
AcDbCircle
 10
704.68967959532051
 20
440.34813864621549
 30
0.0
 40
0.5
  0
CIRCLE
  5
2C5
100
AcDbEntity
  8
0
  6
Continuous
 62
               7
100
AcDbCircle
 10
714.09807000627984
 20
447.03164873553021
 30
0.0
 40
1.0
  0
CIRCLE
  5
2C6
100
AcDbEntity
  8
0
  6
Continuous
 62
               7
100
AcDbCircle
 10
712.82666589669066
 20
433.66462855690099
 30
0.0
 40
0.1
  0
CIRCLE
  5
2C7
100
AcDbEntity
  8
0
  6
Continuous
 62
               7
100
AcDbCircle
 10
716.13231658162226
 20
421.73225725854547
 30
0.0
 40
0.5
  0
CIRCLE
  5
2C8
100
AcDbEntity
  8
0
  6
Continuous
 62
               7
100
AcDbCircle
 10
703.92683712956728
 20
427.65292488210673
 30
0.0
 40
0.1
  0
CIRCLE
  5
2C9
100
AcDbEntity
  8
0
  6
Continuous
 62
               7
100
AcDbCircle
 10
707.48676863641663
 20
447.03164873553021
 30
0.0
 40
0.1
  0
CIRCLE
  5
2CA
100
AcDbEntity
  8
0
  6
Continuous
 62
               7
100
AcDbCircle
 10
726.73805288299195
 20
417.59155538840912
 30
0.0
 40
1.0
  0
CIRCLE
  5
2CB
100
AcDbEntity
  8
0
  6
Continuous
 62
               7
100
AcDbCircle
 10
721.39815562271792
 20
440.34813864621549
 30
0.0
 40
0.5
  0
CIRCLE
  5
2CC
100
AcDbEntity
  8
0
  6
Continuous
 62
               7
100
AcDbCircle
 10
730.8065460336768
 20
447.03164873553021
 30
0.0
 40
1.0
  0
CIRCLE
  5
2CD
100
AcDbEntity
  8
0
  6
Continuous
 62
               7
100
AcDbCircle
 10
729.53514192408807
 20
433.66462855690099
 30
0.0
 40
0.1
  0
CIRCLE
  5
2CE
100
AcDbEntity
  8
0
  6
Continuous
 62
               7
100
AcDbCircle
 10
732.84079260901967
 20
421.73225725854547
 30
0.0
 40
0.5
  0
CIRCLE
  5
2CF
100
AcDbEntity
  8
0
  6
Continuous
 62
               7
100
AcDbCircle
 10
720.63531315696468
 20
427.65292488210673
 30
0.0
 40
0.1
  0
CIRCLE
  5
2D0
100
AcDbEntity
  8
0
  6
Continuous
 62
               7
100
AcDbCircle
 10
724.19524466381404
 20
447.03164873553021
 30
0.0
 40
0.1
  0
CIRCLE
  5
2D1
100
AcDbEntity
  8
0
  6
Continuous
 62
               7
100
AcDbCircle
 10
743.44652891038936
 20
417.59155538840912
 30
0.0
 40
1.0
  0
CIRCLE
  5
2D2
100
AcDbEntity
  8
0
  6
Continuous
 62
               7
100
AcDbCircle
 10
738.10663165011533
 20
440.34813864621549
 30
0.0
 40
0.5
  0
CIRCLE
  5
2D3
100
AcDbEntity
  8
0
  6
Continuous
 62
               7
100
AcDbCircle
 10
747.51502206107466
 20
447.03164873553021
 30
0.0
 40
1.0
  0
CIRCLE
  5
2D4
100
AcDbEntity
  8
0
  6
Continuous
 62
               7
100
AcDbCircle
 10
746.24361795148548
 20
433.66462855690099
 30
0.0
 40
0.1
  0
CIRCLE
  5
2D5
100
AcDbEntity
  8
0
  6
Continuous
 62
               7
100
AcDbCircle
 10
749.54926863641708
 20
421.73225725854547
 30
0.0
 40
0.5
  0
CIRCLE
  5
2D6
100
AcDbEntity
  8
0
  6
Continuous
 62
               7
100
AcDbCircle
 10
737.34378918436209
 20
427.65292488210673
 30
0.0
 40
0.1
  0
CIRCLE
  5
2D7
100
AcDbEntity
  8
0
  6
Continuous
 62
               7
100
AcDbCircle
 10
740.90372069121145
 20
447.03164873553021
 30
0.0
 40
0.1
  0
CIRCLE
  5
2D8
100
AcDbEntity
  8
0
  6
Continuous
 62
               7
100
AcDbCircle
 10
760.15500493778677
 20
417.59155538840912
 30
0.0
 40
1.0
  0
CIRCLE
  5
2D9
100
AcDbEntity
  8
0
  6
Continuous
 62
               7
100
AcDbCircle
 10
754.81510767751274
 20
440.34813864621549
 30
0.0
 40
0.5
  0
CIRCLE
  5
2DA
100
AcDbEntity
  8
0
  6
Continuous
 62
               7
100
AcDbCircle
 10
762.95209397888289
 20
433.66462855690099
 30
0.0
 40
0.1
  0
CIRCLE
  5
2DB
100
AcDbEntity
  8
0
  6
Continuous
 62
               7
100
AcDbCircle
 10
754.0522652117595
 20
427.65292488210673
 30
0.0
 40
0.1
  0
CIRCLE
  5
2DC
100
AcDbEntity
  8
0
  6
Continuous
 62
               7
100
AcDbCircle
 10
757.61219671860886
 20
447.03164873553021
 30
0.0
 40
0.1
  0
CIRCLE
  5
2DD
100
AcDbEntity
  8
0
  6
Continuous
 62
               7
100
AcDbCircle
 10
676.61262480080018
 20
387.1908207489613
 30
0.0
 40
1.0
  0
CIRCLE
  5
2DE
100
AcDbEntity
  8
0
  6
Continuous
 62
               7
100
AcDbCircle
 10
679.40971384189584
 20
403.26389391745317
 30
0.0
 40
0.1
  0
CIRCLE
  5
2DF
100
AcDbEntity
  8
0
  6
Continuous
 62
               7
100
AcDbCircle
 10
682.71536452682744
 20
391.33152261909788
 30
0.0
 40
0.5
  0
CIRCLE
  5
2E0
100
AcDbEntity
  8
0
  6
Continuous
 62
               7
100
AcDbCircle
 10
693.32110082819759
 20
387.1908207489613
 30
0.0
 40
1.0
  0
CIRCLE
  5
2E1
100
AcDbEntity
  8
0
  6
Continuous
 62
               7
100
AcDbCircle
 10
680.65791589669038
 20
409.94740400676767
 30
0.0
 40
0.5
  0
CIRCLE
  5
2E2
100
AcDbEntity
  8
0
  6
Continuous
 62
               7
100
AcDbCircle
 10
696.11818986929325
 20
403.26389391745317
 30
0.0
 40
0.1
  0
CIRCLE
  5
2E3
100
AcDbEntity
  8
0
  6
Continuous
 62
               7
100
AcDbCircle
 10
699.42384055422485
 20
391.33152261909788
 30
0.0
 40
0.5
  0
CIRCLE
  5
2E4
100
AcDbEntity
  8
0
  6
Continuous
 62
               7
100
AcDbCircle
 10
687.21836110216987
 20
397.25219024265891
 30
0.0
 40
0.1
  0
CIRCLE
  5
2E5
100
AcDbEntity
  8
0
  6
Continuous
 62
               7
100
AcDbCircle
 10
687.98120356792356
 20
384.64801252978316
 30
0.0
 40
0.1
  0
CIRCLE
  5
2E6
100
AcDbEntity
  8
0
  6
Continuous
 62
               7
100
AcDbCircle
 10
710.02957685559454
 20
387.1908207489613
 30
0.0
 40
1.0
  0
CIRCLE
  5
2E7
100
AcDbEntity
  8
0
  6
Continuous
 62
               7
100
AcDbCircle
 10
697.36639192408779
 20
409.94740400676767
 30
0.0
 40
0.5
  0
CIRCLE
  5
2E8
100
AcDbEntity
  8
0
  6
Continuous
 62
               7
100
AcDbCircle
 10
712.82666589669066
 20
403.26389391745317
 30
0.0
 40
0.1
  0
CIRCLE
  5
2E9
100
AcDbEntity
  8
0
  6
Continuous
 62
               7
100
AcDbCircle
 10
716.13231658162226
 20
391.33152261909788
 30
0.0
 40
0.5
  0
CIRCLE
  5
2EA
100
AcDbEntity
  8
0
  6
Continuous
 62
               7
100
AcDbCircle
 10
703.92683712956728
 20
397.25219024265891
 30
0.0
 40
0.1
  0
CIRCLE
  5
2EB
100
AcDbEntity
  8
0
  6
Continuous
 62
               7
100
AcDbCircle
 10
704.68967959532051
 20
384.64801252978316
 30
0.0
 40
0.1
  0
CIRCLE
  5
2EC
100
AcDbEntity
  8
0
  6
Continuous
 62
               7
100
AcDbCircle
 10
726.73805288299195
 20
387.1908207489613
 30
0.0
 40
1.0
  0
CIRCLE
  5
2ED
100
AcDbEntity
  8
0
  6
Continuous
 62
               7
100
AcDbCircle
 10
714.0748679514852
 20
409.94740400676767
 30
0.0
 40
0.5
  0
CIRCLE
  5
2EE
100
AcDbEntity
  8
0
  6
Continuous
 62
               7
100
AcDbCircle
 10
729.53514192408807
 20
403.26389391745317
 30
0.0
 40
0.1
  0
CIRCLE
  5
2EF
100
AcDbEntity
  8
0
  6
Continuous
 62
               7
100
AcDbCircle
 10
732.84079260901967
 20
391.33152261909788
 30
0.0
 40
0.5
  0
CIRCLE
  5
2F0
100
AcDbEntity
  8
0
  6
Continuous
 62
               7
100
AcDbCircle
 10
720.63531315696468
 20
397.25219024265891
 30
0.0
 40
0.1
  0
CIRCLE
  5
2F1
100
AcDbEntity
  8
0
  6
Continuous
 62
               7
100
AcDbCircle
 10
721.39815562271792
 20
384.64801252978316
 30
0.0
 40
0.1
  0
CIRCLE
  5
2F2
100
AcDbEntity
  8
0
  6
Continuous
 62
               7
100
AcDbCircle
 10
743.44652891038936
 20
387.1908207489613
 30
0.0
 40
1.0
  0
CIRCLE
  5
2F3
100
AcDbEntity
  8
0
  6
Continuous
 62
               7
100
AcDbCircle
 10
730.78334397888261
 20
409.94740400676767
 30
0.0
 40
0.5
  0
CIRCLE
  5
2F4
100
AcDbEntity
  8
0
  6
Continuous
 62
               7
100
AcDbCircle
 10
746.24361795148548
 20
403.26389391745317
 30
0.0
 40
0.1
  0
CIRCLE
  5
2F5
100
AcDbEntity
  8
0
  6
Continuous
 62
               7
100
AcDbCircle
 10
749.54926863641708
 20
391.33152261909788
 30
0.0
 40
0.5
  0
CIRCLE
  5
2F6
100
AcDbEntity
  8
0
  6
Continuous
 62
               7
100
AcDbCircle
 10
737.34378918436209
 20
397.25219024265891
 30
0.0
 40
0.1
  0
CIRCLE
  5
2F7
100
AcDbEntity
  8
0
  6
Continuous
 62
               7
100
AcDbCircle
 10
738.10663165011533
 20
384.64801252978316
 30
0.0
 40
0.1
  0
CIRCLE
  5
2F8
100
AcDbEntity
  8
0
  6
Continuous
 62
               7
100
AcDbCircle
 10
760.15500493778677
 20
387.1908207489613
 30
0.0
 40
1.0
  0
CIRCLE
  5
2F9
100
AcDbEntity
  8
0
  6
Continuous
 62
               7
100
AcDbCircle
 10
747.49182000628002
 20
409.94740400676767
 30
0.0
 40
0.5
  0
CIRCLE
  5
2FA
100
AcDbEntity
  8
0
  6
Continuous
 62
               7
100
AcDbCircle
 10
762.95209397888289
 20
403.26389391745317
 30
0.0
 40
0.1
  0
CIRCLE
  5
2FB
100
AcDbEntity
  8
0
  6
Continuous
 62
               7
100
AcDbCircle
 10
754.0522652117595
 20
397.25219024265891
 30
0.0
 40
0.1
  0
CIRCLE
  5
2FC
100
AcDbEntity
  8
0
  6
Continuous
 62
               7
100
AcDbCircle
 10
754.81510767751274
 20
384.64801252978316
 30
0.0
 40
0.1
  0
CIRCLE
  5
2FD
100
AcDbEntity
  8
0
  6
Continuous
 62
               7
100
AcDbCircle
 10
769.08152599578693
 20
418.01378781395681
 30
0.0
 40
1.0
  0
CIRCLE
  5
2FE
100
AcDbEntity
  8
0
  6
Continuous
 62
               7
100
AcDbCircle
 10
773.15001914647223
 20
447.4538811610779
 30
0.0
 40
1.0
  0
CIRCLE
  5
2FF
100
AcDbEntity
  8
0
  6
Continuous
 62
               7
100
AcDbCircle
 10
771.87861503688305
 20
434.08686098244891
 30
0.0
 40
0.1
  0
CIRCLE
  5
300
100
AcDbEntity
  8
0
  6
Continuous
 62
               7
100
AcDbCircle
 10
775.18426572181465
 20
422.15448968409339
 30
0.0
 40
0.5
  0
CIRCLE
  5
301
100
AcDbEntity
  8
0
  6
Continuous
 62
               7
100
AcDbCircle
 10
766.53871777660902
 20
447.4538811610779
 30
0.0
 40
0.1
  0
CIRCLE
  5
302
100
AcDbEntity
  8
0
  6
Continuous
 62
               7
100
AcDbCircle
 10
785.79000202318434
 20
418.01378781395681
 30
0.0
 40
1.0
  0
CIRCLE
  5
303
100
AcDbEntity
  8
0
  6
Continuous
 62
               7
100
AcDbCircle
 10
780.45010476291031
 20
440.77037107176341
 30
0.0
 40
0.5
  0
CIRCLE
  5
304
100
AcDbEntity
  8
0
  6
Continuous
 62
               7
100
AcDbCircle
 10
789.85849517386919
 20
447.4538811610779
 30
0.0
 40
1.0
  0
CIRCLE
  5
305
100
AcDbEntity
  8
0
  6
Continuous
 62
               7
100
AcDbCircle
 10
788.58709106428046
 20
434.08686098244891
 30
0.0
 40
0.1
  0
CIRCLE
  5
306
100
AcDbEntity
  8
0
  6
Continuous
 62
               7
100
AcDbCircle
 10
791.89274174921161
 20
422.15448968409339
 30
0.0
 40
0.5
  0
CIRCLE
  5
307
100
AcDbEntity
  8
0
  6
Continuous
 62
               7
100
AcDbCircle
 10
779.68726229715708
 20
428.07515730765465
 30
0.0
 40
0.1
  0
CIRCLE
  5
308
100
AcDbEntity
  8
0
  6
Continuous
 62
               7
100
AcDbCircle
 10
783.24719380400643
 20
447.4538811610779
 30
0.0
 40
0.1
  0
CIRCLE
  5
309
100
AcDbEntity
  8
0
  6
Continuous
 62
               7
100
AcDbCircle
 10
802.49847805058175
 20
418.01378781395681
 30
0.0
 40
1.0
  0
CIRCLE
  5
30A
100
AcDbEntity
  8
0
  6
Continuous
 62
               7
100
AcDbCircle
 10
797.15858079030772
 20
440.77037107176341
 30
0.0
 40
0.5
  0
CIRCLE
  5
30B
100
AcDbEntity
  8
0
  6
Continuous
 62
               7
100
AcDbCircle
 10
806.5669712012666
 20
447.4538811610779
 30
0.0
 40
1.0
  0
CIRCLE
  5
30C
100
AcDbEntity
  8
0
  6
Continuous
 62
               7
100
AcDbCircle
 10
805.29556709167741
 20
434.08686098244891
 30
0.0
 40
0.1
  0
CIRCLE
  5
30D
100
AcDbEntity
  8
0
  6
Continuous
 62
               7
100
AcDbCircle
 10
808.60121777660902
 20
422.15448968409339
 30
0.0
 40
0.5
  0
CIRCLE
  5
30E
100
AcDbEntity
  8
0
  6
Continuous
 62
               7
100
AcDbCircle
 10
796.39573832455403
 20
428.07515730765465
 30
0.0
 40
0.1
  0
CIRCLE
  5
30F
100
AcDbEntity
  8
0
  6
Continuous
 62
               7
100
AcDbCircle
 10
799.95566983140338
 20
447.4538811610779
 30
0.0
 40
0.1
  0
CIRCLE
  5
310
100
AcDbEntity
  8
0
  6
Continuous
 62
               7
100
AcDbCircle
 10
819.20695407797916
 20
418.01378781395681
 30
0.0
 40
1.0
  0
CIRCLE
  5
311
100
AcDbEntity
  8
0
  6
Continuous
 62
               7
100
AcDbCircle
 10
813.86705681770513
 20
440.77037107176341
 30
0.0
 40
0.5
  0
CIRCLE
  5
312
100
AcDbEntity
  8
0
  6
Continuous
 62
               7
100
AcDbCircle
 10
823.27544722866401
 20
447.4538811610779
 30
0.0
 40
1.0
  0
CIRCLE
  5
313
100
AcDbEntity
  8
0
  6
Continuous
 62
               7
100
AcDbCircle
 10
822.00404311907482
 20
434.08686098244891
 30
0.0
 40
0.1
  0
CIRCLE
  5
314
100
AcDbEntity
  8
0
  6
Continuous
 62
               7
100
AcDbCircle
 10
825.30969380400643
 20
422.15448968409339
 30
0.0
 40
0.5
  0
CIRCLE
  5
315
100
AcDbEntity
  8
0
  6
Continuous
 62
               7
100
AcDbCircle
 10
813.10421435195144
 20
428.07515730765465
 30
0.0
 40
0.1
  0
CIRCLE
  5
316
100
AcDbEntity
  8
0
  6
Continuous
 62
               7
100
AcDbCircle
 10
816.66414585880079
 20
447.4538811610779
 30
0.0
 40
0.1
  0
CIRCLE
  5
317
100
AcDbEntity
  8
0
  6
Continuous
 62
               7
100
AcDbCircle
 10
835.91543010537657
 20
418.01378781395681
 30
0.0
 40
1.0
  0
CIRCLE
  5
318
100
AcDbEntity
  8
0
  6
Continuous
 62
               7
100
AcDbCircle
 10
830.57553284510254
 20
440.77037107176341
 30
0.0
 40
0.5
  0
CIRCLE
  5
319
100
AcDbEntity
  8
0
  6
Continuous
 62
               7
100
AcDbCircle
 10
839.98392325606142
 20
447.4538811610779
 30
0.0
 40
1.0
  0
CIRCLE
  5
31A
100
AcDbEntity
  8
0
  6
Continuous
 62
               7
100
AcDbCircle
 10
838.71251914647223
 20
434.08686098244891
 30
0.0
 40
0.1
  0
CIRCLE
  5
31B
100
AcDbEntity
  8
0
  6
Continuous
 62
               7
100
AcDbCircle
 10
842.01816983140384
 20
422.15448968409339
 30
0.0
 40
0.5
  0
CIRCLE
  5
31C
100
AcDbEntity
  8
0
  6
Continuous
 62
               7
100
AcDbCircle
 10
829.81269037934885
 20
428.07515730765465
 30
0.0
 40
0.1
  0
CIRCLE
  5
31D
100
AcDbEntity
  8
0
  6
Continuous
 62
               7
100
AcDbCircle
 10
833.3726218861982
 20
447.4538811610779
 30
0.0
 40
0.1
  0
CIRCLE
  5
31E
100
AcDbEntity
  8
0
  6
Continuous
 62
               7
100
AcDbCircle
 10
852.62390613277398
 20
418.01378781395681
 30
0.0
 40
1.0
  0
CIRCLE
  5
31F
100
AcDbEntity
  8
0
  6
Continuous
 62
               7
100
AcDbCircle
 10
847.28400887249995
 20
440.77037107176341
 30
0.0
 40
0.5
  0
CIRCLE
  5
320
100
AcDbEntity
  8
0
  6
Continuous
 62
               7
100
AcDbCircle
 10
855.42099517386964
 20
434.08686098244891
 30
0.0
 40
0.1
  0
CIRCLE
  5
321
100
AcDbEntity
  8
0
  6
Continuous
 62
               7
100
AcDbCircle
 10
846.52116640674626
 20
428.07515730765465
 30
0.0
 40
0.1
  0
CIRCLE
  5
322
100
AcDbEntity
  8
0
  6
Continuous
 62
               7
100
AcDbCircle
 10
850.08109791359561
 20
447.4538811610779
 30
0.0
 40
0.1
  0
CIRCLE
  5
323
100
AcDbEntity
  8
0
  6
Continuous
 62
               7
100
AcDbCircle
 10
769.08152599578693
 20
387.61305317450922
 30
0.0
 40
1.0
  0
CIRCLE
  5
324
100
AcDbEntity
  8
0
  6
Continuous
 62
               7
100
AcDbCircle
 10
771.87861503688305
 20
403.68612634300109
 30
0.0
 40
0.1
  0
CIRCLE
  5
325
100
AcDbEntity
  8
0
  6
Continuous
 62
               7
100
AcDbCircle
 10
775.18426572181465
 20
391.75375504464557
 30
0.0
 40
0.5
  0
CIRCLE
  5
326
100
AcDbEntity
  8
0
  6
Continuous
 62
               7
100
AcDbCircle
 10
785.79000202318434
 20
387.61305317450922
 30
0.0
 40
1.0
  0
CIRCLE
  5
327
100
AcDbEntity
  8
0
  6
Continuous
 62
               7
100
AcDbCircle
 10
773.12681709167759
 20
410.36963643231559
 30
0.0
 40
0.5
  0
CIRCLE
  5
328
100
AcDbEntity
  8
0
  6
Continuous
 62
               7
100
AcDbCircle
 10
788.58709106428046
 20
403.68612634300109
 30
0.0
 40
0.1
  0
CIRCLE
  5
329
100
AcDbEntity
  8
0
  6
Continuous
 62
               7
100
AcDbCircle
 10
791.89274174921161
 20
391.75375504464557
 30
0.0
 40
0.5
  0
CIRCLE
  5
32A
100
AcDbEntity
  8
0
  6
Continuous
 62
               7
100
AcDbCircle
 10
779.68726229715708
 20
397.67442266820683
 30
0.0
 40
0.1
  0
CIRCLE
  5
32B
100
AcDbEntity
  8
0
  6
Continuous
 62
               7
100
AcDbCircle
 10
780.45010476291031
 20
385.07024495533108
 30
0.0
 40
0.1
  0
CIRCLE
  5
32C
100
AcDbEntity
  8
0
  6
Continuous
 62
               7
100
AcDbCircle
 10
802.49847805058175
 20
387.61305317450922
 30
0.0
 40
1.0
  0
CIRCLE
  5
32D
100
AcDbEntity
  8
0
  6
Continuous
 62
               7
100
AcDbCircle
 10
789.835293119075
 20
410.36963643231559
 30
0.0
 40
0.5
  0
CIRCLE
  5
32E
100
AcDbEntity
  8
0
  6
Continuous
 62
               7
100
AcDbCircle
 10
805.29556709167741
 20
403.68612634300109
 30
0.0
 40
0.1
  0
CIRCLE
  5
32F
100
AcDbEntity
  8
0
  6
Continuous
 62
               7
100
AcDbCircle
 10
808.60121777660902
 20
391.75375504464557
 30
0.0
 40
0.5
  0
CIRCLE
  5
330
100
AcDbEntity
  8
0
  6
Continuous
 62
               7
100
AcDbCircle
 10
796.39573832455403
 20
397.67442266820683
 30
0.0
 40
0.1
  0
CIRCLE
  5
331
100
AcDbEntity
  8
0
  6
Continuous
 62
               7
100
AcDbCircle
 10
797.15858079030772
 20
385.07024495533108
 30
0.0
 40
0.1
  0
CIRCLE
  5
332
100
AcDbEntity
  8
0
  6
Continuous
 62
               7
100
AcDbCircle
 10
819.20695407797916
 20
387.61305317450922
 30
0.0
 40
1.0
  0
CIRCLE
  5
333
100
AcDbEntity
  8
0
  6
Continuous
 62
               7
100
AcDbCircle
 10
806.54376914647241
 20
410.36963643231559
 30
0.0
 40
0.5
  0
CIRCLE
  5
334
100
AcDbEntity
  8
0
  6
Continuous
 62
               7
100
AcDbCircle
 10
822.00404311907482
 20
403.68612634300109
 30
0.0
 40
0.1
  0
CIRCLE
  5
335
100
AcDbEntity
  8
0
  6
Continuous
 62
               7
100
AcDbCircle
 10
825.30969380400643
 20
391.75375504464557
 30
0.0
 40
0.5
  0
CIRCLE
  5
336
100
AcDbEntity
  8
0
  6
Continuous
 62
               7
100
AcDbCircle
 10
813.10421435195144
 20
397.67442266820683
 30
0.0
 40
0.1
  0
CIRCLE
  5
337
100
AcDbEntity
  8
0
  6
Continuous
 62
               7
100
AcDbCircle
 10
813.86705681770513
 20
385.07024495533108
 30
0.0
 40
0.1
  0
CIRCLE
  5
338
100
AcDbEntity
  8
0
  6
Continuous
 62
               7
100
AcDbCircle
 10
835.91543010537657
 20
387.61305317450922
 30
0.0
 40
1.0
  0
CIRCLE
  5
339
100
AcDbEntity
  8
0
  6
Continuous
 62
               7
100
AcDbCircle
 10
823.25224517386937
 20
410.36963643231559
 30
0.0
 40
0.5
  0
CIRCLE
  5
33A
100
AcDbEntity
  8
0
  6
Continuous
 62
               7
100
AcDbCircle
 10
838.71251914647223
 20
403.68612634300109
 30
0.0
 40
0.1
  0
CIRCLE
  5
33B
100
AcDbEntity
  8
0
  6
Continuous
 62
               7
100
AcDbCircle
 10
842.01816983140384
 20
391.75375504464557
 30
0.0
 40
0.5
  0
CIRCLE
  5
33C
100
AcDbEntity
  8
0
  6
Continuous
 62
               7
100
AcDbCircle
 10
829.81269037934885
 20
397.67442266820683
 30
0.0
 40
0.1
  0
CIRCLE
  5
33D
100
AcDbEntity
  8
0
  6
Continuous
 62
               7
100
AcDbCircle
 10
830.57553284510254
 20
385.07024495533108
 30
0.0
 40
0.1
  0
CIRCLE
  5
33E
100
AcDbEntity
  8
0
  6
Continuous
 62
               7
100
AcDbCircle
 10
852.62390613277398
 20
387.61305317450922
 30
0.0
 40
1.0
  0
CIRCLE
  5
33F
100
AcDbEntity
  8
0
  6
Continuous
 62
               7
100
AcDbCircle
 10
839.96072120126678
 20
410.36963643231559
 30
0.0
 40
0.5
  0
CIRCLE
  5
340
100
AcDbEntity
  8
0
  6
Continuous
 62
               7
100
AcDbCircle
 10
855.42099517386964
 20
403.68612634300109
 30
0.0
 40
0.1
  0
CIRCLE
  5
341
100
AcDbEntity
  8
0
  6
Continuous
 62
               7
100
AcDbCircle
 10
846.52116640674626
 20
397.67442266820683
 30
0.0
 40
0.1
  0
CIRCLE
  5
342
100
AcDbEntity
  8
0
  6
Continuous
 62
               7
100
AcDbCircle
 10
847.28400887249995
 20
385.07024495533108
 30
0.0
 40
0.1
  0
CIRCLE
  5
343
100
AcDbEntity
  8
0
  6
Continuous
 62
               7
100
AcDbCircle
 10
873.51368324056989
 20
374.68207887471431
 30
0.0
 40
1.0
  0
CIRCLE
  5
344
100
AcDbEntity
  8
0
  6
Continuous
 62
               7
100
AcDbCircle
 10
879.61642296659716
 20
378.82278074485066
 30
0.0
 40
0.5
  0
CIRCLE
  5
345
100
AcDbEntity
  8
0
  6
Continuous
 62
               7
100
AcDbCircle
 10
890.2221592679673
 20
374.68207887471431
 30
0.0
 40
1.0
  0
CIRCLE
  5
346
100
AcDbEntity
  8
0
  6
Continuous
 62
               7
100
AcDbCircle
 10
896.32489899399457
 20
378.82278074485066
 30
0.0
 40
0.5
  0
CIRCLE
  5
347
100
AcDbEntity
  8
0
  6
Continuous
 62
               7
100
AcDbCircle
 10
884.88226200769327
 20
372.13927065553617
 30
0.0
 40
0.1
  0
CIRCLE
  5
348
100
AcDbEntity
  8
0
  6
Continuous
 62
               7
100
AcDbCircle
 10
906.93063529536471
 20
374.68207887471431
 30
0.0
 40
1.0
  0
CIRCLE
  5
349
100
AcDbEntity
  8
0
  6
Continuous
 62
               7
100
AcDbCircle
 10
913.03337502139198
 20
378.82278074485066
 30
0.0
 40
0.5
  0
CIRCLE
  5
34A
100
AcDbEntity
  8
0
  6
Continuous
 62
               7
100
AcDbCircle
 10
901.59073803509023
 20
372.13927065553617
 30
0.0
 40
0.1
  0
CIRCLE
  5
34B
100
AcDbEntity
  8
0
  6
Continuous
 62
               7
100
AcDbCircle
 10
923.63911132276166
 20
374.68207887471431
 30
0.0
 40
1.0
  0
CIRCLE
  5
34C
100
AcDbEntity
  8
0
  6
Continuous
 62
               7
100
AcDbCircle
 10
929.74185104878939
 20
378.82278074485066
 30
0.0
 40
0.5
  0
CIRCLE
  5
34D
100
AcDbEntity
  8
0
  6
Continuous
 62
               7
100
AcDbCircle
 10
918.29921406248809
 20
372.13927065553617
 30
0.0
 40
0.1
  0
CIRCLE
  5
34E
100
AcDbEntity
  8
0
  6
Continuous
 62
               7
100
AcDbCircle
 10
940.34758735015907
 20
374.68207887471431
 30
0.0
 40
1.0
  0
CIRCLE
  5
34F
100
AcDbEntity
  8
0
  6
Continuous
 62
               7
100
AcDbCircle
 10
946.4503270761868
 20
378.82278074485066
 30
0.0
 40
0.5
  0
CIRCLE
  5
350
100
AcDbEntity
  8
0
  6
Continuous
 62
               7
100
AcDbCircle
 10
935.00769008988505
 20
372.13927065553617
 30
0.0
 40
0.1
  0
CIRCLE
  5
351
100
AcDbEntity
  8
0
  6
Continuous
 62
               7
100
AcDbCircle
 10
957.05606337755648
 20
374.68207887471431
 30
0.0
 40
1.0
  0
CIRCLE
  5
352
100
AcDbEntity
  8
0
  6
Continuous
 62
               7
100
AcDbCircle
 10
951.71616611728291
 20
372.13927065553617
 30
0.0
 40
0.1
  0
CIRCLE
  5
353
100
AcDbEntity
  8
0
  6
Continuous
 62
               7
100
AcDbCircle
 10
968.41042088245717
 20
373.09870727890961
 30
0.0
 40
1.0
  0
CIRCLE
  5
354
100
AcDbEntity
  8
0
  6
Continuous
 62
               7
100
AcDbCircle
 10
974.5131606084849
 20
377.2394091490462
 30
0.0
 40
0.5
  0
CIRCLE
  5
355
100
AcDbEntity
  8
0
  6
Continuous
 62
               7
100
AcDbCircle
 10
985.11889690985458
 20
373.09870727890961
 30
0.0
 40
1.0
  0
CIRCLE
  5
356
100
AcDbEntity
  8
0
  6
Continuous
 62
               7
100
AcDbCircle
 10
991.22163663588185
 20
377.2394091490462
 30
0.0
 40
0.5
  0
CIRCLE
  5
357
100
AcDbEntity
  8
0
  6
Continuous
 62
               7
100
AcDbCircle
 10
979.77899964958056
 20
370.55589905973147
 30
0.0
 40
0.1
  0
CIRCLE
  5
358
100
AcDbEntity
  8
0
  6
Continuous
 62
               7
100
AcDbCircle
 10
1001.827372937252
 20
373.09870727890961
 30
0.0
 40
1.0
  0
CIRCLE
  5
359
100
AcDbEntity
  8
0
  6
Continuous
 62
               7
100
AcDbCircle
 10
1007.9301126632793
 20
377.2394091490462
 30
0.0
 40
0.5
  0
CIRCLE
  5
35A
100
AcDbEntity
  8
0
  6
Continuous
 62
               7
100
AcDbCircle
 10
996.48747567697797
 20
370.55589905973147
 30
0.0
 40
0.1
  0
CIRCLE
  5
35B
100
AcDbEntity
  8
0
  6
Continuous
 62
               7
100
AcDbCircle
 10
1018.5358489646494
 20
373.09870727890961
 30
0.0
 40
1.0
  0
CIRCLE
  5
35C
100
AcDbEntity
  8
0
  6
Continuous
 62
               7
100
AcDbCircle
 10
1024.6385886906767
 20
377.2394091490462
 30
0.0
 40
0.5
  0
CIRCLE
  5
35D
100
AcDbEntity
  8
0
  6
Continuous
 62
               7
100
AcDbCircle
 10
1013.1959517043754
 20
370.55589905973147
 30
0.0
 40
0.1
  0
CIRCLE
  5
35E
100
AcDbEntity
  8
0
  6
Continuous
 62
               7
100
AcDbCircle
 10
1035.2443249920468
 20
373.09870727890961
 30
0.0
 40
1.0
  0
CIRCLE
  5
35F
100
AcDbEntity
  8
0
  6
Continuous
 62
               7
100
AcDbCircle
 10
1041.3470647180741
 20
377.2394091490462
 30
0.0
 40
0.5
  0
CIRCLE
  5
360
100
AcDbEntity
  8
0
  6
Continuous
 62
               7
100
AcDbCircle
 10
1029.9044277317728
 20
370.55589905973147
 30
0.0
 40
0.1
  0
CIRCLE
  5
361
100
AcDbEntity
  8
0
  6
Continuous
 62
               7
100
AcDbCircle
 10
1051.9528010194442
 20
373.09870727890961
 30
0.0
 40
1.0
  0
CIRCLE
  5
362
100
AcDbEntity
  8
0
  6
Continuous
 62
               7
100
AcDbCircle
 10
1046.6129037591702
 20
370.55589905973147
 30
0.0
 40
0.1
  0
CIRCLE
  5
363
100
AcDbEntity
  8
0
  6
Continuous
 62
               7
100
AcDbCircle
 10
622.93011266327881
 20
377.2394091490462
 30
0.0
 40
0.5
  0
CIRCLE
  5
364
100
AcDbEntity
  8
0
  6
Continuous
 62
               7
100
AcDbCircle
 10
633.53584896464895
 20
373.09870727890961
 30
0.0
 40
1.0
  0
CIRCLE
  5
365
100
AcDbEntity
  8
0
  6
Continuous
 62
               7
100
AcDbCircle
 10
639.63858869067622
 20
377.2394091490462
 30
0.0
 40
0.5
  0
CIRCLE
  5
366
100
AcDbEntity
  8
0
  6
Continuous
 62
               7
100
AcDbCircle
 10
628.19595170437447
 20
370.55589905973147
 30
0.0
 40
0.1
  0
CIRCLE
  5
367
100
AcDbEntity
  8
0
  6
Continuous
 62
               7
100
AcDbCircle
 10
650.2443249920459
 20
373.09870727890961
 30
0.0
 40
1.0
  0
CIRCLE
  5
368
100
AcDbEntity
  8
0
  6
Continuous
 62
               7
100
AcDbCircle
 10
656.34706471807363
 20
377.2394091490462
 30
0.0
 40
0.5
  0
CIRCLE
  5
369
100
AcDbEntity
  8
0
  6
Continuous
 62
               7
100
AcDbCircle
 10
644.90442773177188
 20
370.55589905973147
 30
0.0
 40
0.1
  0
CIRCLE
  5
36A
100
AcDbEntity
  8
0
  6
Continuous
 62
               7
100
AcDbCircle
 10
666.95280101944331
 20
373.09870727890961
 30
0.0
 40
1.0
  0
CIRCLE
  5
36B
100
AcDbEntity
  8
0
  6
Continuous
 62
               7
100
AcDbCircle
 10
661.61290375916928
 20
370.55589905973147
 30
0.0
 40
0.1
  0
CIRCLE
  5
36C
100
AcDbEntity
  8
0
  6
Continuous
 62
               7
100
AcDbCircle
 10
676.61262480080018
 20
373.09870727890961
 30
0.0
 40
1.0
  0
CIRCLE
  5
36D
100
AcDbEntity
  8
0
  6
Continuous
 62
               7
100
AcDbCircle
 10
682.71536452682744
 20
377.2394091490462
 30
0.0
 40
0.5
  0
CIRCLE
  5
36E
100
AcDbEntity
  8
0
  6
Continuous
 62
               7
100
AcDbCircle
 10
693.32110082819759
 20
373.09870727890961
 30
0.0
 40
1.0
  0
CIRCLE
  5
36F
100
AcDbEntity
  8
0
  6
Continuous
 62
               7
100
AcDbCircle
 10
699.42384055422485
 20
377.2394091490462
 30
0.0
 40
0.5
  0
CIRCLE
  5
370
100
AcDbEntity
  8
0
  6
Continuous
 62
               7
100
AcDbCircle
 10
687.98120356792356
 20
370.55589905973147
 30
0.0
 40
0.1
  0
CIRCLE
  5
371
100
AcDbEntity
  8
0
  6
Continuous
 62
               7
100
AcDbCircle
 10
710.02957685559454
 20
373.09870727890961
 30
0.0
 40
1.0
  0
CIRCLE
  5
372
100
AcDbEntity
  8
0
  6
Continuous
 62
               7
100
AcDbCircle
 10
716.13231658162226
 20
377.2394091490462
 30
0.0
 40
0.5
  0
CIRCLE
  5
373
100
AcDbEntity
  8
0
  6
Continuous
 62
               7
100
AcDbCircle
 10
704.68967959532051
 20
370.55589905973147
 30
0.0
 40
0.1
  0
CIRCLE
  5
374
100
AcDbEntity
  8
0
  6
Continuous
 62
               7
100
AcDbCircle
 10
726.73805288299195
 20
373.09870727890961
 30
0.0
 40
1.0
  0
CIRCLE
  5
375
100
AcDbEntity
  8
0
  6
Continuous
 62
               7
100
AcDbCircle
 10
732.84079260901967
 20
377.2394091490462
 30
0.0
 40
0.5
  0
CIRCLE
  5
376
100
AcDbEntity
  8
0
  6
Continuous
 62
               7
100
AcDbCircle
 10
721.39815562271792
 20
370.55589905973147
 30
0.0
 40
0.1
  0
CIRCLE
  5
377
100
AcDbEntity
  8
0
  6
Continuous
 62
               7
100
AcDbCircle
 10
743.44652891038936
 20
373.09870727890961
 30
0.0
 40
1.0
  0
CIRCLE
  5
378
100
AcDbEntity
  8
0
  6
Continuous
 62
               7
100
AcDbCircle
 10
749.54926863641708
 20
377.2394091490462
 30
0.0
 40
0.5
  0
CIRCLE
  5
379
100
AcDbEntity
  8
0
  6
Continuous
 62
               7
100
AcDbCircle
 10
738.10663165011533
 20
370.55589905973147
 30
0.0
 40
0.1
  0
CIRCLE
  5
37A
100
AcDbEntity
  8
0
  6
Continuous
 62
               7
100
AcDbCircle
 10
760.15500493778677
 20
373.09870727890961
 30
0.0
 40
1.0
  0
CIRCLE
  5
37B
100
AcDbEntity
  8
0
  6
Continuous
 62
               7
100
AcDbCircle
 10
754.81510767751274
 20
370.55589905973147
 30
0.0
 40
0.1
  0
CIRCLE
  5
37C
100
AcDbEntity
  8
0
  6
Continuous
 62
               7
100
AcDbCircle
 10
769.08152599578693
 20
373.52093970445753
 30
0.0
 40
1.0
  0
CIRCLE
  5
37D
100
AcDbEntity
  8
0
  6
Continuous
 62
               7
100
AcDbCircle
 10
775.18426572181465
 20
377.66164157459389
 30
0.0
 40
0.5
  0
CIRCLE
  5
37E
100
AcDbEntity
  8
0
  6
Continuous
 62
               7
100
AcDbCircle
 10
785.79000202318434
 20
373.52093970445753
 30
0.0
 40
1.0
  0
CIRCLE
  5
37F
100
AcDbEntity
  8
0
  6
Continuous
 62
               7
100
AcDbCircle
 10
791.89274174921161
 20
377.66164157459389
 30
0.0
 40
0.5
  0
CIRCLE
  5
380
100
AcDbEntity
  8
0
  6
Continuous
 62
               7
100
AcDbCircle
 10
780.45010476291031
 20
370.97813148527939
 30
0.0
 40
0.1
  0
CIRCLE
  5
381
100
AcDbEntity
  8
0
  6
Continuous
 62
               7
100
AcDbCircle
 10
802.49847805058175
 20
373.52093970445753
 30
0.0
 40
1.0
  0
CIRCLE
  5
382
100
AcDbEntity
  8
0
  6
Continuous
 62
               7
100
AcDbCircle
 10
808.60121777660902
 20
377.66164157459389
 30
0.0
 40
0.5
  0
CIRCLE
  5
383
100
AcDbEntity
  8
0
  6
Continuous
 62
               7
100
AcDbCircle
 10
797.15858079030772
 20
370.97813148527939
 30
0.0
 40
0.1
  0
CIRCLE
  5
384
100
AcDbEntity
  8
0
  6
Continuous
 62
               7
100
AcDbCircle
 10
819.20695407797916
 20
373.52093970445753
 30
0.0
 40
1.0
  0
CIRCLE
  5
385
100
AcDbEntity
  8
0
  6
Continuous
 62
               7
100
AcDbCircle
 10
825.30969380400643
 20
377.66164157459389
 30
0.0
 40
0.5
  0
CIRCLE
  5
386
100
AcDbEntity
  8
0
  6
Continuous
 62
               7
100
AcDbCircle
 10
813.86705681770513
 20
370.97813148527939
 30
0.0
 40
0.1
  0
CIRCLE
  5
387
100
AcDbEntity
  8
0
  6
Continuous
 62
               7
100
AcDbCircle
 10
835.91543010537657
 20
373.52093970445753
 30
0.0
 40
1.0
  0
CIRCLE
  5
388
100
AcDbEntity
  8
0
  6
Continuous
 62
               7
100
AcDbCircle
 10
842.01816983140384
 20
377.66164157459389
 30
0.0
 40
0.5
  0
CIRCLE
  5
389
100
AcDbEntity
  8
0
  6
Continuous
 62
               7
100
AcDbCircle
 10
830.57553284510254
 20
370.97813148527939
 30
0.0
 40
0.1
  0
CIRCLE
  5
38A
100
AcDbEntity
  8
0
  6
Continuous
 62
               7
100
AcDbCircle
 10
852.62390613277398
 20
373.52093970445753
 30
0.0
 40
1.0
  0
CIRCLE
  5
38B
100
AcDbEntity
  8
0
  6
Continuous
 62
               7
100
AcDbCircle
 10
847.28400887249995
 20
370.97813148527939
 30
0.0
 40
0.1
  0
CIRCLE
  5
38C
100
AcDbEntity
  8
0
  6
Continuous
 62
               7
100
AcDbCircle
 10
873.51368324056989
 20
361.2305160169376
 30
0.0
 40
1.0
  0
CIRCLE
  5
38D
100
AcDbEntity
  8
0
  6
Continuous
 62
               7
100
AcDbCircle
 10
879.61642296659716
 20
365.37121788707395
 30
0.0
 40
0.5
  0
CIRCLE
  5
38E
100
AcDbEntity
  8
0
  6
Continuous
 62
               7
100
AcDbCircle
 10
890.2221592679673
 20
361.2305160169376
 30
0.0
 40
1.0
  0
CIRCLE
  5
38F
100
AcDbEntity
  8
0
  6
Continuous
 62
               7
100
AcDbCircle
 10
896.32489899399457
 20
365.37121788707395
 30
0.0
 40
0.5
  0
CIRCLE
  5
390
100
AcDbEntity
  8
0
  6
Continuous
 62
               7
100
AcDbCircle
 10
884.88226200769327
 20
358.68770779775946
 30
0.0
 40
0.1
  0
CIRCLE
  5
391
100
AcDbEntity
  8
0
  6
Continuous
 62
               7
100
AcDbCircle
 10
906.93063529536471
 20
361.2305160169376
 30
0.0
 40
1.0
  0
CIRCLE
  5
392
100
AcDbEntity
  8
0
  6
Continuous
 62
               7
100
AcDbCircle
 10
913.03337502139198
 20
365.37121788707395
 30
0.0
 40
0.5
  0
CIRCLE
  5
393
100
AcDbEntity
  8
0
  6
Continuous
 62
               7
100
AcDbCircle
 10
901.59073803509023
 20
358.68770779775946
 30
0.0
 40
0.1
  0
CIRCLE
  5
394
100
AcDbEntity
  8
0
  6
Continuous
 62
               7
100
AcDbCircle
 10
923.63911132276166
 20
361.2305160169376
 30
0.0
 40
1.0
  0
CIRCLE
  5
395
100
AcDbEntity
  8
0
  6
Continuous
 62
               7
100
AcDbCircle
 10
929.74185104878939
 20
365.37121788707395
 30
0.0
 40
0.5
  0
CIRCLE
  5
396
100
AcDbEntity
  8
0
  6
Continuous
 62
               7
100
AcDbCircle
 10
918.29921406248809
 20
358.68770779775946
 30
0.0
 40
0.1
  0
CIRCLE
  5
397
100
AcDbEntity
  8
0
  6
Continuous
 62
               7
100
AcDbCircle
 10
940.34758735015907
 20
361.2305160169376
 30
0.0
 40
1.0
  0
CIRCLE
  5
398
100
AcDbEntity
  8
0
  6
Continuous
 62
               7
100
AcDbCircle
 10
946.4503270761868
 20
365.37121788707395
 30
0.0
 40
0.5
  0
CIRCLE
  5
399
100
AcDbEntity
  8
0
  6
Continuous
 62
               7
100
AcDbCircle
 10
935.00769008988505
 20
358.68770779775946
 30
0.0
 40
0.1
  0
CIRCLE
  5
39A
100
AcDbEntity
  8
0
  6
Continuous
 62
               7
100
AcDbCircle
 10
957.05606337755648
 20
361.2305160169376
 30
0.0
 40
1.0
  0
CIRCLE
  5
39B
100
AcDbEntity
  8
0
  6
Continuous
 62
               7
100
AcDbCircle
 10
951.71616611728291
 20
358.68770779775946
 30
0.0
 40
0.1
  0
CIRCLE
  5
39C
100
AcDbEntity
  8
0
  6
Continuous
 62
               7
100
AcDbCircle
 10
968.41042088245717
 20
359.64714442113291
 30
0.0
 40
1.0
  0
CIRCLE
  5
39D
100
AcDbEntity
  8
0
  6
Continuous
 62
               7
100
AcDbCircle
 10
974.5131606084849
 20
363.78784629126949
 30
0.0
 40
0.5
  0
CIRCLE
  5
39E
100
AcDbEntity
  8
0
  6
Continuous
 62
               7
100
AcDbCircle
 10
985.11889690985458
 20
359.64714442113291
 30
0.0
 40
1.0
  0
CIRCLE
  5
39F
100
AcDbEntity
  8
0
  6
Continuous
 62
               7
100
AcDbCircle
 10
991.22163663588185
 20
363.78784629126949
 30
0.0
 40
0.5
  0
CIRCLE
  5
3A0
100
AcDbEntity
  8
0
  6
Continuous
 62
               7
100
AcDbCircle
 10
979.77899964958056
 20
357.10433620195477
 30
0.0
 40
0.1
  0
CIRCLE
  5
3A1
100
AcDbEntity
  8
0
  6
Continuous
 62
               7
100
AcDbCircle
 10
1001.827372937252
 20
359.64714442113291
 30
0.0
 40
1.0
  0
CIRCLE
  5
3A2
100
AcDbEntity
  8
0
  6
Continuous
 62
               7
100
AcDbCircle
 10
1007.9301126632793
 20
363.78784629126949
 30
0.0
 40
0.5
  0
CIRCLE
  5
3A3
100
AcDbEntity
  8
0
  6
Continuous
 62
               7
100
AcDbCircle
 10
996.48747567697797
 20
357.10433620195477
 30
0.0
 40
0.1
  0
CIRCLE
  5
3A4
100
AcDbEntity
  8
0
  6
Continuous
 62
               7
100
AcDbCircle
 10
1018.5358489646494
 20
359.64714442113291
 30
0.0
 40
1.0
  0
CIRCLE
  5
3A5
100
AcDbEntity
  8
0
  6
Continuous
 62
               7
100
AcDbCircle
 10
1024.6385886906767
 20
363.78784629126949
 30
0.0
 40
0.5
  0
CIRCLE
  5
3A6
100
AcDbEntity
  8
0
  6
Continuous
 62
               7
100
AcDbCircle
 10
1013.1959517043754
 20
357.10433620195477
 30
0.0
 40
0.1
  0
CIRCLE
  5
3A7
100
AcDbEntity
  8
0
  6
Continuous
 62
               7
100
AcDbCircle
 10
1035.2443249920468
 20
359.64714442113291
 30
0.0
 40
1.0
  0
CIRCLE
  5
3A8
100
AcDbEntity
  8
0
  6
Continuous
 62
               7
100
AcDbCircle
 10
1041.3470647180741
 20
363.78784629126949
 30
0.0
 40
0.5
  0
CIRCLE
  5
3A9
100
AcDbEntity
  8
0
  6
Continuous
 62
               7
100
AcDbCircle
 10
1029.9044277317728
 20
357.10433620195477
 30
0.0
 40
0.1
  0
CIRCLE
  5
3AA
100
AcDbEntity
  8
0
  6
Continuous
 62
               7
100
AcDbCircle
 10
1051.9528010194442
 20
359.64714442113291
 30
0.0
 40
1.0
  0
CIRCLE
  5
3AB
100
AcDbEntity
  8
0
  6
Continuous
 62
               7
100
AcDbCircle
 10
1046.6129037591702
 20
357.10433620195477
 30
0.0
 40
0.1
  0
CIRCLE
  5
3AC
100
AcDbEntity
  8
0
  6
Continuous
 62
               7
100
AcDbCircle
 10
622.93011266327881
 20
363.78784629126949
 30
0.0
 40
0.5
  0
CIRCLE
  5
3AD
100
AcDbEntity
  8
0
  6
Continuous
 62
               7
100
AcDbCircle
 10
633.53584896464895
 20
359.64714442113291
 30
0.0
 40
1.0
  0
CIRCLE
  5
3AE
100
AcDbEntity
  8
0
  6
Continuous
 62
               7
100
AcDbCircle
 10
639.63858869067622
 20
363.78784629126949
 30
0.0
 40
0.5
  0
CIRCLE
  5
3AF
100
AcDbEntity
  8
0
  6
Continuous
 62
               7
100
AcDbCircle
 10
628.19595170437447
 20
357.10433620195477
 30
0.0
 40
0.1
  0
CIRCLE
  5
3B0
100
AcDbEntity
  8
0
  6
Continuous
 62
               7
100
AcDbCircle
 10
650.2443249920459
 20
359.64714442113291
 30
0.0
 40
1.0
  0
CIRCLE
  5
3B1
100
AcDbEntity
  8
0
  6
Continuous
 62
               7
100
AcDbCircle
 10
656.34706471807363
 20
363.78784629126949
 30
0.0
 40
0.5
  0
CIRCLE
  5
3B2
100
AcDbEntity
  8
0
  6
Continuous
 62
               7
100
AcDbCircle
 10
644.90442773177188
 20
357.10433620195477
 30
0.0
 40
0.1
  0
CIRCLE
  5
3B3
100
AcDbEntity
  8
0
  6
Continuous
 62
               7
100
AcDbCircle
 10
666.95280101944331
 20
359.64714442113291
 30
0.0
 40
1.0
  0
CIRCLE
  5
3B4
100
AcDbEntity
  8
0
  6
Continuous
 62
               7
100
AcDbCircle
 10
661.61290375916928
 20
357.10433620195477
 30
0.0
 40
0.1
  0
CIRCLE
  5
3B5
100
AcDbEntity
  8
0
  6
Continuous
 62
               7
100
AcDbCircle
 10
676.61262480080018
 20
359.64714442113291
 30
0.0
 40
1.0
  0
CIRCLE
  5
3B6
100
AcDbEntity
  8
0
  6
Continuous
 62
               7
100
AcDbCircle
 10
682.71536452682744
 20
363.78784629126949
 30
0.0
 40
0.5
  0
CIRCLE
  5
3B7
100
AcDbEntity
  8
0
  6
Continuous
 62
               7
100
AcDbCircle
 10
693.32110082819759
 20
359.64714442113291
 30
0.0
 40
1.0
  0
CIRCLE
  5
3B8
100
AcDbEntity
  8
0
  6
Continuous
 62
               7
100
AcDbCircle
 10
699.42384055422485
 20
363.78784629126949
 30
0.0
 40
0.5
  0
CIRCLE
  5
3B9
100
AcDbEntity
  8
0
  6
Continuous
 62
               7
100
AcDbCircle
 10
687.98120356792356
 20
357.10433620195477
 30
0.0
 40
0.1
  0
CIRCLE
  5
3BA
100
AcDbEntity
  8
0
  6
Continuous
 62
               7
100
AcDbCircle
 10
710.02957685559454
 20
359.64714442113291
 30
0.0
 40
1.0
  0
CIRCLE
  5
3BB
100
AcDbEntity
  8
0
  6
Continuous
 62
               7
100
AcDbCircle
 10
716.13231658162226
 20
363.78784629126949
 30
0.0
 40
0.5
  0
CIRCLE
  5
3BC
100
AcDbEntity
  8
0
  6
Continuous
 62
               7
100
AcDbCircle
 10
704.68967959532051
 20
357.10433620195477
 30
0.0
 40
0.1
  0
CIRCLE
  5
3BD
100
AcDbEntity
  8
0
  6
Continuous
 62
               7
100
AcDbCircle
 10
726.73805288299195
 20
359.64714442113291
 30
0.0
 40
1.0
  0
CIRCLE
  5
3BE
100
AcDbEntity
  8
0
  6
Continuous
 62
               7
100
AcDbCircle
 10
732.84079260901967
 20
363.78784629126949
 30
0.0
 40
0.5
  0
CIRCLE
  5
3BF
100
AcDbEntity
  8
0
  6
Continuous
 62
               7
100
AcDbCircle
 10
721.39815562271792
 20
357.10433620195477
 30
0.0
 40
0.1
  0
CIRCLE
  5
3C0
100
AcDbEntity
  8
0
  6
Continuous
 62
               7
100
AcDbCircle
 10
743.44652891038936
 20
359.64714442113291
 30
0.0
 40
1.0
  0
CIRCLE
  5
3C1
100
AcDbEntity
  8
0
  6
Continuous
 62
               7
100
AcDbCircle
 10
749.54926863641708
 20
363.78784629126949
 30
0.0
 40
0.5
  0
CIRCLE
  5
3C2
100
AcDbEntity
  8
0
  6
Continuous
 62
               7
100
AcDbCircle
 10
738.10663165011533
 20
357.10433620195477
 30
0.0
 40
0.1
  0
CIRCLE
  5
3C3
100
AcDbEntity
  8
0
  6
Continuous
 62
               7
100
AcDbCircle
 10
760.15500493778677
 20
359.64714442113291
 30
0.0
 40
1.0
  0
CIRCLE
  5
3C4
100
AcDbEntity
  8
0
  6
Continuous
 62
               7
100
AcDbCircle
 10
754.81510767751274
 20
357.10433620195477
 30
0.0
 40
0.1
  0
CIRCLE
  5
3C5
100
AcDbEntity
  8
0
  6
Continuous
 62
               7
100
AcDbCircle
 10
769.08152599578693
 20
360.06937684668083
 30
0.0
 40
1.0
  0
CIRCLE
  5
3C6
100
AcDbEntity
  8
0
  6
Continuous
 62
               7
100
AcDbCircle
 10
775.18426572181465
 20
364.21007871681718
 30
0.0
 40
0.5
  0
CIRCLE
  5
3C7
100
AcDbEntity
  8
0
  6
Continuous
 62
               7
100
AcDbCircle
 10
785.79000202318434
 20
360.06937684668083
 30
0.0
 40
1.0
  0
CIRCLE
  5
3C8
100
AcDbEntity
  8
0
  6
Continuous
 62
               7
100
AcDbCircle
 10
791.89274174921161
 20
364.21007871681718
 30
0.0
 40
0.5
  0
CIRCLE
  5
3C9
100
AcDbEntity
  8
0
  6
Continuous
 62
               7
100
AcDbCircle
 10
780.45010476291031
 20
357.52656862750268
 30
0.0
 40
0.1
  0
CIRCLE
  5
3CA
100
AcDbEntity
  8
0
  6
Continuous
 62
               7
100
AcDbCircle
 10
802.49847805058175
 20
360.06937684668083
 30
0.0
 40
1.0
  0
CIRCLE
  5
3CB
100
AcDbEntity
  8
0
  6
Continuous
 62
               7
100
AcDbCircle
 10
808.60121777660902
 20
364.21007871681718
 30
0.0
 40
0.5
  0
CIRCLE
  5
3CC
100
AcDbEntity
  8
0
  6
Continuous
 62
               7
100
AcDbCircle
 10
797.15858079030772
 20
357.52656862750268
 30
0.0
 40
0.1
  0
CIRCLE
  5
3CD
100
AcDbEntity
  8
0
  6
Continuous
 62
               7
100
AcDbCircle
 10
819.20695407797916
 20
360.06937684668083
 30
0.0
 40
1.0
  0
CIRCLE
  5
3CE
100
AcDbEntity
  8
0
  6
Continuous
 62
               7
100
AcDbCircle
 10
825.30969380400643
 20
364.21007871681718
 30
0.0
 40
0.5
  0
CIRCLE
  5
3CF
100
AcDbEntity
  8
0
  6
Continuous
 62
               7
100
AcDbCircle
 10
813.86705681770513
 20
357.52656862750268
 30
0.0
 40
0.1
  0
CIRCLE
  5
3D0
100
AcDbEntity
  8
0
  6
Continuous
 62
               7
100
AcDbCircle
 10
835.91543010537657
 20
360.06937684668083
 30
0.0
 40
1.0
  0
CIRCLE
  5
3D1
100
AcDbEntity
  8
0
  6
Continuous
 62
               7
100
AcDbCircle
 10
842.01816983140384
 20
364.21007871681718
 30
0.0
 40
0.5
  0
CIRCLE
  5
3D2
100
AcDbEntity
  8
0
  6
Continuous
 62
               7
100
AcDbCircle
 10
830.57553284510254
 20
357.52656862750268
 30
0.0
 40
0.1
  0
CIRCLE
  5
3D3
100
AcDbEntity
  8
0
  6
Continuous
 62
               7
100
AcDbCircle
 10
852.62390613277398
 20
360.06937684668083
 30
0.0
 40
1.0
  0
CIRCLE
  5
3D4
100
AcDbEntity
  8
0
  6
Continuous
 62
               7
100
AcDbCircle
 10
847.28400887249995
 20
357.52656862750268
 30
0.0
 40
0.1
  0
ARC
  5
3D5
100
AcDbEntity
  8
0
  6
Continuous
 62
               4
100
AcDbCircle
 10
722.5351204810338
 20
457.80988825584438
 30
0.0
 40
0.750000000000014
100
AcDbArc
 50
269.99999999999994
 51
90.0
  0
ARC
  5
3D6
100
AcDbEntity
  8
0
  6
Continuous
 62
               7
100
AcDbCircle
 10
715.7851204810338
 20
483.05988825584461
 30
0.0
 40
2.5
100
AcDbArc
 50
269.99999999999994
 51
90.0
  0
ARC
  5
3D7
100
AcDbEntity
  8
0
  6
Continuous
 62
               4
100
AcDbCircle
 10
716.0351204810338
 20
482.80988825584461
 30
0.0
 40
0.75
100
AcDbArc
 50
269.99999999999994
 51
90.0
  0
ARC
  5
3D8
100
AcDbEntity
  8
0
  6
Continuous
 62
               4
100
AcDbCircle
 10
622.38512048103416
 20
517.05354852422408
 30
0.0
 40
1.5
100
AcDbArc
 50
180.0
 51
0.0
  0
ARC
  5
3D9
100
AcDbEntity
  8
0
  6
Continuous
 62
               7
100
AcDbCircle
 10
709.96812664567074
 20
456.58488825584425
 30
0.0
 40
1.342498905235243
100
AcDbArc
 50
310.22613280369052
 51
49.773867196309389
  0
ARC
  5
3DA
100
AcDbEntity
  8
0
  6
Continuous
 62
               7
100
AcDbCircle
 10
691.70211431639723
 20
456.58488825584425
 30
0.0
 40
1.342498905235243
100
AcDbArc
 50
130.22613280369055
 51
229.77386719630942
  0
ARC
  5
3DB
100
AcDbEntity
  8
0
  6
Continuous
 62
               4
100
AcDbCircle
 10
682.0049724227722
 20
485.09817982221114
 30
0.0
 40
0.5
100
AcDbArc
 50
0.0
 51
125.05942696688776
  0
ARC
  5
3DC
100
AcDbEntity
  8
0
  6
Continuous
 62
               4
100
AcDbCircle
 10
685.20497242277202
 20
485.09817982221114
 30
0.0
 40
0.5
100
AcDbArc
 50
54.940573033113722
 51
180.0000000000008
  0
ARC
  5
3DD
100
AcDbEntity
  8
0
  6
Continuous
 62
               4
100
AcDbCircle
 10
685.40497242277229
 20
480.40594905442765
 30
0.0
 40
1.0
100
AcDbArc
 50
209.05460409907829
 51
72.542396876278815
  0
ARC
  5
3DE
100
AcDbEntity
  8
0
  6
Continuous
 62
               4
100
AcDbCircle
 10
681.80497242277193
 20
480.40594905442765
 30
0.0
 40
1.0
100
AcDbArc
 50
107.45760312372272
 51
330.9453959009233
  0
ARC
  5
3DF
100
AcDbEntity
  8
0
  6
Continuous
 62
               4
100
AcDbCircle
 10
611.71364012972663
 20
699.11331597972378
 30
0.0
 40
2.0
100
AcDbArc
 50
86.987212495815413
 51
176.98721249581766
  0
ARC
  5
3E0
100
AcDbEntity
  8
0
  6
Continuous
 62
               4
100
AcDbCircle
 10
620.1739416721191
 20
698.66803695117699
 30
0.0
 40
2.0
100
AcDbArc
 50
8.0699151912738127
 51
86.987212495815697
  0
ARC
  5
3E1
100
AcDbEntity
  8
0
  6
Continuous
 62
               4
100
AcDbCircle
 10
429.78133014467608
 20
707.68731663207257
 30
0.0
 40
3.0
100
AcDbArc
 50
356.98721249581661
 51
86.987212495815911
  0
ARC
  5
3E2
100
AcDbEntity
  8
0
  6
Continuous
 62
               4
100
AcDbCircle
 10
418.11895617654613
 20
703.29420536975306
 30
0.0
 40
8.0
100
AcDbArc
 50
86.987212495814731
 51
170.03964059994635
  0
ARC
  5
3E3
100
AcDbEntity
  8
0
  6
Continuous
 62
               7
100
AcDbCircle
 10
863.30759006736184
 20
499.05988825587883
 30
0.0
 40
0.5
100
AcDbArc
 50
0.0
 51
135.00000000192068
  0
ARC
  5
3E4
100
AcDbEntity
  8
0
  6
Continuous
 62
               7
100
AcDbCircle
 10
865.30759006736184
 20
499.05988825587883
 30
0.0
 40
0.5
100
AcDbArc
 50
44.999999998079311
 51
180.0
  0
ARC
  5
3E5
100
AcDbEntity
  8
0
  6
Continuous
 62
               2
100
AcDbCircle
 10
864.30759006736184
 20
491.55988825587883
 30
0.0
 40
9.0
100
AcDbArc
 50
283.82097097210107
 51
217.8192442185412
  0
ARC
  5
3E6
100
AcDbEntity
  8
0
  6
Continuous
 62
               2
100
AcDbCircle
 10
864.30759006736207
 20
496.55988825587883
 30
0.0
 40
3.5000000000000142
100
AcDbArc
 50
0.0
 51
176.50060970325697
  0
ARC
  5
3E7
100
AcDbEntity
  8
0
  6
Continuous
 62
               2
100
AcDbCircle
 10
869.8575900673618
 20
491.87349215281097
 30
0.0
 40
1.0
100
AcDbArc
 50
0.0
 51
45.000000000000391
  0
ARC
  5
3E8
100
AcDbEntity
  8
0
  6
Continuous
 62
               2
100
AcDbCircle
 10
868.80759006736207
 20
495.75191927755714
 30
0.0
 40
1.0
100
AcDbArc
 50
180.0
 51
225.00000000000043
  0
ARC
  5
3E9
100
AcDbEntity
  8
0
  6
Continuous
 62
               2
100
AcDbCircle
 10
859.30759006736207
 20
492.43856791231906
 30
0.0
 40
2.0
100
AcDbArc
 50
134.99999999999994
 51
180.0
  0
ARC
  5
3EA
100
AcDbEntity
  8
0
  6
Continuous
 62
               2
100
AcDbCircle
 10
858.30759006736207
 20
488.55988825587883
 30
0.0
 40
1.0
100
AcDbArc
 50
180.0
 51
270.0
  0
ARC
  5
3EB
100
AcDbEntity
  8
0
  6
Continuous
 62
               2
100
AcDbCircle
 10
861.15759006736198
 20
486.55988825587883
 30
0.0
 40
1.0
100
AcDbArc
 50
0.0
 51
90.000000000000028
  0
ARC
  5
3EC
100
AcDbEntity
  8
0
  6
Continuous
 62
               2
100
AcDbCircle
 10
857.98799720601437
 20
486.65450895690469
 30
0.0
 40
1.0
100
AcDbArc
 50
217.81924421854103
 51
315.00000000000063
  0
ARC
  5
3ED
100
AcDbEntity
  8
0
  6
Continuous
 62
               2
100
AcDbCircle
 10
860.0649493802423
 20
486.61014078757307
 30
0.0
 40
0.5
100
AcDbArc
 50
45.000000000000561
 51
134.99999999999994
  0
ARC
  5
3EE
100
AcDbEntity
  8
0
  6
Continuous
 62
               2
100
AcDbCircle
 10
971.30759006735525
 20
450.83488825590211
 30
0.0
 40
9.7249999999999979
100
AcDbArc
 50
29.068910161080161
 51
150.93108983891977
  0
ARC
  5
3EF
100
AcDbEntity
  8
0
  6
Continuous
 62
               2
100
AcDbCircle
 10
757.30759006736434
 20
450.83488825588415
 30
0.0
 40
9.7249999999999979
100
AcDbArc
 50
29.068910161080161
 51
150.93108983891977
  0
TEXT
  5
3F0
100
AcDbEntity
  8
0
 62
               7
100
AcDbText
 10
775.7851204810338
 20
460.55988825584438
 30
0.0
 40
20.0
  1
30
 50
90.000000000000028
 41
0.7695
  7
FontTableH_0
 72
               5
 11
775.7851204810338
 21
480.55988825584438
 31
0.0
100
AcDbText
  0
TEXT
  5
3F1
100
AcDbEntity
  8
0
 62
               7
100
AcDbText
 10
695.78512048103403
 20
530.55988825584438
 30
0.0
 40
20.0
  1
25
 41
0.7695
  7
FontTableH_0
 72
               5
 11
715.78512048103403
 21
530.55988825584438
 31
0.0
100
AcDbText
  0
TEXT
  5
3F2
100
AcDbEntity
  8
0
 62
               7
100
AcDbText
 10
653.2851204810338
 20
560.55988825584438
 30
0.0
 40
20.0
  1
100
 41
0.7695
  7
FontTableH_0
 72
               5
 11
683.2851204810338
 21
560.55988825584438
 31
0.0
100
AcDbText
  0
TEXT
  5
3F3
100
AcDbEntity
  8
0
 62
               7
100
AcDbText
 10
940.55759006735911
 20
560.55988825584438
 30
0.0
 40
20.0
  1
@320
 41
0.7695
  7
FontTableH_0
 72
               5
 11
980.55759006735911
 21
560.55988825584438
 31
0.0
100
AcDbText
  0
TEXT
  5
3F4
100
AcDbEntity
  8
0
 62
               7
100
AcDbText
 10
742.4819449497902
 20
517.66588428885404
 30
0.0
 40
20.0
  1
面戸
 41
0.7695
  7
FontTableH_0
 72
               5
 11
782.4819449497902
 21
517.66588428885404
 31
0.0
100
AcDbText
  0
TEXT
  5
3F5
100
AcDbEntity
  8
0
 62
               7
100
AcDbText
 10
713.01661678513665
 20
611.826824293291
 30
0.0
 40
20.0
  1
雨押え
 41
0.7695
  7
FontTableH_0
 72
               5
 11
773.01661678513665
 21
611.826824293291
 31
0.0
100
AcDbText
  0
TEXT
  5
3F6
100
AcDbEntity
  8
0
 62
               7
100
AcDbText
 10
616.14829523538515
 20
766.41120204479978
 30
0.0
 40
20.000000000000568
  1
アルミ笠木（別途）
 41
0.7695
  7
FontTableH_0
 72
               5
 11
796.14829523538515
 21
766.41120204479978
 31
0.0
100
AcDbText
  0
TEXT
  5
3F7
100
AcDbEntity
  8
0
 62
               7
100
AcDbText
 10
887.20066878886814
 20
658.56389544800106
 30
0.0
 40
20.0
  1
屋根本体
 41
0.7695
  7
FontTableH_0
 72
               5
 11
967.20066878886814
 21
658.56389544800106
 31
0.0
100
AcDbText
  0
TEXT
  5
3F8
100
AcDbEntity
  8
0
 62
               7
100
AcDbText
 10
731.29635527419782
 20
560.55988825584473
 30
0.0
 40
20.0
  1
(割付による)
 41
0.7695
  7
FontTableH_0
 72
               5
 11
851.29635527419782
 21
560.55988825584473
 31
0.0
100
AcDbText
  0
TEXT
  5
3F9
100
AcDbEntity
  8
0
 62
               7
100
AcDbText
 10
1101.8075900673593
 20
468.05988825586189
 30
0.0
 40
20.0
  1
45
 50
90.000000000000028
 41
0.7695
  7
FontTableH_0
 72
               5
 11
1101.8075900673593
 21
488.05988825586189
 31
0.0
100
AcDbText
  0
TEXT
  5
3FA
100
AcDbEntity
  8
0
 62
               7
100
AcDbText
 10
1101.8075900673596
 20
387.55988825584427
 30
0.0
 40
20.0
  1
100
 50
90.000000000000028
 41
0.7695
  7
FontTableH_0
 72
               5
 11
1101.8075900673596
 21
417.55988825584427
 31
0.0
100
AcDbText
  0
TEXT
  5
3FB
100
AcDbEntity
  8
0
 62
               7
100
AcDbText
 10
546.37666985574469
 20
311.90107850027255
 30
0.0
 40
20.0
  1
ルーフィング
 41
0.7695
  7
FontTableH_0
 72
               5
 11
666.37666985574469
 21
311.90107850027255
 31
0.0
100
AcDbText
  0
TEXT
  5
3FC
100
AcDbEntity
  8
0
 62
               7
100
AcDbText
 10
646.75662844181079
 20
272.63684826401476
 30
0.0
 40
20.000000000000284
  1
断熱材
 41
0.7695
  7
FontTableH_0
 72
               5
 11
706.75662844181079
 21
272.63684826401476
 31
0.0
100
AcDbText
  0
TEXT
  5
3FD
100
AcDbEntity
  8
0
 62
               7
100
AcDbText
 10
1245.699237596275
 20
37.507677550555059
 30
0.0
 40
15.0
  1
ケラバ詳細図 【S=1/5】
 41
0.7695
  7
FontTableH_0
 72
               5
 11
1410.699237596275
 21
37.507677550555059
 31
0.0
100
AcDbText
  0
TEXT
  5
3FE
100
AcDbEntity
  8
0
 62
               7
100
AcDbText
 10
44.254845672550005
 20
995.21046947427999
 30
0.0
 40
15.0
  1
コブラ工法 320G（屋上防水改修）
 41
0.7695
  7
FontTableH_0
 72
               5
 11
276.75484567255
 21
995.21046947427999
 31
0.0
100
AcDbText
  0
ENDSEC
  0
SECTION
  2
OBJECTS
  0
DICTIONARY
  5
19
100
AcDbDictionary
  3
ACAD_GROUP
350
1A
  3
ACAD_MLINESTYLE
350
1B
  3
DWGPROPS
350
3FF
  0
DICTIONARY
  5
1A
102
{ACAD_REACTORS
330
19
102
}
100
AcDbDictionary
  0
DICTIONARY
  5
1B
102
{ACAD_REACTORS
330
19
102
}
100
AcDbDictionary
  3
STANDARD
350
1C
  0
MLINESTYLE
  5
1C
102
{ACAD_REACTORS
330
1B
102
}
100
AcDbMlineStyle
  2
Standard
 70
               0
  3

 62
               0
 51
90.0
 52
90.0
 71
               2
 49
0.5
 62
             256
  6
ByLayer
 49
-0.5
 62
             256
  6
ByLayer
  0
XRECORD
  5
3FF
100
AcDbXrecord
  1
DWGPROPS COOKIE
  2

  3

  4

  6

  7

  0
ENDSEC
  0
EOF
