  0
SECTION
  2
HEADER
  9
$ACADVER
  1
AC1014
  9
$ACADMAINTVER
 70
               0
  9
$DWGCODEPAGE
  3
ANSI_932
  9
$INSBASE
 10
0.0
 20
0.0
 30
0.0
  9
$EXTMIN
 10
0.0
 20
0.0
 30
0.0
  9
$EXTMAX
 10
891.00000000000091
 20
630.00000000000068
 30
0.0
  9
$LIMMIN
 10
0.0
 20
0.0
  9
$LIMMAX
 10
891.00000000000091
 20
630.00000000000068
  9
$ORTHOMODE
 70
               0
  9
$REGENMODE
 70
               1
  9
$FILLMODE
 70
               1
  9
$QTEXTMODE
 70
               0
  9
$MIRRTEXT
 70
               1
  9
$DRAGMODE
 70
               2
  9
$LTSCALE
 40
3.0000000000000031
  9
$OSMODE
 70
               0
  9
$ATTMODE
 70
               1
  9
$TEXTSIZE
 40
0.2
  9
$TRACEWID
 40
0.05
  9
$TEXTSTYLE
  7
Standard
  9
$CLAYER
  8
0
  9
$CELTYPE
  6
Continuous
  9
$CECOLOR
 62
             256
  9
$CELTSCALE
 40
1.0
  9
$DELOBJ
 70
               1
  9
$DISPSILH
 70
               0
  9
$DIMSCALE
 40
1.0
  9
$DIMASZ
 40
0.18
  9
$DIMEXO
 40
0.0625
  9
$DIMDLI
 40
0.38
  9
$DIMRND
 40
0.0
  9
$DIMDLE
 40
0.0
  9
$DIMEXE
 40
0.18
  9
$DIMTP
 40
0.0
  9
$DIMTM
 40
0.0
  9
$DIMTXT
 40
0.18
  9
$DIMCEN
 40
0.09
  9
$DIMTSZ
 40
0.0
  9
$DIMTOL
 70
               0
  9
$DIMLIM
 70
               0
  9
$DIMTIH
 70
               1
  9
$DIMTOH
 70
               1
  9
$DIMSE1
 70
               0
  9
$DIMSE2
 70
               0
  9
$DIMTAD
 70
               0
  9
$DIMZIN
 70
               0
  9
$DIMBLK
  1

  9
$DIMASO
 70
               1
  9
$DIMSHO
 70
               1
  9
$DIMPOST
  1

  9
$DIMAPOST
  1

  9
$DIMALT
 70
               0
  9
$DIMALTD
 70
               2
  9
$DIMALTF
 40
25.399999999999999
  9
$DIMLFAC
 40
1.0
  9
$DIMTOFL
 70
               0
  9
$DIMTVP
 40
0.0
  9
$DIMTIX
 70
               0
  9
$DIMSOXD
 70
               0
  9
$DIMSAH
 70
               0
  9
$DIMBLK1
  1

  9
$DIMBLK2
  1

  9
$DIMSTYLE
  2
Standard
  9
$DIMCLRD
 70
               0
  9
$DIMCLRE
 70
               0
  9
$DIMCLRT
 70
               0
  9
$DIMTFAC
 40
1.0
  9
$DIMGAP
 40
0.09
  9
$DIMJUST
 70
               0
  9
$DIMSD1
 70
               0
  9
$DIMSD2
 70
               0
  9
$DIMTOLJ
 70
               1
  9
$DIMTZIN
 70
               0
  9
$DIMALTZ
 70
               0
  9
$DIMALTTZ
 70
               0
  9
$DIMFIT
 70
               3
  9
$DIMUPT
 70
               0
  9
$DIMUNIT
 70
               2
  9
$DIMDEC
 70
               4
  9
$DIMTDEC
 70
               4
  9
$DIMALTU
 70
               2
  9
$DIMALTTD
 70
               2
  9
$DIMTXSTY
  7
Standard
  9
$DIMAUNIT
 70
               0
  9
$LUNITS
 70
               2
  9
$LUPREC
 70
               4
  9
$SKETCHINC
 40
0.1
  9
$FILLETRAD
 40
0.0
  9
$AUNITS
 70
               0
  9
$AUPREC
 70
               0
  9
$MENU
  1
acad
  9
$ELEVATION
 40
0.0
  9
$PELEVATION
 40
0.0
  9
$THICKNESS
 40
0.0
  9
$LIMCHECK
 70
               0
  9
$BLIPMODE
 70
               1
  9
$CHAMFERA
 40
0.0
  9
$CHAMFERB
 40
0.0
  9
$CHAMFERC
 40
0.0
  9
$CHAMFERD
 40
0.0
  9
$SKPOLY
 70
               0
  9
$TDCREATE
 40
0.000000000
  9
$TDUPDATE
 40
0.000000000
  9
$TDINDWG
 40
0.0000000000
  9
$TDUSRTIMER
 40
0.0000000000
  9
$USRTIMER
 70
               1
  9
$ANGBASE
 50
0.0
  9
$ANGDIR
 70
               0
  9
$PDMODE
 70
               0
  9
$PDSIZE
 40
0.0
  9
$PLINEWID
 40
0.0
  9
$COORDS
 70
               0
  9
$SPLFRAME
 70
               0
  9
$SPLINETYPE
 70
               6
  9
$SPLINESEGS
 70
               8
  9
$ATTDIA
 70
               0
  9
$ATTREQ
 70
               1
  9
$HANDLING
 70
               1
  9
$HANDSEED
  5
170
  9
$SURFTAB1
 70
               6
  9
$SURFTAB2
 70
               6
  9
$SURFTYPE
 70
               6
  9
$SURFU
 70
               6
  9
$SURFV
 70
               6
  9
$UCSNAME
  2

  9
$UCSORG
 10
0.0
 20
0.0
 30
0.0
  9
$UCSXDIR
 10
1.0
 20
0.0
 30
0.0
  9
$UCSYDIR
 10
0.0
 20
1.0
 30
0.0
  9
$PUCSNAME
  2

  9
$PUCSORG
 10
0.0
 20
0.0
 30
0.0
  9
$PUCSXDIR
 10
1.0
 20
0.0
 30
0.0
  9
$PUCSYDIR
 10
0.0
 20
1.0
 30
0.0
  9
$USERI1
 70
               0
  9
$USERI2
 70
               0
  9
$USERI3
 70
               0
  9
$USERI4
 70
               0
  9
$USERI5
 70
               0
  9
$USERR1
 40
0.0
  9
$USERR2
 40
0.0
  9
$USERR3
 40
0.0
  9
$USERR4
 40
0.0
  9
$USERR5
 40
0.0
  9
$WORLDVIEW
 70
               1
  9
$SHADEDGE
 70
               3
  9
$SHADEDIF
 70
              70
  9
$TILEMODE
 70
               1
  9
$MAXACTVP
 70
              16
  9
$PINSBASE
 10
0.0
 20
0.0
 30
0.0
  9
$PLIMCHECK
 70
               0
  9
$PEXTMIN
 10
1.0000000000000000E+20
 20
1.0000000000000000E+20
 30
1.0000000000000000E+20
  9
$PEXTMAX
 10
-1.0000000000000000E+20
 20
-1.0000000000000000E+20
 30
-1.0000000000000000E+20
  9
$PLIMMIN
 10
0.0
 20
0.0
  9
$PLIMMAX
 10
12.0
 20
9.0
  9
$UNITMODE
 70
               0
  9
$VISRETAIN
 70
               0
  9
$PLINEGEN
 70
               1
  9
$PSLTSCALE
 70
               0
  9
$TREEDEPTH
 70
            3020
  9
$PICKSTYLE
 70
               1
  9
$CMLSTYLE
  2
Standard
  9
$CMLJUST
 70
               0
  9
$CMLSCALE
 40
1.0
  9
$PROXYGRAPHICS
 70
               0
  9
$MEASUREMENT
 70
               0
  0
ENDSEC
  0
SECTION
  2
CLASSES
  0
CLASS
  1
LWPOLYLINE
  2
AcDbPolyline
  3
"AutoCAD"
 90
        0
280
               0
281
               1
  0
CLASS
  1
IMAGE
  2
AcDbRasterImage
  3
ISM
 90
      127
280
               0
281
               1
  0
CLASS
  1
OLE2FRAME
  2
AcDbOle2Frame
  3
""
 90
        0
280
               0
281
               1
  0
CLASS
  1
HATCH
  2
AcDbHatch
  3
"ACAD_SEDONA"
 90
        0
280
               0
281
               1
  0
CLASS
  1
DICTIONARYVAR
  2
AcDbDictionaryVar
  3
"AutoCAD"
 90
        0
280
               0
281
               0
  0
CLASS
  1
RASTERVARIABLES
  2
AcDbRasterVariables
  3
ISM
 90
        0
280
               0
281
               0
  0
CLASS
  1
IMAGEDEF
  2
AcDbRasterImageDef
  3
ISM
 90
        0
280
               0
281
               0
  0
CLASS
  1
IMAGEDEF_REACTOR
  2
AcDbRasterImageDefReactor
  3
ISM
 90
        1
280
               0
281
               0
  0
CLASS
  1
IDBUFFER
  2
AcDbIdBuffer
  3
"Acad"
 90
        0
280
               0
281
               0
  0
CLASS
  1
SPATIAL_FILTER
  2
AcDbSpatialFilter
  3
"Acad"
 90
        0
280
               0
281
               0
  0
CLASS
  1
XRECORD
  2
AcDbXrecord
  3
"<Built In>"
 90
        0
280
               0
281
               0
  0
CLASS
  1
SORTENTSTABLE
  2
AcDbSortentsTable
  3
"AutoCAD"
 90
        0
280
               0
281
               0
  0
CLASS
  1
LAYER_INDEX
  2
AcDbLayerIndex
  3
"Acad"
 90
        0
280
               0
281
               0
  0
CLASS
  1
SPATIAL_INDEX
  2
AcDbSpatialIndex
  3
"Acad"
 90
        0
280
               0
281
               0
  0
CLASS
  1
OBJECT_PTR
  2
CAseDLPNTableRecord
  3
"ASE-LPNTableRecord"
 90
        1
280
               0
281
               0
  0
CLASS
  1
LAYOUT
  2
AcDbLayout
  3
"AutoCAD 2000"
 90
        0
280
               0
281
               0
  0
CLASS
  1
PLOTSETTINGS
  2
AcDbPlotSettings
  3
"AutoCAD 2000"
 90
        0
280
               0
281
               0
  0
CLASS
  1
ACDBDICTIONARYWDFLT
  2
AcDbDictionaryWithDefault
  3
"AutoCAD 2000"
 90
        0
280
               0
281
               0
  0
CLASS
  1
ACDBPLACEHOLDER
  2
AcDbPlaceHolder
  3
"AutoCAD 2000"
 90
        0
280
               0
281
               0
  0
CLASS
  1
VBA_PROJECT
  2
AcDbVbaProject
  3
"acadvba"
 90
        0
280
               0
281
               0
  0
CLASS
  1
WIPEOUT
  2
AcDbWipeout
  3
WipeOut|AutoCAD Express Tool|expresstools@autodesk.com
 90
      127
280
               0
281
               1
  0
CLASS
  1
WIPEOUTVARIABLES
  2
AcDbWipeoutVariables
  3
WipeOut|AutoCAD Express Tool|expresstools@autodesk.com
 90
        0
280
               0
281
               0
  0
CLASS
  1
RTEXT
  2
RText
  3
RText|AutoCAD Express Tool|expresstools@autodesk.com
 90
        0
280
               0
281
               1
  0
CLASS
  1
ARCALIGNEDTEXT
  2
AcDbArcAlignedText
  3
ATEXT|AutoCAD Express Tool|expresstools@autodesk.com
 90
        0
280
               0
281
               1
  0
ENDSEC
  0
SECTION
  2
TABLES
  0
TABLE
  2
VPORT
  5
7
100
AcDbSymbolTable
 70
               1
  0
VPORT
  5
15
100
AcDbSymbolTableRecord
100
AcDbViewportTableRecord
  2
*ACTIVE
 70
               0
 10
0.0
 20
0.0
 11
1.0
 21
1.0
 12
445.50000000000045
 22
315.00000000000034
 13
0.0
 23
0.0
 14
10.0
 24
10.0
 15
10.0
 25
10.0
 16
0.0
 26
0.0
 36
1.0
 17
0.0
 27
0.0
 37
0.0
 40
630.00000000000068
 41
1.4142857142857141
 42
50.0
 43
0.0
 44
0.0
 50
0.0
 51
0.0
 71
               0
 72
             100
 73
               1
 74
               1
 75
               0
 76
               0
 77
               0
 78
               0
  0
ENDTAB
  0
TABLE
  2
LTYPE
  5
4
100
AcDbSymbolTable
 70
              24
  0
LTYPE
  5
11
100
AcDbSymbolTableRecord
100
AcDbLinetypeTableRecord
  2
ByBlock
 70
              64
  3

 72
              65
 73
               0
 40
0.0
  0
LTYPE
  5
12
100
AcDbSymbolTableRecord
100
AcDbLinetypeTableRecord
  2
ByLayer
 70
              64
  3

 72
              65
 73
               0
 40
0.0
  0
LTYPE
  5
13
100
AcDbSymbolTableRecord
100
AcDbLinetypeTableRecord
  2
Continuous
 70
              64
  3
Solid line
 72
              65
 73
               0
 40
0.0
  0
LTYPE
  5
1D
100
AcDbSymbolTableRecord
100
AcDbLinetypeTableRecord
  2
DOT
 70
              64
  3
Dot . . . . . . . . . . . . . . . . . . . . . .
 72
              65
 73
               2
 40
6.3499999999999996
 49
0.35
 74
               0
 49
-6.0
 74
               0
  0
LTYPE
  5
1E
100
AcDbSymbolTableRecord
100
AcDbLinetypeTableRecord
  2
DASHED
 70
              64
  3
Dashed __ __ __ __ __ __ __ __ __ __ __ __ __ _
 72
              65
 73
               2
 40
12.699999999999999
 49
6.3499999999999996
 74
               0
 49
-6.3499999999999996
 74
               0
  0
LTYPE
  5
1F
100
AcDbSymbolTableRecord
100
AcDbLinetypeTableRecord
  2
DASHDOT
 70
              64
  3
Dash dot __ . __ . __ . __ . __ . __ . __ . __
 72
              65
 73
               4
 40
25.399999999999999
 49
12.699999999999999
 74
               0
 49
-6.0
 74
               0
 49
0.7
 74
               0
 49
-6.0
 74
               0
  0
LTYPE
  5
20
100
AcDbSymbolTableRecord
100
AcDbLinetypeTableRecord
  2
DIVIDE
 70
              64
  3
Divide ____ . . ____ . . ____ . . ____ . . ____
 72
              65
 73
               6
 40
31.75
 49
12.699999999999999
 74
               0
 49
-6.0
 74
               0
 49
0.875
 74
               0
 49
-6.0
 74
               0
 49
0.875
 74
               0
 49
-6.0
 74
               0
  0
LTYPE
  5
21
100
AcDbSymbolTableRecord
100
AcDbLinetypeTableRecord
  2
HIDDEN
 70
              64
  3
Hidden __ __ __ __ __ __ __ __ __ __ __ __ __ _
 72
              65
 73
               2
 40
9.5250000000000004
 49
6.3499999999999996
 74
               0
 49
-3.1749999999999998
 74
               0
  0
LTYPE
  5
22
100
AcDbSymbolTableRecord
100
AcDbLinetypeTableRecord
  2
CENTER
 70
              64
  3
Center ____ _ ____ _ ____ _ ____ _ ____ _ ____
 72
              65
 73
               4
 40
50.799999999999997
 49
31.75
 74
               0
 49
-6.3499999999999996
 74
               0
 49
6.3499999999999996
 74
               0
 49
-6.3499999999999996
 74
               0
  0
LTYPE
  5
23
100
AcDbSymbolTableRecord
100
AcDbLinetypeTableRecord
  2
PHANTOM
 70
              64
  3
Phantom ______  __  __  ______  __  __  ______
 72
              65
 73
               6
 40
63.5
 49
31.75
 74
               0
 49
-6.3499999999999996
 74
               0
 49
6.3499999999999996
 74
               0
 49
-6.3499999999999996
 74
               0
 49
6.3499999999999996
 74
               0
 49
-6.3499999999999996
 74
               0
  0
LTYPE
  5
24
100
AcDbSymbolTableRecord
100
AcDbLinetypeTableRecord
  2
ACAD_ISO02W100
 70
              64
  3
ISO dash __ __ __ __ __ __ __ __ __ __ __ __ __
 72
              65
 73
               2
 40
15.0
 49
12.0
 74
               0
 49
-3.0
 74
               0
  0
LTYPE
  5
25
100
AcDbSymbolTableRecord
100
AcDbLinetypeTableRecord
  2
ACAD_ISO03W100
 70
              64
  3
ISO dash space __ __ __ __ __ __ __ __ __ __ __ __ __ __
 72
              65
 73
               2
 40
30.0
 49
12.0
 74
               0
 49
-18.0
 74
               0
  0
LTYPE
  5
26
100
AcDbSymbolTableRecord
100
AcDbLinetypeTableRecord
  2
ACAD_ISO04W100
 70
              64
  3
ISO long-dash dot ____ . ____ . ____ . ____ . _
 72
              65
 73
               4
 40
30.0
 49
24.0
 74
               0
 49
-3.0
 74
               0
 49
0.0
 74
               0
 49
-3.0
 74
               0
  0
LTYPE
  5
27
100
AcDbSymbolTableRecord
100
AcDbLinetypeTableRecord
  2
ACAD_ISO05W100
 70
              64
  3
ISO long-dash double-dot ____ .. ____ .. ____ .
 72
              65
 73
               6
 40
33.0
 49
24.0
 74
               0
 49
-3.0
 74
               0
 49
0.0
 74
               0
 49
-3.0
 74
               0
 49
0.0
 74
               0
 49
-3.0
 74
               0
  0
LTYPE
  5
28
100
AcDbSymbolTableRecord
100
AcDbLinetypeTableRecord
  2
ACAD_ISO06W100
 70
              64
  3
ISO long-dash triple-dot ____ ... ____ ... ____
 72
              65
 73
               8
 40
36.0
 49
24.0
 74
               0
 49
-3.0
 74
               0
 49
0.0
 74
               0
 49
-3.0
 74
               0
 49
0.0
 74
               0
 49
-3.0
 74
               0
 49
0.0
 74
               0
 49
-3.0
 74
               0
  0
LTYPE
  5
29
100
AcDbSymbolTableRecord
100
AcDbLinetypeTableRecord
  2
ACAD_ISO07W100
 70
              64
  3
ISO dot . . . . . . . . . . . . . . . . . . . .
 72
              65
 73
               2
 40
3.0
 49
0.0
 74
               0
 49
-3.0
 74
               0
  0
LTYPE
  5
2A
100
AcDbSymbolTableRecord
100
AcDbLinetypeTableRecord
  2
ACAD_ISO08W100
 70
              64
  3
ISO long-dash short-dash ____ __ ____ __ ____ _
 72
              65
 73
               4
 40
36.0
 49
24.0
 74
               0
 49
-3.0
 74
               0
 49
6.0
 74
               0
 49
-3.0
 74
               0
  0
LTYPE
  5
2B
100
AcDbSymbolTableRecord
100
AcDbLinetypeTableRecord
  2
ACAD_ISO09W100
 70
              64
  3
ISO long-dash double-short-dash ____ __ __ ____
 72
              65
 73
               6
 40
45.0
 49
24.0
 74
               0
 49
-3.0
 74
               0
 49
6.0
 74
               0
 49
-3.0
 74
               0
 49
6.0
 74
               0
 49
-3.0
 74
               0
  0
LTYPE
  5
2C
100
AcDbSymbolTableRecord
100
AcDbLinetypeTableRecord
  2
ACAD_ISO10W100
 70
              64
  3
ISO dash dot __ . __ . __ . __ . __ . __ . __ .
 72
              65
 73
               4
 40
18.0
 49
12.0
 74
               0
 49
-3.0
 74
               0
 49
0.0
 74
               0
 49
-3.0
 74
               0
  0
LTYPE
  5
2D
100
AcDbSymbolTableRecord
100
AcDbLinetypeTableRecord
  2
ACAD_ISO11W100
 70
              64
  3
ISO double-dash dot __ __ . __ __ . __ __ . __ 
 72
              65
 73
               6
 40
33.0
 49
12.0
 74
               0
 49
-3.0
 74
               0
 49
12.0
 74
               0
 49
-3.0
 74
               0
 49
0.0
 74
               0
 49
-3.0
 74
               0
  0
LTYPE
  5
2E
100
AcDbSymbolTableRecord
100
AcDbLinetypeTableRecord
  2
ACAD_ISO12W100
 70
              64
  3
ISO dash double-dot __ . . __ . . __ . . __ . .
 72
              65
 73
               6
 40
21.0
 49
12.0
 74
               0
 49
-3.0
 74
               0
 49
0.0
 74
               0
 49
-3.0
 74
               0
 49
0.0
 74
               0
 49
-3.0
 74
               0
  0
LTYPE
  5
2F
100
AcDbSymbolTableRecord
100
AcDbLinetypeTableRecord
  2
ACAD_ISO13W100
 70
              64
  3
ISO double-dash double-dot __ __ . . __ __ . . 
 72
              65
 73
               8
 40
36.0
 49
12.0
 74
               0
 49
-3.0
 74
               0
 49
12.0
 74
               0
 49
-3.0
 74
               0
 49
0.0
 74
               0
 49
-3.0
 74
               0
 49
0.0
 74
               0
 49
-3.0
 74
               0
  0
LTYPE
  5
30
100
AcDbSymbolTableRecord
100
AcDbLinetypeTableRecord
  2
ACAD_ISO14W100
 70
              64
  3
ISO dash triple-dot __ . . . __ . . . __ . . . 
 72
              65
 73
               8
 40
24.0
 49
12.0
 74
               0
 49
-3.0
 74
               0
 49
0.0
 74
               0
 49
-3.0
 74
               0
 49
0.0
 74
               0
 49
-3.0
 74
               0
 49
0.0
 74
               0
 49
-3.0
 74
               0
  0
LTYPE
  5
31
100
AcDbSymbolTableRecord
100
AcDbLinetypeTableRecord
  2
ACAD_ISO15W100
 70
              64
  3
ISO double-dash double-dot __ __ . . __ __ . . 
 72
              65
 73
              10
 40
39.0
 49
12.0
 74
               0
 49
-3.0
 74
               0
 49
12.0
 74
               0
 49
-3.0
 74
               0
 49
0.0
 74
               0
 49
-3.0
 74
               0
 49
0.0
 74
               0
 49
-3.0
 74
               0
 49
0.0
 74
               0
 49
-3.0
 74
               0
  0
ENDTAB
  0
TABLE
  2
LAYER
  5
2
100
AcDbSymbolTable
 70
              16
  0
LAYER
  5
14
100
AcDbSymbolTableRecord
100
AcDbLayerTableRecord
  2
0
 70
               0
 62
               7
  6
Continuous
  0
LAYER
  5
35
100
AcDbSymbolTableRecord
100
AcDbLayerTableRecord
  2
Layer00001
 70
               0
 62
               7
  6
Continuous
  0
LAYER
  5
36
100
AcDbSymbolTableRecord
100
AcDbLayerTableRecord
  2
Layer00002
 70
               0
 62
               7
  6
Continuous
  0
LAYER
  5
37
100
AcDbSymbolTableRecord
100
AcDbLayerTableRecord
  2
Layer00003
 70
               0
 62
               7
  6
Continuous
  0
LAYER
  5
38
100
AcDbSymbolTableRecord
100
AcDbLayerTableRecord
  2
Layer00004
 70
               0
 62
               7
  6
Continuous
  0
LAYER
  5
39
100
AcDbSymbolTableRecord
100
AcDbLayerTableRecord
  2
Layer00005
 70
               0
 62
               7
  6
Continuous
  0
LAYER
  5
3A
100
AcDbSymbolTableRecord
100
AcDbLayerTableRecord
  2
Layer00006
 70
               0
 62
               7
  6
Continuous
  0
LAYER
  5
3B
100
AcDbSymbolTableRecord
100
AcDbLayerTableRecord
  2
Layer00007
 70
               0
 62
               7
  6
Continuous
  0
LAYER
  5
3C
100
AcDbSymbolTableRecord
100
AcDbLayerTableRecord
  2
Layer00008
 70
               0
 62
               7
  6
Continuous
  0
LAYER
  5
3D
100
AcDbSymbolTableRecord
100
AcDbLayerTableRecord
  2
Layer00009
 70
               0
 62
               7
  6
Continuous
  0
LAYER
  5
3E
100
AcDbSymbolTableRecord
100
AcDbLayerTableRecord
  2
Layer00010
 70
               0
 62
               7
  6
Continuous
  0
LAYER
  5
3F
100
AcDbSymbolTableRecord
100
AcDbLayerTableRecord
  2
Layer00011
 70
               0
 62
               7
  6
Continuous
  0
LAYER
  5
40
100
AcDbSymbolTableRecord
100
AcDbLayerTableRecord
  2
Layer00012
 70
               0
 62
               7
  6
Continuous
  0
LAYER
  5
41
100
AcDbSymbolTableRecord
100
AcDbLayerTableRecord
  2
Layer00013
 70
               0
 62
               7
  6
Continuous
  0
LAYER
  5
42
100
AcDbSymbolTableRecord
100
AcDbLayerTableRecord
  2
Layer00014
 70
               0
 62
               7
  6
Continuous
  0
LAYER
  5
43
100
AcDbSymbolTableRecord
100
AcDbLayerTableRecord
  2
Layer00015
 70
               0
 62
               7
  6
Continuous
  0
ENDTAB
  0
TABLE
  2
STYLE
  5
3
100
AcDbSymbolTable
 70
               4
  0
STYLE
  5
17
100
AcDbSymbolTableRecord
100
AcDbTextStyleTableRecord
  2
Standard
 70
               0
 40
0.0
 41
1.0
 50
0.0
 71
               0
 42
0.0
  3
txt.shx
  4
bigfont.shx
  0
STYLE
  5
32
100
AcDbSymbolTableRecord
100
AcDbTextStyleTableRecord
  2
STANDARD_T
 70
               4
 40
0.0
 41
1.0
 50
0.0
 71
               0
 42
0.0
  3
txt.shx
  4
bigfont.shx
  0
STYLE
  5
33
100
AcDbSymbolTableRecord
100
AcDbTextStyleTableRecord
  2
FontTableH_0
 70
               0
 40
0.0
 41
1.0
 50
0.0
 71
               0
 42
0.0
  3
MS Gothic.ttf
  4

1001
ACAD
1000
MS Gothic
1071
    32817
  0
STYLE
  5
34
100
AcDbSymbolTableRecord
100
AcDbTextStyleTableRecord
  2
FontTableV_0
 70
               0
 40
0.0
 41
1.0
 50
0.0
 71
               0
 42
0.0
  3
@MS Gothic.ttf
  4

1001
ACAD
1000
@MS Gothic
1071
    32817
  0
ENDTAB
  0
TABLE
  2
VIEW
  5
5
100
AcDbSymbolTable
 70
               0
  0
ENDTAB
  0
TABLE
  2
UCS
  5
6
100
AcDbSymbolTable
 70
               0
  0
ENDTAB
  0
TABLE
  2
APPID
  5
8
100
AcDbSymbolTable
 70
               1
  0
APPID
  5
16
100
AcDbSymbolTableRecord
100
AcDbRegAppTableRecord
  2
ACAD
 70
               0
  0
ENDTAB
  0
TABLE
  2
DIMSTYLE
  5
9
100
AcDbSymbolTable
 70
               1
  0
DIMSTYLE
105
18
100
AcDbSymbolTableRecord
100
AcDbDimStyleTableRecord
  2
Standard
 70
               0
  3

  4

  5

  6

  7

 40
1.0
 41
0.18
 42
0.0625
 43
0.38
 44
0.18
 45
0.0
 46
0.0
 47
0.0
 48
0.0
 71
               0
 72
               0
 73
               1
 74
               1
 75
               0
 76
               0
 77
               0
 78
               0
140
0.18
141
0.09
142
0.0
143
25.399999999999999
144
1.0
145
0.0
146
1.0
147
0.09
170
               0
171
               2
172
               0
173
               0
174
               0
175
               0
176
               0
177
               0
178
               0
270
               2
271
               4
272
               4
273
               2
274
               2
275
               0
280
               0
281
               0
282
               0
283
               1
284
               0
285
               0
286
               0
287
               0
288
               0
340
17
  0
ENDTAB
  0
TABLE
  2
BLOCK_RECORD
  5
1
100
AcDbSymbolTable
 70
               0
  0
BLOCK_RECORD
  5
A
100
AcDbSymbolTableRecord
100
AcDbBlockTableRecord
  2
*MODEL_SPACE
  0
BLOCK_RECORD
  5
B
100
AcDbSymbolTableRecord
100
AcDbBlockTableRecord
  2
*PAPER_SPACE
  0
ENDTAB
  0
ENDSEC
  0
SECTION
  2
BLOCKS
  0
BLOCK
  5
D
100
AcDbEntity
  8
0
100
AcDbBlockBegin
  2
*MODEL_SPACE
 70
               0
 10
0.0
 20
0.0
 30
0.0
  3
*MODEL_SPACE
  1

  0
ENDBLK
  5
E
100
AcDbEntity
  8
0
100
AcDbBlockEnd
  0
BLOCK
  5
F
100
AcDbEntity
 67
               1
  8
0
100
AcDbBlockBegin
  2
*PAPER_SPACE
 70
               0
 10
0.0
 20
0.0
 30
0.0
  3
*PAPER_SPACE
  1

  0
ENDBLK
  5
10
100
AcDbEntity
 67
               1
  8
0
100
AcDbBlockEnd
  0
ENDSEC
  0
SECTION
  2
ENTITIES
  0
LINE
  5
44
100
AcDbEntity
  8
0
  6
Continuous
 62
               3
100
AcDbLine
 10
159.04257495938168
 20
262.45132277577596
 30
0.0
 11
432.48198783558695
 21
330.81117599482849
 31
0.0
  0
LINE
  5
45
100
AcDbEntity
  8
0
  6
Continuous
 62
               3
100
AcDbLine
 10
159.04257495938168
 20
243.89734746049646
 30
0.0
 11
436.84761491393368
 21
313.34860744913556
 31
0.0
  0
LINE
  5
46
100
AcDbEntity
  8
0
  6
DASHED
 62
               6
100
AcDbLine
 10
159.04257495938168
 20
265.02826606923747
 30
0.0
 11
305.63987549590792
 21
301.67758960236517
 31
0.0
  0
LINE
  5
47
100
AcDbEntity
  8
0
  6
Continuous
 62
               2
100
AcDbLine
 10
437.84761491393368
 20
355.44812954915506
 30
0.0
 11
341.84620942663963
 21
331.44777817733109
 31
0.0
  0
LINE
  5
48
100
AcDbEntity
  8
0
  6
Continuous
 62
               4
100
AcDbLine
 10
433.03961027059705
 20
378.98479677250765
 30
0.0
 11
437.4052596695995
 21
361.52219917649808
 31
0.0
  0
LINE
  5
49
100
AcDbEntity
  8
0
  6
Continuous
 62
               4
100
AcDbLine
 10
336.02535660861867
 20
354.73123335701257
 30
0.0
 11
340.77069348443689
 21
335.74988585373956
 31
0.0
  0
LINE
  5
4A
100
AcDbEntity
  8
0
  6
Continuous
 62
               4
100
AcDbLine
 10
433.76721714570607
 20
376.07436927207169
 30
0.0
 11
336.75296348372768
 21
351.82080585657656
 31
0.0
  0
LINE
  5
4B
100
AcDbEntity
  8
0
  6
Continuous
 62
               6
100
AcDbLine
 10
408.74341864461252
 20
303.64253972515388
 30
0.0
 11
159.67316758447606
 21
241.37497696011866
 31
0.0
  0
LINE
  5
4C
100
AcDbEntity
  8
0
  6
Continuous
 62
               2
100
AcDbLine
 10
341.84620942663963
 20
331.44777817733109
 30
0.0
 11
345.69986191213985
 21
316.03301091118834
 31
0.0
  0
LINE
  5
4D
100
AcDbEntity
  8
0
  6
Continuous
 62
               4
100
AcDbLine
 10
345.14469019957704
 20
330.62315612031836
 30
0.0
 11
349.48603618559224
 21
313.25759494218318
 31
0.0
  0
LINE
  5
4E
100
AcDbEntity
  8
0
  6
Continuous
 62
               4
100
AcDbLine
 10
345.14469019957704
 20
330.62315612031836
 30
0.0
 11
437.84761491393368
 21
353.79888729890808
 31
0.0
  0
LINE
  5
4F
100
AcDbEntity
  8
0
  6
DASHED
 62
               6
100
AcDbLine
 10
437.84761491393368
 20
333.69874737402188
 30
0.0
 11
361.34433765658804
 21
314.57292805968518
 31
0.0
  0
LINE
  5
50
100
AcDbEntity
  8
0
  6
Continuous
 62
               7
100
AcDbLine
 10
436.71847930860889
 20
313.86511427866105
 30
0.0
 11
436.33111670151874
 21
313.21948289603188
 31
0.0
  0
LINE
  5
51
100
AcDbEntity
  8
0
  6
Continuous
 62
               7
100
AcDbLine
 10
435.00348297071827
 20
320.72516066537986
 30
0.0
 11
429.47126378083323
 21
311.50451966586036
 31
0.0
  0
LINE
  5
52
100
AcDbEntity
  8
0
  6
Continuous
 62
               7
100
AcDbLine
 10
433.28847867272208
 20
327.58520151918026
 30
0.0
 11
422.61141086014771
 21
309.78955643568895
 31
0.0
  0
LINE
  5
53
100
AcDbEntity
  8
0
  6
Continuous
 62
               7
100
AcDbLine
 10
428.84802101389943
 20
329.90268428940669
 30
0.0
 11
415.7515579394622
 21
308.07459320551754
 31
0.0
  0
LINE
  5
54
100
AcDbEntity
  8
0
  6
Continuous
 62
               7
100
AcDbLine
 10
421.98816809321391
 20
328.18772105923517
 30
0.0
 11
408.89170501877669
 21
306.35962997534614
 31
0.0
  0
LINE
  5
55
100
AcDbEntity
  8
0
  6
Continuous
 62
               7
100
AcDbLine
 10
415.12831517252829
 20
326.47275782906365
 30
0.0
 11
402.03185209809118
 21
304.64466674517479
 31
0.0
  0
LINE
  5
56
100
AcDbEntity
  8
0
  6
Continuous
 62
               7
100
AcDbLine
 10
408.26846225184278
 20
324.75779459889236
 30
0.0
 11
395.17199917740555
 21
302.92970351500338
 31
0.0
  0
LINE
  5
57
100
AcDbEntity
  8
0
  6
Continuous
 62
               7
100
AcDbLine
 10
401.40860933115727
 20
323.04283136872095
 30
0.0
 11
388.31214625672004
 21
301.21474028483198
 31
0.0
  0
LINE
  5
58
100
AcDbEntity
  8
0
  6
Continuous
 62
               7
100
AcDbLine
 10
394.54875641047164
 20
321.32786813854955
 30
0.0
 11
381.45229333603453
 21
299.49977705466057
 31
0.0
  0
LINE
  5
59
100
AcDbEntity
  8
0
  6
Continuous
 62
               7
100
AcDbLine
 10
387.68890348978613
 20
319.61290490837808
 30
0.0
 11
374.59244041534902
 21
297.78481382448905
 31
0.0
  0
LINE
  5
5A
100
AcDbEntity
  8
0
  6
Continuous
 62
               7
100
AcDbLine
 10
380.82905056910062
 20
317.89794167820668
 30
0.0
 11
367.73258749466339
 21
296.06985059431764
 31
0.0
  0
LINE
  5
5B
100
AcDbEntity
  8
0
  6
Continuous
 62
               7
100
AcDbLine
 10
373.9691976484151
 20
316.18297844803516
 30
0.0
 11
360.87273457397788
 21
294.35488736414629
 31
0.0
  0
LINE
  5
5C
100
AcDbEntity
  8
0
  6
Continuous
 62
               7
100
AcDbLine
 10
367.10934472772959
 20
314.46801521786375
 30
0.0
 11
354.01288165329237
 21
292.63992413397489
 31
0.0
  0
LINE
  5
5D
100
AcDbEntity
  8
0
  6
Continuous
 62
               7
100
AcDbLine
 10
360.24949180704397
 20
312.75305198769246
 30
0.0
 11
347.15302873260686
 21
290.92496090380348
 31
0.0
  0
LINE
  5
5E
100
AcDbEntity
  8
0
  6
Continuous
 62
               7
100
AcDbLine
 10
353.38963888635845
 20
311.03808875752094
 30
0.0
 11
340.29317581192134
 21
289.20999767363207
 31
0.0
  0
LINE
  5
5F
100
AcDbEntity
  8
0
  6
Continuous
 62
               7
100
AcDbLine
 10
346.52978596567294
 20
309.32312552734959
 30
0.0
 11
333.43332289123572
 21
287.49503444346067
 31
0.0
  0
LINE
  5
60
100
AcDbEntity
  8
0
  6
Continuous
 62
               7
100
AcDbLine
 10
339.66993304498743
 20
307.60816229717818
 30
0.0
 11
326.57346997055021
 21
285.78007121328926
 31
0.0
  0
LINE
  5
61
100
AcDbEntity
  8
0
  6
Continuous
 62
               7
100
AcDbLine
 10
332.81008012430192
 20
305.89319906700678
 30
0.0
 11
319.71361704986469
 21
284.06510798311785
 31
0.0
  0
LINE
  5
62
100
AcDbEntity
  8
0
  6
Continuous
 62
               7
100
AcDbLine
 10
325.95022720361629
 20
304.17823583683526
 30
0.0
 11
312.85376412917918
 21
282.35014475294645
 31
0.0
  0
LINE
  5
63
100
AcDbEntity
  8
0
  6
Continuous
 62
               7
100
AcDbLine
 10
319.09037428293078
 20
302.46327260666385
 30
0.0
 11
305.99391120849367
 21
280.63518152277504
 31
0.0
  0
LINE
  5
64
100
AcDbEntity
  8
0
  6
Continuous
 62
               7
100
AcDbLine
 10
312.23052136224527
 20
300.74830937649244
 30
0.0
 11
299.13405828780805
 21
278.92021829260369
 31
0.0
  0
LINE
  5
65
100
AcDbEntity
  8
0
  6
Continuous
 62
               7
100
AcDbLine
 10
305.37066844155976
 20
299.03334614632104
 30
0.0
 11
292.27420536712259
 21
277.20525506243229
 31
0.0
  0
LINE
  5
66
100
AcDbEntity
  8
0
  6
Continuous
 62
               7
100
AcDbLine
 10
298.51081552087419
 20
297.31838291614969
 30
0.0
 11
285.41435244643708
 21
275.49029183226088
 31
0.0
  0
LINE
  5
67
100
AcDbEntity
  8
0
  6
Continuous
 62
               7
100
AcDbLine
 10
291.65096260018868
 20
295.60341968597834
 30
0.0
 11
278.55449952575145
 21
273.77532860208936
 31
0.0
  0
LINE
  5
68
100
AcDbEntity
  8
0
  6
Continuous
 62
               7
100
AcDbLine
 10
284.79110967950305
 20
293.88845645580687
 30
0.0
 11
271.69464660506594
 21
272.06036537191795
 31
0.0
  0
LINE
  5
69
100
AcDbEntity
  8
0
  6
Continuous
 62
               7
100
AcDbLine
 10
277.93125675881754
 20
292.17349322563547
 30
0.0
 11
264.83479368438049
 21
270.34540214174655
 31
0.0
  0
LINE
  5
6A
100
AcDbEntity
  8
0
  6
Continuous
 62
               7
100
AcDbLine
 10
271.07140383813208
 20
290.45852999546406
 30
0.0
 11
257.97494076369486
 21
268.63043891157514
 31
0.0
  0
LINE
  5
6B
100
AcDbEntity
  8
0
  6
Continuous
 62
               7
100
AcDbLine
 10
264.21155091744646
 20
288.74356676529266
 30
0.0
 11
251.11508784300935
 21
266.91547568140379
 31
0.0
  0
LINE
  5
6C
100
AcDbEntity
  8
0
  6
Continuous
 62
               7
100
AcDbLine
 10
257.35169799676095
 20
287.02860353512119
 30
0.0
 11
244.25523492232378
 21
265.20051245123238
 31
0.0
  0
LINE
  5
6D
100
AcDbEntity
  8
0
  6
Continuous
 62
               7
100
AcDbLine
 10
250.49184507607549
 20
285.31364030494984
 30
0.0
 11
237.39538200163827
 21
263.48554922106098
 31
0.0
  0
LINE
  5
6E
100
AcDbEntity
  8
0
  6
Continuous
 62
               7
100
AcDbLine
 10
243.63199215538987
 20
283.59867707477838
 30
0.0
 11
230.53552908095264
 21
261.77058599088946
 31
0.0
  0
LINE
  5
6F
100
AcDbEntity
  8
0
  6
Continuous
 62
               7
100
AcDbLine
 10
236.77213923470435
 20
281.88371384460697
 30
0.0
 11
223.67567616026719
 21
260.05562276071805
 31
0.0
  0
LINE
  5
70
100
AcDbEntity
  8
0
  6
Continuous
 62
               7
100
AcDbLine
 10
229.91228631401879
 20
280.16875061443557
 30
0.0
 11
218.95349173554456
 21
261.90354688202694
 31
0.0
  0
LINE
  5
71
100
AcDbEntity
  8
0
  6
Continuous
 62
               7
100
AcDbLine
 10
223.05243339333327
 20
278.45378738426416
 30
0.0
 11
217.23848326197066
 21
268.76358077632278
 31
0.0
  0
LINE
  5
72
100
AcDbEntity
  8
0
  6
Continuous
 62
               7
100
AcDbLine
 10
201.53185566139558
 20
262.02201903781707
 30
0.0
 11
196.23626447752508
 21
253.19576984003248
 31
0.0
  0
LINE
  5
73
100
AcDbEntity
  8
0
  6
Continuous
 62
               7
100
AcDbLine
 10
199.81684718782157
 20
268.88205293211286
 30
0.0
 11
189.37641155683946
 21
251.48080660986108
 31
0.0
  0
LINE
  5
74
100
AcDbEntity
  8
0
  6
Continuous
 62
               7
100
AcDbLine
 10
195.61302171059106
 20
271.59393446357848
 30
0.0
 11
182.51655863615395
 21
249.76584337968967
 31
0.0
  0
LINE
  5
75
100
AcDbEntity
  8
0
  6
Continuous
 62
               7
100
AcDbLine
 10
188.75316878990554
 20
269.87897123340707
 30
0.0
 11
175.65670571546849
 21
248.05088014951826
 31
0.0
  0
LINE
  5
76
100
AcDbEntity
  8
0
  6
DASHDOT
 62
               4
100
AcDbLine
 10
437.84761491393368
 20
175.44812954915506
 30
0.0
 11
437.84761491393368
 21
392.17259442463006
 31
0.0
  0
LINE
  5
77
100
AcDbEntity
  8
0
  6
Continuous
 62
               2
100
AcDbLine
 10
343.6894764493548
 20
330.25935268276288
 30
0.0
 11
347.81254246959276
 21
313.76692027894728
 31
0.0
  0
LINE
  5
78
100
AcDbEntity
  8
0
  6
Continuous
 62
               3
100
AcDbLine
 10
432.48198761259658
 20
330.81117688679308
 30
0.0
 11
436.84761469094332
 21
313.34860834110015
 31
0.0
  0
LINE
  5
79
100
AcDbEntity
  8
0
  6
Continuous
 62
               3
100
AcDbLine
 10
716.65265486848591
 20
262.45132277577596
 30
0.0
 11
443.21324199228053
 21
330.81117599482849
 31
0.0
  0
LINE
  5
7A
100
AcDbEntity
  8
0
  6
Continuous
 62
               3
100
AcDbLine
 10
716.65265486848591
 20
243.89734746049646
 30
0.0
 11
438.84761491393368
 21
313.34860744913556
 31
0.0
  0
LINE
  5
7B
100
AcDbEntity
  8
0
  6
Continuous
 62
               4
100
AcDbLine
 10
539.66987321924887
 20
354.73123335701257
 30
0.0
 11
534.92453634343053
 21
335.74988585373956
 31
0.0
  0
LINE
  5
7C
100
AcDbEntity
  8
0
  6
Continuous
 62
               7
100
AcDbLine
 10
438.97674255915302
 20
313.86511981157958
 30
0.0
 11
439.36411312634863
 21
313.21948289603188
 31
0.0
  0
LINE
  5
7D
100
AcDbEntity
  8
0
  6
Continuous
 62
               7
100
AcDbLine
 10
440.69174685714921
 20
320.72516066537986
 30
0.0
 11
446.22396604703414
 21
311.50451966586036
 31
0.0
  0
LINE
  5
7E
100
AcDbEntity
  8
0
  6
Continuous
 62
               7
100
AcDbLine
 10
442.4067511551454
 20
327.58520151918026
 30
0.0
 11
453.08381896771976
 21
309.78955643568895
 31
0.0
  0
LINE
  5
7F
100
AcDbEntity
  8
0
  6
Continuous
 62
               7
100
AcDbLine
 10
446.84720881396805
 20
329.90268428940669
 30
0.0
 11
459.94367188840528
 21
308.07459320551754
 31
0.0
  0
LINE
  5
80
100
AcDbEntity
  8
0
  6
Continuous
 62
               7
100
AcDbLine
 10
453.70706173465356
 20
328.18772105923517
 30
0.0
 11
466.80352480909079
 21
306.35962997534614
 31
0.0
  0
LINE
  5
81
100
AcDbEntity
  8
0
  6
Continuous
 62
               7
100
AcDbLine
 10
460.56691465533919
 20
326.47275782906365
 30
0.0
 11
473.6633777297763
 21
304.64466674517479
 31
0.0
  0
LINE
  5
82
100
AcDbEntity
  8
0
  6
Continuous
 62
               7
100
AcDbLine
 10
467.4267675760247
 20
324.75779459889236
 30
0.0
 11
480.52323065046193
 21
302.92970351500338
 31
0.0
  0
LINE
  5
83
100
AcDbEntity
  8
0
  6
Continuous
 62
               7
100
AcDbLine
 10
474.28662049671021
 20
323.04283136872095
 30
0.0
 11
487.38308357114744
 21
301.21474028483198
 31
0.0
  0
LINE
  5
84
100
AcDbEntity
  8
0
  6
Continuous
 62
               7
100
AcDbLine
 10
481.14647341739573
 20
321.32786813854955
 30
0.0
 11
494.24293649183295
 21
299.49977705466057
 31
0.0
  0
LINE
  5
85
100
AcDbEntity
  8
0
  6
Continuous
 62
               7
100
AcDbLine
 10
488.00632633808135
 20
319.61290490837808
 30
0.0
 11
501.10278941251846
 21
297.78481382448905
 31
0.0
  0
LINE
  5
86
100
AcDbEntity
  8
0
  6
Continuous
 62
               7
100
AcDbLine
 10
494.86617925876686
 20
317.89794167820668
 30
0.0
 11
507.96264233320397
 21
296.06985059431764
 31
0.0
  0
LINE
  5
87
100
AcDbEntity
  8
0
  6
Continuous
 62
               7
100
AcDbLine
 10
501.72603217945237
 20
316.18297844803516
 30
0.0
 11
514.82249525388966
 21
294.35488736414629
 31
0.0
  0
LINE
  5
88
100
AcDbEntity
  8
0
  6
Continuous
 62
               7
100
AcDbLine
 10
508.58588510013789
 20
314.46801521786375
 30
0.0
 11
521.68234817457517
 21
292.63992413397489
 31
0.0
  0
LINE
  5
89
100
AcDbEntity
  8
0
  6
Continuous
 62
               7
100
AcDbLine
 10
515.44573802082346
 20
312.75305198769246
 30
0.0
 11
528.54220109526057
 21
290.92496090380348
 31
0.0
  0
LINE
  5
8A
100
AcDbEntity
  8
0
  6
Continuous
 62
               7
100
AcDbLine
 10
522.30559094150897
 20
311.03808875752094
 30
0.0
 11
535.40205401594619
 21
289.20999767363207
 31
0.0
  0
LINE
  5
8B
100
AcDbEntity
  8
0
  6
Continuous
 62
               7
100
AcDbLine
 10
529.16544386219459
 20
309.32312552734959
 30
0.0
 11
542.26190693663159
 21
287.49503444346067
 31
0.0
  0
LINE
  5
8C
100
AcDbEntity
  8
0
  6
Continuous
 62
               7
100
AcDbLine
 10
536.02529678287999
 20
307.60816229717818
 30
0.0
 11
549.12175985731722
 21
285.78007121328926
 31
0.0
  0
LINE
  5
8D
100
AcDbEntity
  8
0
  6
Continuous
 62
               7
100
AcDbLine
 10
542.88514970356562
 20
305.89319906700678
 30
0.0
 11
555.98161277800284
 21
284.06510798311785
 31
0.0
  0
LINE
  5
8E
100
AcDbEntity
  8
0
  6
Continuous
 62
               7
100
AcDbLine
 10
549.74500262425101
 20
304.17823583683526
 30
0.0
 11
562.84146569868824
 21
282.35014475294645
 31
0.0
  0
LINE
  5
8F
100
AcDbEntity
  8
0
  6
Continuous
 62
               7
100
AcDbLine
 10
556.60485554493664
 20
302.46327260666385
 30
0.0
 11
569.70131861937386
 21
280.63518152277504
 31
0.0
  0
LINE
  5
90
100
AcDbEntity
  8
0
  6
Continuous
 62
               7
100
AcDbLine
 10
563.46470846562227
 20
300.74830937649244
 30
0.0
 11
576.56117154005926
 21
278.92021829260369
 31
0.0
  0
LINE
  5
91
100
AcDbEntity
  8
0
  6
Continuous
 62
               7
100
AcDbLine
 10
570.32456138630766
 20
299.03334614632104
 30
0.0
 11
583.42102446074489
 21
277.20525506243229
 31
0.0
  0
LINE
  5
92
100
AcDbEntity
  8
0
  6
Continuous
 62
               7
100
AcDbLine
 10
577.18441430699329
 20
297.31838291614969
 30
0.0
 11
590.28087738143051
 21
275.49029183226088
 31
0.0
  0
LINE
  5
93
100
AcDbEntity
  8
0
  6
Continuous
 62
               7
100
AcDbLine
 10
584.04426722767869
 20
295.60341968597834
 30
0.0
 11
597.14073030211614
 21
273.77532860208936
 31
0.0
  0
LINE
  5
94
100
AcDbEntity
  8
0
  6
Continuous
 62
               7
100
AcDbLine
 10
590.90412014836431
 20
293.88845645580687
 30
0.0
 11
604.00058322280154
 21
272.06036537191795
 31
0.0
  0
LINE
  5
95
100
AcDbEntity
  8
0
  6
Continuous
 62
               7
100
AcDbLine
 10
597.76397306904994
 20
292.17349322563547
 30
0.0
 11
610.86043614348716
 21
270.34540214174655
 31
0.0
  0
LINE
  5
96
100
AcDbEntity
  8
0
  6
Continuous
 62
               7
100
AcDbLine
 10
604.62382598973556
 20
290.45852999546406
 30
0.0
 11
617.72028906417279
 21
268.63043891157514
 31
0.0
  0
LINE
  5
97
100
AcDbEntity
  8
0
  6
Continuous
 62
               7
100
AcDbLine
 10
611.48367891042096
 20
288.74356676529266
 30
0.0
 11
624.58014198485819
 21
266.91547568140379
 31
0.0
  0
LINE
  5
98
100
AcDbEntity
  8
0
  6
Continuous
 62
               7
100
AcDbLine
 10
618.34353183110659
 20
287.02860353512119
 30
0.0
 11
631.43999490554381
 21
265.20051245123238
 31
0.0
  0
LINE
  5
99
100
AcDbEntity
  8
0
  6
Continuous
 62
               7
100
AcDbLine
 10
625.20338475179221
 20
285.31364030494984
 30
0.0
 11
638.29984782622944
 21
263.48554922106098
 31
0.0
  0
LINE
  5
9A
100
AcDbEntity
  8
0
  6
Continuous
 62
               7
100
AcDbLine
 10
632.06323767247761
 20
283.59867707477838
 30
0.0
 11
645.15970074691484
 21
261.77058599088946
 31
0.0
  0
LINE
  5
9B
100
AcDbEntity
  8
0
  6
Continuous
 62
               7
100
AcDbLine
 10
638.92309059316324
 20
281.88371384460697
 30
0.0
 11
652.01955366760046
 21
260.05562276071805
 31
0.0
  0
LINE
  5
9C
100
AcDbEntity
  8
0
  6
Continuous
 62
               7
100
AcDbLine
 10
645.78294351384886
 20
280.16875061443557
 30
0.0
 11
658.87940658828586
 21
258.34065953054665
 31
0.0
  0
LINE
  5
9D
100
AcDbEntity
  8
0
  6
Continuous
 62
               7
100
AcDbLine
 10
652.64279643453426
 20
278.45378738426416
 30
0.0
 11
665.73925950897149
 21
256.62569630037524
 31
0.0
  0
LINE
  5
9E
100
AcDbEntity
  8
0
  6
Continuous
 62
               7
100
AcDbLine
 10
659.50264935521989
 20
276.73882415409275
 30
0.0
 11
672.59911242965711
 21
254.91073307020389
 31
0.0
  0
LINE
  5
9F
100
AcDbEntity
  8
0
  6
Continuous
 62
               7
100
AcDbLine
 10
666.36250227590551
 20
275.02386092392135
 30
0.0
 11
679.45896535034251
 21
253.19576984003248
 31
0.0
  0
LINE
  5
A0
100
AcDbEntity
  8
0
  6
Continuous
 62
               7
100
AcDbLine
 10
673.22235519659091
 20
273.30889769374994
 30
0.0
 11
686.31881827102814
 21
251.48080660986108
 31
0.0
  0
LINE
  5
A1
100
AcDbEntity
  8
0
  6
Continuous
 62
               7
100
AcDbLine
 10
680.08220811727654
 20
271.59393446357848
 30
0.0
 11
692.84761491393385
 21
250.31762033994198
 31
0.0
  0
LINE
  5
A2
100
AcDbEntity
  8
0
  6
Continuous
 62
               7
100
AcDbLine
 10
686.94206103796193
 20
269.87897123340707
 30
0.0
 11
700.03852411239916
 21
248.05088014951826
 31
0.0
  0
LINE
  5
A3
100
AcDbEntity
  8
0
  6
Continuous
 62
               3
100
AcDbLine
 10
443.2132422152709
 20
330.81117688679308
 30
0.0
 11
438.84761513692405
 21
313.34860834110015
 31
0.0
  0
LINE
  5
A4
100
AcDbEntity
  8
0
  6
Continuous
 62
               6
100
AcDbLine
 10
340.83336489936863
 20
288.82965674229177
 30
0.0
 11
437.84761491393368
 21
313.08321924593338
 31
0.0
  0
LINE
  5
A5
100
AcDbEntity
  8
0
  6
Continuous
 62
               6
100
AcDbLine
 10
534.8618649284989
 20
288.82965674229177
 30
0.0
 11
437.84761491393368
 21
313.08321924593338
 31
0.0
  0
LINE
  5
A6
100
AcDbEntity
  8
0
  6
Continuous
 62
               6
100
AcDbLine
 10
534.47380918820124
 20
287.27742842711899
 30
0.0
 11
437.8476149139338
 21
311.43397699568624
 31
0.0
  0
LINE
  5
A7
100
AcDbEntity
  8
0
  6
Continuous
 62
               6
100
AcDbLine
 10
341.22142063966606
 20
287.27742842711899
 30
0.0
 11
437.8476149139338
 21
311.43397699568624
 31
0.0
  0
LINE
  5
A8
100
AcDbEntity
  8
0
  6
Continuous
 62
               6
100
AcDbLine
 10
534.8618649284989
 20
288.82965674229177
 30
0.0
 11
534.47380918820124
 21
287.27742842711905
 31
0.0
  0
LINE
  5
A9
100
AcDbEntity
  8
0
  6
Continuous
 62
               6
100
AcDbLine
 10
340.83336489936863
 20
288.82965674229177
 30
0.0
 11
341.22142063966606
 21
287.27742842711899
 31
0.0
  0
LINE
  5
AA
100
AcDbEntity
  8
0
  6
Continuous
 62
               4
100
AcDbLine
 10
516.2481099802219
 20
381.82449382707983
 30
0.0
 11
582.99008296411819
 21
381.82449382707983
 31
0.0
  0
LINE
  5
AB
100
AcDbEntity
  8
0
  6
Continuous
 62
               4
100
AcDbLine
 10
493.05169846124119
 20
341.64713052292927
 30
0.0
 11
516.2481099802219
 21
381.82449382707983
 31
0.0
  0
LINE
  5
AC
100
AcDbEntity
  8
0
  6
Continuous
 62
               4
100
AcDbLine
 10
493.05169846124119
 20
341.64713052292927
 30
0.0
 11
496.12987975117227
 21
350.10436411000245
 31
0.0
  0
LINE
  5
AD
100
AcDbEntity
  8
0
  6
Continuous
 62
               4
100
AcDbLine
 10
493.05169846124119
 20
341.64713052292927
 30
0.0
 11
498.83678694842007
 21
348.54153051100008
 31
0.0
  0
LINE
  5
AE
100
AcDbEntity
  8
0
  6
Continuous
 62
               4
100
AcDbLine
 10
358.60772180288353
 20
446.44811670301277
 30
0.0
 11
261.86171657676999
 21
278.87912022206018
 31
0.0
  0
LINE
  5
AF
100
AcDbEntity
  8
0
  6
Continuous
 62
               4
100
AcDbLine
 10
340.13251318881561
 20
414.44811670301277
 30
0.0
 11
505.45955976305567
 21
414.44811670301277
 31
0.0
  0
LINE
  5
B0
100
AcDbEntity
  8
0
  6
Continuous
 62
               4
100
AcDbLine
 10
349.37011749584957
 20
430.44811670301277
 30
0.0
 11
505.45955976305567
 21
430.44811670301277
 31
0.0
  0
LINE
  5
B1
100
AcDbEntity
  8
0
  6
Continuous
 62
               4
100
AcDbLine
 10
358.60772180288365
 20
446.44811670301277
 30
0.0
 11
505.45955976305567
 21
446.44811670301277
 31
0.0
  0
LINE
  5
B2
100
AcDbEntity
  8
0
  6
Continuous
 62
               2
100
AcDbLine
 10
345.69986191213985
 20
316.03301091118834
 30
0.0
 11
326.35850754591212
 21
314.30274197214004
 31
0.0
  0
LINE
  5
B3
100
AcDbEntity
  8
0
  6
Continuous
 62
               2
100
AcDbLine
 10
332.89239021457905
 20
312.33113878918869
 30
0.0
 11
326.4654320047178
 21
313.10751514843275
 31
0.0
  0
LINE
  5
B4
100
AcDbEntity
  8
0
  6
Continuous
 62
               4
100
AcDbLine
 10
207.58625665319346
 20
256.03326788394969
 30
0.0
 11
203.22061540253935
 21
273.49583288656555
 31
0.0
  0
LINE
  5
B5
100
AcDbEntity
  8
0
  6
Continuous
 62
               4
100
AcDbLine
 10
530.54646914515286
 20
365.69018115747048
 30
0.0
 11
597.11408517101779
 21
365.69018115747059
 31
0.0
  0
LINE
  5
B6
100
AcDbEntity
  8
0
  6
Continuous
 62
               4
100
AcDbLine
 10
512.49163690608111
 20
334.41829439726547
 30
0.0
 11
530.54646914515286
 21
365.69018115747048
 31
0.0
  0
LINE
  5
B7
100
AcDbEntity
  8
0
  6
Continuous
 62
               4
100
AcDbLine
 10
512.49163690608111
 20
334.41829439726547
 30
0.0
 11
515.56981819601197
 21
342.87552798433865
 31
0.0
  0
LINE
  5
B8
100
AcDbEntity
  8
0
  6
Continuous
 62
               4
100
AcDbLine
 10
512.49163690608111
 20
334.41829439726547
 30
0.0
 11
518.27672539325977
 21
341.31269438533627
 31
0.0
  0
LINE
  5
B9
100
AcDbEntity
  8
0
  6
Continuous
 62
               4
100
AcDbLine
 10
347.08497147230702
 20
329.45898418825374
 30
0.0
 11
437.84761491393368
 21
352.14964504866094
 31
0.0
  0
LINE
  5
BA
100
AcDbEntity
  8
0
  6
Continuous
 62
               4
100
AcDbLine
 10
347.08497147230702
 20
329.45898418825374
 30
0.0
 11
351.42631745832222
 21
312.09342301011856
 31
0.0
  0
LINE
  5
BB
100
AcDbEntity
  8
0
  6
DASHED
 62
               6
100
AcDbLine
 10
352.27584995022977
 20
311.79041792989324
 30
0.0
 11
327.5972870348466
 21
305.62077720104736
 31
0.0
  0
LINE
  5
BC
100
AcDbEntity
  8
0
  6
Continuous
 62
               4
100
AcDbLine
 10
330.47123945512266
 20
306.85465350931855
 30
0.0
 11
351.42631745832222
 21
312.09342301011856
 31
0.0
  0
LINE
  5
BD
100
AcDbEntity
  8
0
  6
Continuous
 62
               4
100
AcDbLine
 10
330.08318618262962
 20
308.40688244144235
 30
0.0
 11
349.48603618559224
 21
313.25759494218318
 31
0.0
  0
LINE
  5
BE
100
AcDbEntity
  8
0
  6
Continuous
 62
               4
100
AcDbLine
 10
330.08318618262962
 20
308.40688244144235
 30
0.0
 11
330.47123945512266
 21
306.85465350931855
 31
0.0
  0
LINE
  5
BF
100
AcDbEntity
  8
0
  6
Continuous
 62
               4
100
AcDbLine
 10
363.45546657871563
 20
326.86742079206806
 30
0.0
 11
362.00024700418118
 21
324.44206803630419
 31
0.0
  0
LINE
  5
C0
100
AcDbEntity
  8
0
  6
Continuous
 62
               4
100
AcDbLine
 10
363.45546657871563
 20
326.86742079206806
 30
0.0
 11
361.03011382295136
 21
328.32264036660246
 31
0.0
  0
LINE
  5
C1
100
AcDbEntity
  8
0
  6
Continuous
 62
               4
100
AcDbLine
 10
347.01223407818162
 20
320.69510304696894
 30
0.0
 11
348.28255037645948
 21
325.13578203060007
 31
0.0
  0
LINE
  5
C2
100
AcDbEntity
  8
0
  6
Continuous
 62
               4
100
AcDbLine
 10
349.04720004522352
 20
321.20383934647987
 30
0.0
 11
350.3175163435015
 21
325.64451833011094
 31
0.0
  0
LINE
  5
C3
100
AcDbEntity
  8
0
  6
Continuous
 62
               4
100
AcDbLine
 10
351.08216601226553
 20
321.71257564599085
 30
0.0
 11
352.35248231054351
 21
326.15325462962198
 31
0.0
  0
LINE
  5
C4
100
AcDbEntity
  8
0
  6
Continuous
 62
               4
100
AcDbLine
 10
353.11713197930754
 20
322.22131194550178
 30
0.0
 11
354.38744827758541
 21
326.66199092913286
 31
0.0
  0
LINE
  5
C5
100
AcDbEntity
  8
0
  6
Continuous
 62
               4
100
AcDbLine
 10
355.15209794634956
 20
322.73004824501265
 30
0.0
 11
356.42241424462742
 21
327.17072722864378
 31
0.0
  0
LINE
  5
C6
100
AcDbEntity
  8
0
  6
Continuous
 62
               4
100
AcDbLine
 10
357.18706391339146
 20
323.23878454452358
 30
0.0
 11
358.45738021166943
 21
327.67946352815466
 31
0.0
  0
LINE
  5
C7
100
AcDbEntity
  8
0
  6
Continuous
 62
               4
100
AcDbLine
 10
359.22202988043347
 20
323.74752084403457
 30
0.0
 11
360.49234617871144
 21
328.18819982766564
 31
0.0
  0
LINE
  5
C8
100
AcDbEntity
  8
0
  6
Continuous
 62
               4
100
AcDbLine
 10
361.25699584747548
 20
324.25625714354544
 30
0.0
 11
362.2165935287797
 21
327.61074866812459
 31
0.0
  0
LINE
  5
C9
100
AcDbEntity
  8
0
  6
Continuous
 62
               4
100
AcDbLine
 10
343.56753833660883
 20
323.95704105106915
 30
0.0
 11
361.03011382295136
 21
328.32264036660246
 31
0.0
  0
LINE
  5
CA
100
AcDbEntity
  8
0
  6
Continuous
 62
               4
100
AcDbLine
 10
344.53767151783842
 20
320.07646872077078
 30
0.0
 11
362.00024700418118
 21
324.44206803630419
 31
0.0
  0
LINE
  5
CB
100
AcDbEntity
  8
0
  6
Continuous
 62
               4
100
AcDbLine
 10
345.03028789687988
 20
318.10598309369738
 30
0.0
 11
344.54521635559257
 21
317.98471644604365
 31
0.0
  0
LINE
  5
CC
100
AcDbEntity
  8
0
  6
Continuous
 62
               4
100
AcDbLine
 10
343.07492195756737
 20
325.92752667814256
 30
0.0
 11
342.58985041628006
 21
325.80626003048889
 31
0.0
  0
LINE
  5
CD
100
AcDbEntity
  8
0
  6
Continuous
 62
               4
100
AcDbLine
 10
343.07492195756737
 20
325.92752667814256
 30
0.0
 11
345.03028789687988
 21
318.10598309369738
 31
0.0
  0
LINE
  5
CE
100
AcDbEntity
  8
0
  6
DASHED
 62
               6
100
AcDbLine
 10
352.27584995022977
 20
311.79041792989324
 30
0.0
 11
361.34433765658804
 21
314.57292805968518
 31
0.0
  0
LINE
  5
CF
100
AcDbEntity
  8
0
  6
DASHED
 62
               6
100
AcDbLine
 10
305.63987549590792
 20
301.67758960236517
 30
0.0
 11
327.5972870348466
 21
305.62077720104736
 31
0.0
  0
LINE
  5
D0
100
AcDbEntity
  8
0
  6
Continuous
 62
               7
100
AcDbLine
 10
338.35554194860339
 20
308.46037511105447
 30
0.0
 11
346.11670534401236
 21
277.41580798641559
 31
0.0
  0
LINE
  5
D1
100
AcDbEntity
  8
0
  6
Continuous
 62
               7
100
AcDbLine
 10
335.3238466356492
 20
310.27939229882708
 30
0.0
 11
335.44511444816732
 21
309.79432104875428
 31
0.0
  0
LINE
  5
D2
100
AcDbEntity
  8
0
  6
Continuous
 62
               7
100
AcDbLine
 10
343.20625444933006
 20
309.67305323623606
 30
0.0
 11
350.96739445049235
 21
278.62849323158537
 31
0.0
  0
LINE
  5
D3
100
AcDbEntity
  8
0
  6
Continuous
 62
               7
100
AcDbLine
 10
345.02527163710255
 20
312.70474854919019
 30
0.0
 11
345.14653944962066
 21
312.21967729911745
 31
0.0
  0
LINE
  5
D4
100
AcDbEntity
  8
0
  6
Continuous
 62
               7
100
AcDbLine
 10
335.3238466356492
 20
310.27939229882708
 30
0.0
 11
345.02527163710255
 21
312.70474854919019
 31
0.0
  0
LINE
  5
D5
100
AcDbEntity
  8
0
  6
Continuous
 62
               7
100
AcDbLine
 10
338.35554194860339
 20
308.46037511105447
 30
0.0
 11
343.20625444933006
 21
309.67305323623606
 31
0.0
  0
LINE
  5
D6
100
AcDbEntity
  8
0
  6
Continuous
 62
               7
100
AcDbLine
 10
335.44511444816743
 20
309.79432104875428
 30
0.0
 11
338.35554194860339
 21
308.46037511105447
 31
0.0
  0
LINE
  5
D7
100
AcDbEntity
  8
0
  6
Continuous
 62
               7
100
AcDbLine
 10
343.20625444933006
 20
309.67305323623606
 30
0.0
 11
345.14653944962078
 21
312.21967729911745
 31
0.0
  0
LINE
  5
D8
100
AcDbEntity
  8
0
  6
Continuous
 62
               7
100
AcDbLine
 10
335.44511444816732
 20
309.79432104875428
 30
0.0
 11
345.14653944962066
 21
312.21967729911745
 31
0.0
  0
LINE
  5
D9
100
AcDbEntity
  8
0
  6
Continuous
 62
               7
100
AcDbLine
 10
346.11670534401236
 20
277.41580798641559
 30
0.0
 11
348.90584163768352
 21
276.56694041877648
 31
0.0
  0
LINE
  5
DA
100
AcDbEntity
  8
0
  6
Continuous
 62
               7
100
AcDbLine
 10
350.96739445049235
 20
278.62849323158537
 30
0.0
 11
348.90584163768352
 21
276.56694041877648
 31
0.0
  0
LINE
  5
DB
100
AcDbEntity
  8
0
  6
Continuous
 62
               7
100
AcDbLine
 10
340.05329132385765
 20
301.66937761003709
 30
0.0
 11
344.41893257451164
 21
304.82234073550939
 31
0.0
  0
LINE
  5
DC
100
AcDbEntity
  8
0
  6
Continuous
 62
               7
100
AcDbLine
 10
340.53836257393021
 20
299.72909260974649
 30
0.0
 11
344.90400382458432
 21
302.88205573521878
 31
0.0
  0
LINE
  5
DD
100
AcDbEntity
  8
0
  6
Continuous
 62
               7
100
AcDbLine
 10
341.02343382400289
 20
297.78880760945577
 30
0.0
 11
345.38907507465689
 21
300.94177073492807
 31
0.0
  0
LINE
  5
DE
100
AcDbEntity
  8
0
  6
Continuous
 62
               7
100
AcDbLine
 10
341.50850507407557
 20
295.84852260916517
 30
0.0
 11
345.87414632472957
 21
299.00148573463736
 31
0.0
  0
LINE
  5
DF
100
AcDbEntity
  8
0
  6
Continuous
 62
               7
100
AcDbLine
 10
341.99357632414814
 20
293.90823760887446
 30
0.0
 11
346.35921757480213
 21
297.06120073434664
 31
0.0
  0
LINE
  5
E0
100
AcDbEntity
  8
0
  6
Continuous
 62
               7
100
AcDbLine
 10
342.4786475742207
 20
291.96795260858374
 30
0.0
 11
346.84428882487481
 21
295.12091573405604
 31
0.0
  0
LINE
  5
E1
100
AcDbEntity
  8
0
  6
Continuous
 62
               7
100
AcDbLine
 10
342.96371882429338
 20
290.02766760829309
 30
0.0
 11
347.32936007494749
 21
293.18063073376538
 31
0.0
  0
LINE
  5
E2
100
AcDbEntity
  8
0
  6
Continuous
 62
               7
100
AcDbLine
 10
343.44879007436606
 20
288.08738260800249
 30
0.0
 11
347.81443132502005
 21
291.24034573347478
 31
0.0
  0
LINE
  5
E3
100
AcDbEntity
  8
0
  6
Continuous
 62
               7
100
AcDbLine
 10
343.93386132443874
 20
286.14709760771177
 30
0.0
 11
348.29950257509273
 21
289.30006073318407
 31
0.0
  0
LINE
  5
E4
100
AcDbEntity
  8
0
  6
Continuous
 62
               7
100
AcDbLine
 10
344.4189325745113
 20
284.20681260742106
 30
0.0
 11
347.03831732490386
 21
286.09859048270454
 31
0.0
  0
LINE
  5
E5
100
AcDbEntity
  8
0
  6
Continuous
 62
               7
100
AcDbLine
 10
350.36105538790156
 20
278.99229666913988
 30
0.0
 11
348.34800970010002
 21
287.04447942034619
 31
0.0
  0
LINE
  5
E6
100
AcDbEntity
  8
0
  6
Continuous
 62
               7
100
AcDbLine
 10
347.03831732490386
 20
286.09859048270454
 30
0.0
 11
347.80230454376834
 21
287.37190251414529
 31
0.0
  0
LINE
  5
E7
100
AcDbEntity
  8
0
  6
Continuous
 62
               7
100
AcDbLine
 10
348.34800970010002
 20
287.04447942034625
 30
0.0
 11
347.80230454376834
 21
287.37190251414529
 31
0.0
  0
LINE
  5
E8
100
AcDbEntity
  8
0
  6
Continuous
 62
               7
100
AcDbLine
 10
350.96739445049235
 20
278.62849323158537
 30
0.0
 11
350.36105538790156
 21
278.99229666913988
 31
0.0
  0
LINE
  5
E9
100
AcDbEntity
  8
0
  6
Continuous
 62
               7
100
AcDbLine
 10
348.34800970010002
 20
287.04447942034625
 30
0.0
 11
348.7845738251653
 21
287.35977573289335
 31
0.0
  0
LINE
  5
EA
100
AcDbEntity
  8
0
  6
Continuous
 62
               2
100
AcDbLine
 10
437.84763615883293
 20
355.44817567875759
 30
0.0
 11
533.84902040122768
 21
331.44777817733109
 31
0.0
  0
LINE
  5
EB
100
AcDbEntity
  8
0
  6
Continuous
 62
               4
100
AcDbLine
 10
442.65561955727043
 20
378.98479677250765
 30
0.0
 11
438.28997015826798
 21
361.52219917649808
 31
0.0
  0
LINE
  5
EC
100
AcDbEntity
  8
0
  6
Continuous
 62
               4
100
AcDbLine
 10
441.92801268216141
 20
376.07436927207169
 30
0.0
 11
538.94226634413974
 21
351.82080585657656
 31
0.0
  0
LINE
  5
ED
100
AcDbEntity
  8
0
  6
Continuous
 62
               2
100
AcDbLine
 10
533.84902040122768
 20
331.44777817733109
 30
0.0
 11
529.99536791572757
 21
316.03301091118834
 31
0.0
  0
LINE
  5
EE
100
AcDbEntity
  8
0
  6
Continuous
 62
               4
100
AcDbLine
 10
530.55053962829049
 20
330.62315612031836
 30
0.0
 11
526.20919364227518
 21
313.25759494218318
 31
0.0
  0
LINE
  5
EF
100
AcDbEntity
  8
0
  6
Continuous
 62
               4
100
AcDbLine
 10
530.5505568084651
 20
330.62315533300614
 30
0.0
 11
437.84761491393368
 21
353.79888729890808
 31
0.0
  0
LINE
  5
F0
100
AcDbEntity
  8
0
  6
Continuous
 62
               4
100
AcDbLine
 10
528.6102583555604
 20
329.45898418825374
 30
0.0
 11
437.84761491393368
 21
352.14964504866094
 31
0.0
  0
LINE
  5
F1
100
AcDbEntity
  8
0
  6
Continuous
 62
               4
100
AcDbLine
 10
528.6102583555604
 20
329.45898418825374
 30
0.0
 11
524.26891236954532
 21
312.09342301011856
 31
0.0
  0
LINE
  5
F2
100
AcDbEntity
  8
0
  6
Continuous
 62
               4
100
AcDbLine
 10
545.22399037274488
 20
306.85465350931855
 30
0.0
 11
524.26891236954532
 21
312.09342301011856
 31
0.0
  0
LINE
  5
F3
100
AcDbEntity
  8
0
  6
Continuous
 62
               4
100
AcDbLine
 10
545.6120436452378
 20
308.40688244144235
 30
0.0
 11
526.20919364227518
 21
313.25759494218318
 31
0.0
  0
LINE
  5
F4
100
AcDbEntity
  8
0
  6
Continuous
 62
               4
100
AcDbLine
 10
545.6120436452378
 20
308.40688244144235
 30
0.0
 11
545.22399037274488
 21
306.85465350931855
 31
0.0
  0
LINE
  5
F5
100
AcDbEntity
  8
0
  6
Continuous
 62
               4
100
AcDbLine
 10
512.23976324915179
 20
326.86742079206806
 30
0.0
 11
513.69498282368636
 21
324.44206803630419
 31
0.0
  0
LINE
  5
F6
100
AcDbEntity
  8
0
  6
Continuous
 62
               4
100
AcDbLine
 10
512.23976324915179
 20
326.86742079206806
 30
0.0
 11
514.66511600491617
 21
328.32264036660246
 31
0.0
  0
LINE
  5
F7
100
AcDbEntity
  8
0
  6
Continuous
 62
               4
100
AcDbLine
 10
528.6829957496858
 20
320.69510304696894
 30
0.0
 11
527.41267945140783
 21
325.13578203060007
 31
0.0
  0
LINE
  5
F8
100
AcDbEntity
  8
0
  6
Continuous
 62
               4
100
AcDbLine
 10
526.6480297826439
 20
321.20383934647987
 30
0.0
 11
525.37771348436593
 21
325.64451833011094
 31
0.0
  0
LINE
  5
F9
100
AcDbEntity
  8
0
  6
Continuous
 62
               4
100
AcDbLine
 10
524.61306381560178
 20
321.71257564599085
 30
0.0
 11
523.34274751732403
 21
326.15325462962198
 31
0.0
  0
LINE
  5
FA
100
AcDbEntity
  8
0
  6
Continuous
 62
               4
100
AcDbLine
 10
522.57809784855988
 20
322.22131194550178
 30
0.0
 11
521.30778155028213
 21
326.66199092913286
 31
0.0
  0
LINE
  5
FB
100
AcDbEntity
  8
0
  6
Continuous
 62
               4
100
AcDbLine
 10
520.54313188151787
 20
322.73004824501265
 30
0.0
 11
519.27281558324012
 21
327.17072722864378
 31
0.0
  0
LINE
  5
FC
100
AcDbEntity
  8
0
  6
Continuous
 62
               4
100
AcDbLine
 10
518.50816591447597
 20
323.23878454452358
 30
0.0
 11
517.23784961619799
 21
327.67946352815466
 31
0.0
  0
LINE
  5
FD
100
AcDbEntity
  8
0
  6
Continuous
 62
               4
100
AcDbLine
 10
516.47319994743407
 20
323.74752084403457
 30
0.0
 11
515.20288364915609
 21
328.18819982766564
 31
0.0
  0
LINE
  5
FE
100
AcDbEntity
  8
0
  6
Continuous
 62
               4
100
AcDbLine
 10
514.43823398039194
 20
324.25625714354544
 30
0.0
 11
513.47863629908784
 21
327.61074866812459
 31
0.0
  0
LINE
  5
FF
100
AcDbEntity
  8
0
  6
Continuous
 62
               4
100
AcDbLine
 10
532.12769149125859
 20
323.95704105106915
 30
0.0
 11
514.66511600491617
 21
328.32264036660246
 31
0.0
  0
LINE
  5
100
100
AcDbEntity
  8
0
  6
Continuous
 62
               4
100
AcDbLine
 10
531.157558310029
 20
320.07646872077078
 30
0.0
 11
513.69498282368636
 21
324.44206803630419
 31
0.0
  0
LINE
  5
101
100
AcDbEntity
  8
0
  6
Continuous
 62
               4
100
AcDbLine
 10
530.66494193098754
 20
318.10598309369738
 30
0.0
 11
531.15001347227474
 21
317.98471644604365
 31
0.0
  0
LINE
  5
102
100
AcDbEntity
  8
0
  6
Continuous
 62
               4
100
AcDbLine
 10
532.62030787030005
 20
325.92752667814256
 30
0.0
 11
533.10537941158748
 21
325.80626003048889
 31
0.0
  0
LINE
  5
103
100
AcDbEntity
  8
0
  6
Continuous
 62
               4
100
AcDbLine
 10
532.62030787030005
 20
325.92752667814256
 30
0.0
 11
530.66494193098754
 21
318.10598309369738
 31
0.0
  0
LINE
  5
104
100
AcDbEntity
  8
0
  6
Continuous
 62
               7
100
AcDbLine
 10
537.33968787926403
 20
308.46037511105447
 30
0.0
 11
529.57852448385518
 21
277.41580798641559
 31
0.0
  0
LINE
  5
105
100
AcDbEntity
  8
0
  6
Continuous
 62
               7
100
AcDbLine
 10
540.37138319221833
 20
310.27939229882708
 30
0.0
 11
540.25011537970011
 21
309.79432104875428
 31
0.0
  0
LINE
  5
106
100
AcDbEntity
  8
0
  6
Continuous
 62
               7
100
AcDbLine
 10
532.48897537853748
 20
309.67305323623606
 30
0.0
 11
524.72783537737507
 21
278.62849323158537
 31
0.0
  0
LINE
  5
107
100
AcDbEntity
  8
0
  6
Continuous
 62
               7
100
AcDbLine
 10
530.66995819076499
 20
312.70474854919019
 30
0.0
 11
530.54869037824676
 21
312.21967729911745
 31
0.0
  0
LINE
  5
108
100
AcDbEntity
  8
0
  6
Continuous
 62
               7
100
AcDbLine
 10
540.37138319221833
 20
310.27939229882708
 30
0.0
 11
530.66995819076499
 21
312.70474854919019
 31
0.0
  0
LINE
  5
109
100
AcDbEntity
  8
0
  6
Continuous
 62
               7
100
AcDbLine
 10
537.33968787926403
 20
308.46037511105447
 30
0.0
 11
532.48897537853748
 21
309.67305323623606
 31
0.0
  0
LINE
  5
10A
100
AcDbEntity
  8
0
  6
Continuous
 62
               7
100
AcDbLine
 10
540.25011537970011
 20
309.79432104875428
 30
0.0
 11
537.33968787926403
 21
308.46037511105447
 31
0.0
  0
LINE
  5
10B
100
AcDbEntity
  8
0
  6
Continuous
 62
               7
100
AcDbLine
 10
532.48897537853748
 20
309.67305323623606
 30
0.0
 11
530.54869037824676
 21
312.21967729911745
 31
0.0
  0
LINE
  5
10C
100
AcDbEntity
  8
0
  6
Continuous
 62
               7
100
AcDbLine
 10
540.25011537970011
 20
309.79432104875428
 30
0.0
 11
530.54869037824676
 21
312.21967729911745
 31
0.0
  0
LINE
  5
10D
100
AcDbEntity
  8
0
  6
Continuous
 62
               7
100
AcDbLine
 10
529.57852448385518
 20
277.41580798641559
 30
0.0
 11
526.78938819018401
 21
276.56694041877648
 31
0.0
  0
LINE
  5
10E
100
AcDbEntity
  8
0
  6
Continuous
 62
               7
100
AcDbLine
 10
524.72783537737507
 20
278.62849323158537
 30
0.0
 11
526.78938819018401
 21
276.56694041877648
 31
0.0
  0
LINE
  5
10F
100
AcDbEntity
  8
0
  6
Continuous
 62
               7
100
AcDbLine
 10
535.64193850400977
 20
301.66937761003709
 30
0.0
 11
531.27629725335589
 21
304.82234073550939
 31
0.0
  0
LINE
  5
110
100
AcDbEntity
  8
0
  6
Continuous
 62
               7
100
AcDbLine
 10
535.15686725393709
 20
299.72909260974649
 30
0.0
 11
530.79122600328321
 21
302.88205573521878
 31
0.0
  0
LINE
  5
111
100
AcDbEntity
  8
0
  6
Continuous
 62
               7
100
AcDbLine
 10
534.67179600386442
 20
297.78880760945577
 30
0.0
 11
530.30615475321054
 21
300.94177073492807
 31
0.0
  0
LINE
  5
112
100
AcDbEntity
  8
0
  6
Continuous
 62
               7
100
AcDbLine
 10
534.18672475379196
 20
295.84852260916517
 30
0.0
 11
529.82108350313786
 21
299.00148573463736
 31
0.0
  0
LINE
  5
113
100
AcDbEntity
  8
0
  6
Continuous
 62
               7
100
AcDbLine
 10
533.70165350371929
 20
293.90823760887446
 30
0.0
 11
529.33601225306518
 21
297.06120073434664
 31
0.0
  0
LINE
  5
114
100
AcDbEntity
  8
0
  6
Continuous
 62
               7
100
AcDbLine
 10
533.21658225364661
 20
291.96795260858374
 30
0.0
 11
528.85094100299273
 21
295.12091573405604
 31
0.0
  0
LINE
  5
115
100
AcDbEntity
  8
0
  6
Continuous
 62
               7
100
AcDbLine
 10
532.73151100357393
 20
290.02766760829309
 30
0.0
 11
528.36586975292005
 21
293.18063073376538
 31
0.0
  0
LINE
  5
116
100
AcDbEntity
  8
0
  6
Continuous
 62
               7
100
AcDbLine
 10
532.24643975350148
 20
288.08738260800249
 30
0.0
 11
527.88079850284737
 21
291.24034573347478
 31
0.0
  0
LINE
  5
117
100
AcDbEntity
  8
0
  6
Continuous
 62
               7
100
AcDbLine
 10
531.7613685034288
 20
286.14709760771177
 30
0.0
 11
527.39572725277469
 21
289.30006073318407
 31
0.0
  0
LINE
  5
118
100
AcDbEntity
  8
0
  6
Continuous
 62
               7
100
AcDbLine
 10
531.27629725335612
 20
284.20681260742106
 30
0.0
 11
528.65691250296356
 21
286.09859048270454
 31
0.0
  0
LINE
  5
119
100
AcDbEntity
  8
0
  6
Continuous
 62
               7
100
AcDbLine
 10
525.33417443996598
 20
278.99229666913988
 30
0.0
 11
527.3472201277674
 21
287.04447942034619
 31
0.0
  0
LINE
  5
11A
100
AcDbEntity
  8
0
  6
Continuous
 62
               7
100
AcDbLine
 10
528.65691250296356
 20
286.09859048270454
 30
0.0
 11
527.89292528409908
 21
287.37190251414529
 31
0.0
  0
LINE
  5
11B
100
AcDbEntity
  8
0
  6
Continuous
 62
               7
100
AcDbLine
 10
527.3472201277674
 20
287.04447942034625
 30
0.0
 11
527.89292528409908
 21
287.37190251414529
 31
0.0
  0
LINE
  5
11C
100
AcDbEntity
  8
0
  6
Continuous
 62
               7
100
AcDbLine
 10
524.72783537737507
 20
278.62849323158537
 30
0.0
 11
525.33417443996598
 21
278.99229666913988
 31
0.0
  0
LINE
  5
11D
100
AcDbEntity
  8
0
  6
Continuous
 62
               7
100
AcDbLine
 10
527.3472201277674
 20
287.04447942034625
 30
0.0
 11
526.91065600270201
 21
287.35977573289335
 31
0.0
  0
LINE
  5
11E
100
AcDbEntity
  8
0
  6
Continuous
 62
               7
100
AcDbLine
 10
181.89331586922009
 20
268.16400800323567
 30
0.0
 11
168.79685279478298
 21
246.33591691934686
 31
0.0
  0
LINE
  5
11F
100
AcDbEntity
  8
0
  6
Continuous
 62
               7
100
AcDbLine
 10
175.03346294853458
 20
266.44904477306426
 30
0.0
 11
161.93699987409758
 21
244.62095368917545
 31
0.0
  0
LINE
  5
120
100
AcDbEntity
  8
0
  6
Continuous
 62
               7
100
AcDbLine
 10
168.17361002784907
 20
264.73408154289285
 30
0.0
 11
159.04257495938168
 21
249.51523474190208
 31
0.0
  0
LINE
  5
121
100
AcDbEntity
  8
0
  6
Continuous
 62
               7
100
AcDbLine
 10
161.31375710716355
 20
263.01911831272145
 30
0.0
 11
159.04257495938168
 21
259.23370155492108
 31
0.0
  0
LINE
  5
122
100
AcDbEntity
  8
0
  6
Continuous
 62
               7
100
AcDbLine
 10
693.80191395864756
 20
268.16400800323567
 30
0.0
 11
706.89837703308456
 21
246.33591691934686
 31
0.0
  0
LINE
  5
123
100
AcDbEntity
  8
0
  6
Continuous
 62
               7
100
AcDbLine
 10
700.66176687933296
 20
266.44904477306426
 30
0.0
 11
713.75822995377018
 21
244.62095368917545
 31
0.0
  0
LINE
  5
124
100
AcDbEntity
  8
0
  6
Continuous
 62
               7
100
AcDbLine
 10
707.52161980001858
 20
264.73408154289285
 30
0.0
 11
716.65265486848591
 21
249.51523474190219
 31
0.0
  0
LINE
  5
125
100
AcDbEntity
  8
0
  6
Continuous
 62
               7
100
AcDbLine
 10
714.38147272070398
 20
263.01911831272145
 30
0.0
 11
716.65265486848591
 21
259.23370155492125
 31
0.0
  0
LINE
  5
126
100
AcDbEntity
  8
0
  6
Continuous
 62
               2
100
AcDbLine
 10
347.81254246959276
 20
313.76692027894728
 30
0.0
 11
222.22394890872584
 21
300.92374720401625
 31
0.0
  0
LINE
  5
127
100
AcDbEntity
  8
0
  6
Continuous
 62
               4
100
AcDbLine
 10
347.81254246959276
 20
313.76692027894728
 30
0.0
 11
223.31535922138914
 21
296.55810595336209
 31
0.0
  0
LINE
  5
128
100
AcDbEntity
  8
0
  6
Continuous
 62
               4
100
AcDbLine
 10
202.25047290239019
 20
277.37640288716239
 30
0.0
 11
197.88483165173835
 21
294.83896788976915
 31
0.0
  0
LINE
  5
129
100
AcDbEntity
  8
0
  6
DASHED
 62
               6
100
AcDbLine
 10
716.65265486848591
 20
265.02826606923747
 30
0.0
 11
570.05535433195962
 21
301.67758960236517
 31
0.0
  0
LINE
  5
12A
100
AcDbEntity
  8
0
  6
DASHED
 62
               6
100
AcDbLine
 10
437.84761491393368
 20
333.69874737402188
 30
0.0
 11
514.35089217127938
 21
314.57292805968518
 31
0.0
  0
LINE
  5
12B
100
AcDbEntity
  8
0
  6
Continuous
 62
               2
100
AcDbLine
 10
532.00575337851262
 20
330.25935268276288
 30
0.0
 11
527.88268735827467
 21
313.76692027894728
 31
0.0
  0
LINE
  5
12C
100
AcDbEntity
  8
0
  6
DASHED
 62
               6
100
AcDbLine
 10
523.41937987763765
 20
311.79041792989324
 30
0.0
 11
548.09794279302093
 21
305.62077720104736
 31
0.0
  0
LINE
  5
12D
100
AcDbEntity
  8
0
  6
DASHED
 62
               6
100
AcDbLine
 10
523.41937987763765
 20
311.79041792989324
 30
0.0
 11
514.35089217127938
 21
314.57292805968518
 31
0.0
  0
LINE
  5
12E
100
AcDbEntity
  8
0
  6
DASHED
 62
               6
100
AcDbLine
 10
570.05535433195962
 20
301.67758960236517
 30
0.0
 11
548.09794279302093
 21
305.62077720104736
 31
0.0
  0
LINE
  5
12F
100
AcDbEntity
  8
0
  6
Continuous
 62
               2
100
AcDbLine
 10
527.88268735827467
 20
313.76692027894728
 30
0.0
 11
653.47128091914158
 21
300.92374720401625
 31
0.0
  0
LINE
  5
130
100
AcDbEntity
  8
0
  6
Continuous
 62
               4
100
AcDbLine
 10
527.88268735827467
 20
313.76692027894728
 30
0.0
 11
652.37987060647822
 21
296.55810595336209
 31
0.0
  0
LINE
  5
131
100
AcDbEntity
  8
0
  6
Continuous
 62
               2
100
AcDbLine
 10
716.65265486848591
 20
266.57441812098023
 30
0.0
 11
527.88268735827467
 21
313.76692027894728
 31
0.0
  0
LINE
  5
132
100
AcDbEntity
  8
0
  6
Continuous
 62
               2
100
AcDbLine
 10
716.65265486848591
 20
285.12840371668335
 30
0.0
 11
653.47128091914158
 21
300.92374720401625
 31
0.0
  0
LINE
  5
133
100
AcDbEntity
  8
0
  6
Continuous
 62
               4
100
AcDbLine
 10
716.65265486848591
 20
280.48990988786358
 30
0.0
 11
652.37987060647822
 21
296.55810595336209
 31
0.0
  0
LINE
  5
134
100
AcDbEntity
  8
0
  6
Continuous
 62
               2
100
AcDbLine
 10
159.04257495938168
 20
266.57442840140419
 30
0.0
 11
347.81254246959276
 21
313.76692027894728
 31
0.0
  0
LINE
  5
135
100
AcDbEntity
  8
0
  6
Continuous
 62
               2
100
AcDbLine
 10
159.04257495938168
 20
285.12840371668335
 30
0.0
 11
222.22394890872584
 21
300.92374720401625
 31
0.0
  0
LINE
  5
136
100
AcDbEntity
  8
0
  6
Continuous
 62
               4
100
AcDbLine
 10
159.04257495938168
 20
280.48990988786358
 30
0.0
 11
223.31535922138914
 21
296.55810595336209
 31
0.0
  0
LINE
  5
137
100
AcDbEntity
  8
0
  6
Continuous
 62
               4
100
AcDbLine
 10
454.99548881147547
 20
308.14561341909467
 30
0.0
 11
551.09097716704093
 21
212.05012506352904
 31
0.0
  0
LINE
  5
138
100
AcDbEntity
  8
0
  6
Continuous
 62
               4
100
AcDbLine
 10
454.99548881147547
 20
308.14561341909467
 30
0.0
 11
462.36785721007647
 21
302.98342549193518
 31
0.0
  0
LINE
  5
139
100
AcDbEntity
  8
0
  6
Continuous
 62
               4
100
AcDbLine
 10
454.99548881147547
 20
308.14561341909467
 30
0.0
 11
460.15767673863496
 21
300.77324502049368
 31
0.0
  0
LINE
  5
13A
100
AcDbEntity
  8
0
  6
Continuous
 62
               4
100
AcDbLine
 10
551.09097716704093
 20
212.05012506352904
 30
0.0
 11
655.30459825394871
 21
212.05012506352904
 31
0.0
  0
LINE
  5
13B
100
AcDbEntity
  8
0
  6
Continuous
 62
               6
100
AcDbLine
 10
432.99690241320542
 20
206.62827002686055
 30
0.0
 11
159.04257495938168
 21
138.13968816340349
 31
0.0
  0
LINE
  5
13C
100
AcDbEntity
  8
0
  6
Continuous
 62
               6
100
AcDbLine
 10
408.74341864461252
 20
303.64253972515388
 30
0.0
 11
432.99690241320542
 21
206.62827002686055
 31
0.0
  0
LINE
  5
13D
100
AcDbEntity
  8
0
  6
Continuous
 62
               6
100
AcDbLine
 10
428.14618991247875
 20
226.03112002976724
 30
0.0
 11
159.04257495938168
 21
158.75521629149176
 31
0.0
  0
LINE
  5
13E
100
AcDbEntity
  8
0
  6
Continuous
 62
               6
100
AcDbLine
 10
413.5941311453393
 20
284.23968972224725
 30
0.0
 11
159.04257495938168
 21
220.60180067575675
 31
0.0
  0
LINE
  5
13F
100
AcDbEntity
  8
0
  6
DASHED
 62
               6
100
AcDbLine
 10
409.30125058219613
 20
301.41121197481954
 30
0.0
 11
160.23099952205968
 21
239.14364920978448
 31
0.0
  0
LINE
  5
140
100
AcDbEntity
  8
0
  6
DASHED
 62
               6
100
AcDbLine
 10
432.43907047562192
 20
208.85959777719489
 30
0.0
 11
158.48474302179795
 21
140.37101591373778
 31
0.0
  0
LINE
  5
141
100
AcDbEntity
  8
0
  6
Continuous
 62
               6
100
AcDbLine
 10
466.95181118325485
 20
303.64253972515388
 30
0.0
 11
716.02206224339136
 21
241.37497696011866
 31
0.0
  0
LINE
  5
142
100
AcDbEntity
  8
0
  6
Continuous
 62
               6
100
AcDbLine
 10
442.69832741466195
 20
206.62827002686055
 30
0.0
 11
716.65265486848591
 21
138.13968816340349
 31
0.0
  0
LINE
  5
143
100
AcDbEntity
  8
0
  6
Continuous
 62
               6
100
AcDbLine
 10
466.95181118325485
 20
303.64253972515388
 30
0.0
 11
442.69832741466195
 21
206.62827002686055
 31
0.0
  0
LINE
  5
144
100
AcDbEntity
  8
0
  6
Continuous
 62
               6
100
AcDbLine
 10
447.54903991538873
 20
226.03112002976724
 30
0.0
 11
716.65265486848591
 21
158.75521629149176
 31
0.0
  0
LINE
  5
145
100
AcDbEntity
  8
0
  6
Continuous
 62
               6
100
AcDbLine
 10
462.10109868252817
 20
284.23968972224725
 30
0.0
 11
716.65265486848591
 21
220.60180067575675
 31
0.0
  0
LINE
  5
146
100
AcDbEntity
  8
0
  6
DASHED
 62
               6
100
AcDbLine
 10
466.39397924567135
 20
301.41121197481954
 30
0.0
 11
715.46423030580775
 21
239.14364920978448
 31
0.0
  0
LINE
  5
147
100
AcDbEntity
  8
0
  6
DASHED
 62
               6
100
AcDbLine
 10
443.25615935224556
 20
208.85959777719489
 30
0.0
 11
717.21048680606953
 21
140.37101591373778
 31
0.0
  0
LINE
  5
148
100
AcDbEntity
  8
0
  6
Continuous
 62
               2
100
AcDbLine
 10
529.99536791572757
 20
316.03301091118834
 30
0.0
 11
549.3367222819553
 21
314.30274197214004
 31
0.0
  0
LINE
  5
149
100
AcDbEntity
  8
0
  6
Continuous
 62
               2
100
AcDbLine
 10
542.80283961328826
 20
312.33113878918869
 30
0.0
 11
549.22979782314962
 21
313.10751514843275
 31
0.0
  0
LINE
  5
14A
100
AcDbEntity
  8
0
  6
Continuous
 62
               4
100
AcDbLine
 10
14.142135623730949
 20
595.85786437626905
 30
0.0
 11
14.142135623730949
 21
615.85786437626905
 31
0.0
  0
LINE
  5
14B
100
AcDbEntity
  8
0
  6
Continuous
 62
               4
100
AcDbLine
 10
164.14213562373095
 20
595.85786437626905
 30
0.0
 11
14.142135623730949
 21
595.85786437626905
 31
0.0
  0
LINE
  5
14C
100
AcDbEntity
  8
0
  6
Continuous
 62
               4
100
AcDbLine
 10
164.14213562373095
 20
615.85786437626905
 30
0.0
 11
164.14213562373095
 21
595.85786437626905
 31
0.0
  0
LINE
  5
14D
100
AcDbEntity
  8
0
  6
Continuous
 62
               4
100
AcDbLine
 10
164.14213562373095
 20
615.85786437626905
 30
0.0
 11
14.142135623730949
 21
615.85786437626905
 31
0.0
  0
LINE
  5
14E
100
AcDbEntity
  8
0
  6
Continuous
 62
               4
100
AcDbLine
 10
714.78679656440374
 20
21.213203435596487
 30
0.0
 11
714.78679656440374
 21
41.213203435596498
 31
0.0
  0
LINE
  5
14F
100
AcDbEntity
  8
0
  6
Continuous
 62
               4
100
AcDbLine
 10
864.78679656440374
 20
21.213203435596487
 30
0.0
 11
714.78679656440374
 21
21.213203435596487
 31
0.0
  0
LINE
  5
150
100
AcDbEntity
  8
0
  6
Continuous
 62
               4
100
AcDbLine
 10
864.78679656440374
 20
41.213203435596498
 30
0.0
 11
864.78679656440374
 21
21.213203435596487
 31
0.0
  0
LINE
  5
151
100
AcDbEntity
  8
0
  6
Continuous
 62
               4
100
AcDbLine
 10
864.78679656440374
 20
41.213203435596498
 30
0.0
 11
714.78679656440374
 21
41.213203435596498
 31
0.0
  0
CIRCLE
  5
152
100
AcDbEntity
  8
0
  6
Continuous
 62
               4
100
AcDbCircle
 10
433.76721714570607
 20
376.07436927207169
 30
0.0
 40
1.5
  0
CIRCLE
  5
153
100
AcDbEntity
  8
0
  6
Continuous
 62
               4
100
AcDbCircle
 10
336.75296348372768
 20
351.82080585657656
 30
0.0
 40
1.5
  0
CIRCLE
  5
154
100
AcDbEntity
  8
0
  6
Continuous
 62
               4
100
AcDbCircle
 10
261.86171657676999
 20
278.87912022206018
 30
0.0
 40
1.5
  0
CIRCLE
  5
155
100
AcDbEntity
  8
0
  6
Continuous
 62
               4
100
AcDbCircle
 10
269.86004563589358
 20
292.73263252811665
 30
0.0
 40
1.5
  0
CIRCLE
  5
156
100
AcDbEntity
  8
0
  6
Continuous
 62
               4
100
AcDbCircle
 10
207.58625665319346
 20
256.03326788394969
 30
0.0
 40
1.5
  0
CIRCLE
  5
157
100
AcDbEntity
  8
0
  6
Continuous
 62
               4
100
AcDbCircle
 10
203.22061540253935
 20
273.49583288656555
 30
0.0
 40
1.5
  0
CIRCLE
  5
158
100
AcDbEntity
  8
0
  6
Continuous
 62
               4
100
AcDbCircle
 10
275.33646146044299
 20
302.21806297961058
 30
0.0
 40
1.5
  0
CIRCLE
  5
159
100
AcDbEntity
  8
0
  6
Continuous
 62
               4
100
AcDbCircle
 10
441.92801268216141
 20
376.07436927207169
 30
0.0
 40
1.5
  0
CIRCLE
  5
15A
100
AcDbEntity
  8
0
  6
Continuous
 62
               4
100
AcDbCircle
 10
538.94226634413974
 20
351.82080585657656
 30
0.0
 40
1.5
  0
CIRCLE
  5
15B
100
AcDbEntity
  8
0
  6
Continuous
 62
               4
100
AcDbCircle
 10
202.25047290239019
 20
277.37640288716239
 30
0.0
 40
1.5
  0
CIRCLE
  5
15C
100
AcDbEntity
  8
0
  6
Continuous
 62
               4
100
AcDbCircle
 10
197.88483165173835
 20
294.83896788976915
 30
0.0
 40
1.5
  0
ARC
  5
15D
100
AcDbEntity
  8
0
  6
Continuous
 62
               2
100
AcDbCircle
 10
326.41196977531496
 20
313.70512856028648
 30
0.0
 40
0.600000000000008
100
AcDbArc
 50
95.112046618114292
 51
275.11204661811513
  0
ARC
  5
15E
100
AcDbEntity
  8
0
  6
Continuous
 62
               4
100
AcDbCircle
 10
346.46309431963601
 20
322.61937108361928
 30
0.0
 40
5.0158029760511571
100
AcDbArc
 50
140.5525943994663
 51
247.51961735290743
  0
ARC
  5
15F
100
AcDbEntity
  8
0
  6
Continuous
 62
               7
100
AcDbCircle
 10
318.35354810462974
 20
277.31314713705609
 30
0.0
 40
30.0
100
AcDbArc
 50
358.89902864063322
 51
17.028545480801075
  0
ARC
  5
160
100
AcDbEntity
  8
0
  6
Continuous
 62
               4
100
AcDbCircle
 10
529.23213550823141
 20
322.61937108361928
 30
0.0
 40
5.0158029760511571
100
AcDbArc
 50
292.48038264709248
 51
39.447405600533642
  0
ARC
  5
161
100
AcDbEntity
  8
0
  6
Continuous
 62
               7
100
AcDbCircle
 10
557.34168172323768
 20
277.31314713705609
 30
0.0
 40
30.0
100
AcDbArc
 50
162.97145451919889
 51
181.10097135936678
  0
ARC
  5
162
100
AcDbEntity
  8
0
  6
Continuous
 62
               2
100
AcDbCircle
 10
549.28326005255246
 20
313.70512856028648
 30
0.0
 40
0.600000000000008
100
AcDbArc
 50
264.88795338188481
 51
84.88795338188568
  0
TEXT
  5
163
100
AcDbEntity
  8
0
 62
               7
100
AcDbText
 10
377.91200834153432
 20
363.65724028833489
 30
0.0
 40
9.600000381469739
  1
100
 50
14.03580481039711
 41
0.7695
  7
FontTableH_0
 72
               5
 11
391.88208763708178
 21
367.14964647255943
 31
0.0
100
AcDbText
  0
TEXT
  5
164
100
AcDbEntity
  8
0
 62
               7
100
AcDbText
 10
519.24873929856562
 20
383.32548369653802
 30
0.0
 40
8.9999997615814333
  1
棟板：屋根同材
 41
0.7695
  7
FontTableH_0
 72
               5
 11
582.24873762963568
 21
383.32548369653802
 31
0.0
100
AcDbText
  0
TEXT
  5
165
100
AcDbEntity
  8
0
 62
               7
100
AcDbText
 10
366.06435209153432
 20
447.94694365747552
 30
0.0
 40
8.9999997615814333
  1
ハーパーズルーフ225：各種金属板
 41
0.7695
  7
FontTableH_0
 72
               5
 11
493.25552176894632
 21
447.94694365747552
 31
0.0
100
AcDbText
  0
TEXT
  5
166
100
AcDbEntity
  8
0
 62
               7
100
AcDbText
 10
366.06435209153432
 20
415.94688262231927
 30
0.0
 40
8.9999997615814333
  1
硬質木片セメント板 18mm
 41
0.7695
  7
FontTableH_0
 72
               5
 11
451.08220962607913
 21
415.94688262231927
 31
0.0
100
AcDbText
  0
TEXT
  5
167
100
AcDbEntity
  8
0
 62
               7
100
AcDbText
 10
366.06441312669057
 20
431.94749297388177
 30
0.0
 40
8.9999997615814333
  1
アスファルトルーフィング 22kg
 41
0.7695
  7
FontTableH_0
 72
               5
 11
477.37323096210588
 21
431.94749297388177
 31
0.0
100
AcDbText
  0
TEXT
  5
168
100
AcDbEntity
  8
0
 62
               7
100
AcDbText
 10
205.69429593919057
 20
269.78516997583489
 30
0.0
 40
9.600000381469739
  1
18
 50
284.03625799367495
 41
0.7695
  7
FontTableH_0
 72
               5
 11
208.02264039320434
 21
260.47180219464627
 31
0.0
100
AcDbText
  0
TEXT
  5
169
100
AcDbEntity
  8
0
 62
               7
100
AcDbText
 10
533.54598050950301
 20
367.18980254419427
 30
0.0
 40
8.9999997615814333
  1
補強材 PL-1.6t
 41
0.7695
  7
FontTableH_0
 72
               5
 11
573.63688785562169
 21
367.18980254419427
 31
0.0
100
AcDbText
  0
TEXT
  5
16A
100
AcDbEntity
  8
0
 62
               7
100
AcDbText
 10
483.81313138840932
 20
367.14964141138177
 30
0.0
 40
9.600000381469739
  1
100
 50
345.96418983958989
 41
0.7695
  7
FontTableH_0
 72
               5
 11
497.78321035785206
 21
363.65723392269632
 31
0.0
100
AcDbText
  0
TEXT
  5
16B
100
AcDbEntity
  8
0
 62
               7
100
AcDbText
 10
200.35869413254994
 20
291.12818755395989
 30
0.0
 40
9.600000381469739
  1
18
 50
284.03625799367495
 41
0.7695
  7
FontTableH_0
 72
               5
 11
202.68703858656372
 21
281.81481977277127
 31
0.0
100
AcDbText
  0
TEXT
  5
16C
100
AcDbEntity
  8
0
 62
               7
100
AcDbText
 10
556.30458646653426
 20
213.55012358911614
 30
0.0
 40
9.600000381469739
  1
補強プレート（別途）
 41
0.7695
  7
FontTableH_0
 72
               5
 11
652.30459028123164
 21
213.55012358911614
 31
0.0
100
AcDbText
  0
TEXT
  5
16D
100
AcDbEntity
  8
0
 62
               7
100
AcDbText
 10
46.392136756219145
 20
601.35786449547834
 30
0.0
 40
8.9999997615814333
  1
ハーパーズルーフ225
 41
0.7695
  7
FontTableH_0
 72
               5
 11
131.89213449124276
 21
601.35786449547834
 31
0.0
100
AcDbText
  0
TEXT
  5
16E
100
AcDbEntity
  8
0
 62
               7
100
AcDbText
 10
740.2867978757057
 20
26.713203554805769
 30
0.0
 40
8.9999997615814333
  1
下り棟詳細図 【S=1/3】
 41
0.7695
  7
FontTableH_0
 72
               5
 11
839.28679525310145
 21
26.713203554805769
 31
0.0
100
AcDbText
  0
ENDSEC
  0
SECTION
  2
OBJECTS
  0
DICTIONARY
  5
19
100
AcDbDictionary
  3
ACAD_GROUP
350
1A
  3
ACAD_MLINESTYLE
350
1B
  3
DWGPROPS
350
16F
  0
DICTIONARY
  5
1A
102
{ACAD_REACTORS
330
19
102
}
100
AcDbDictionary
  0
DICTIONARY
  5
1B
102
{ACAD_REACTORS
330
19
102
}
100
AcDbDictionary
  3
STANDARD
350
1C
  0
MLINESTYLE
  5
1C
102
{ACAD_REACTORS
330
1B
102
}
100
AcDbMlineStyle
  2
Standard
 70
               0
  3

 62
               0
 51
90.0
 52
90.0
 71
               2
 49
0.5
 62
             256
  6
ByLayer
 49
-0.5
 62
             256
  6
ByLayer
  0
XRECORD
  5
16F
100
AcDbXrecord
  1
DWGPROPS COOKIE
  2

  3

  4

  6

  7

  0
ENDSEC
  0
EOF
