  0
SECTION
  2
HEADER
  9
$ACADVER
  1
AC1014
  9
$ACADMAINTVER
 70
               0
  9
$DWGCODEPAGE
  3
ANSI_932
  9
$INSBASE
 10
0.0
 20
0.0
 30
0.0
  9
$EXTMIN
 10
0.0
 20
0.0
 30
0.0
  9
$EXTMAX
 10
891.00000000000091
 20
630.00000000000068
 30
0.0
  9
$LIMMIN
 10
0.0
 20
0.0
  9
$LIMMAX
 10
891.00000000000091
 20
630.00000000000068
  9
$ORTHOMODE
 70
               0
  9
$REGENMODE
 70
               1
  9
$FILLMODE
 70
               1
  9
$QTEXTMODE
 70
               0
  9
$MIRRTEXT
 70
               1
  9
$DRAGMODE
 70
               2
  9
$LTSCALE
 40
3.0000000000000031
  9
$OSMODE
 70
               0
  9
$ATTMODE
 70
               1
  9
$TEXTSIZE
 40
0.2
  9
$TRACEWID
 40
0.05
  9
$TEXTSTYLE
  7
Standard
  9
$CLAYER
  8
0
  9
$CELTYPE
  6
Continuous
  9
$CECOLOR
 62
             256
  9
$CELTSCALE
 40
1.0
  9
$DELOBJ
 70
               1
  9
$DISPSILH
 70
               0
  9
$DIMSCALE
 40
1.0
  9
$DIMASZ
 40
0.18
  9
$DIMEXO
 40
0.0625
  9
$DIMDLI
 40
0.38
  9
$DIMRND
 40
0.0
  9
$DIMDLE
 40
0.0
  9
$DIMEXE
 40
0.18
  9
$DIMTP
 40
0.0
  9
$DIMTM
 40
0.0
  9
$DIMTXT
 40
0.18
  9
$DIMCEN
 40
0.09
  9
$DIMTSZ
 40
0.0
  9
$DIMTOL
 70
               0
  9
$DIMLIM
 70
               0
  9
$DIMTIH
 70
               1
  9
$DIMTOH
 70
               1
  9
$DIMSE1
 70
               0
  9
$DIMSE2
 70
               0
  9
$DIMTAD
 70
               0
  9
$DIMZIN
 70
               0
  9
$DIMBLK
  1

  9
$DIMASO
 70
               1
  9
$DIMSHO
 70
               1
  9
$DIMPOST
  1

  9
$DIMAPOST
  1

  9
$DIMALT
 70
               0
  9
$DIMALTD
 70
               2
  9
$DIMALTF
 40
25.399999999999999
  9
$DIMLFAC
 40
1.0
  9
$DIMTOFL
 70
               0
  9
$DIMTVP
 40
0.0
  9
$DIMTIX
 70
               0
  9
$DIMSOXD
 70
               0
  9
$DIMSAH
 70
               0
  9
$DIMBLK1
  1

  9
$DIMBLK2
  1

  9
$DIMSTYLE
  2
Standard
  9
$DIMCLRD
 70
               0
  9
$DIMCLRE
 70
               0
  9
$DIMCLRT
 70
               0
  9
$DIMTFAC
 40
1.0
  9
$DIMGAP
 40
0.09
  9
$DIMJUST
 70
               0
  9
$DIMSD1
 70
               0
  9
$DIMSD2
 70
               0
  9
$DIMTOLJ
 70
               1
  9
$DIMTZIN
 70
               0
  9
$DIMALTZ
 70
               0
  9
$DIMALTTZ
 70
               0
  9
$DIMFIT
 70
               3
  9
$DIMUPT
 70
               0
  9
$DIMUNIT
 70
               2
  9
$DIMDEC
 70
               4
  9
$DIMTDEC
 70
               4
  9
$DIMALTU
 70
               2
  9
$DIMALTTD
 70
               2
  9
$DIMTXSTY
  7
Standard
  9
$DIMAUNIT
 70
               0
  9
$LUNITS
 70
               2
  9
$LUPREC
 70
               4
  9
$SKETCHINC
 40
0.1
  9
$FILLETRAD
 40
0.0
  9
$AUNITS
 70
               0
  9
$AUPREC
 70
               0
  9
$MENU
  1
acad
  9
$ELEVATION
 40
0.0
  9
$PELEVATION
 40
0.0
  9
$THICKNESS
 40
0.0
  9
$LIMCHECK
 70
               0
  9
$BLIPMODE
 70
               1
  9
$CHAMFERA
 40
0.0
  9
$CHAMFERB
 40
0.0
  9
$CHAMFERC
 40
0.0
  9
$CHAMFERD
 40
0.0
  9
$SKPOLY
 70
               0
  9
$TDCREATE
 40
0.000000000
  9
$TDUPDATE
 40
0.000000000
  9
$TDINDWG
 40
0.0000000000
  9
$TDUSRTIMER
 40
0.0000000000
  9
$USRTIMER
 70
               1
  9
$ANGBASE
 50
0.0
  9
$ANGDIR
 70
               0
  9
$PDMODE
 70
               0
  9
$PDSIZE
 40
0.0
  9
$PLINEWID
 40
0.0
  9
$COORDS
 70
               0
  9
$SPLFRAME
 70
               0
  9
$SPLINETYPE
 70
               6
  9
$SPLINESEGS
 70
               8
  9
$ATTDIA
 70
               0
  9
$ATTREQ
 70
               1
  9
$HANDLING
 70
               1
  9
$HANDSEED
  5
22B
  9
$SURFTAB1
 70
               6
  9
$SURFTAB2
 70
               6
  9
$SURFTYPE
 70
               6
  9
$SURFU
 70
               6
  9
$SURFV
 70
               6
  9
$UCSNAME
  2

  9
$UCSORG
 10
0.0
 20
0.0
 30
0.0
  9
$UCSXDIR
 10
1.0
 20
0.0
 30
0.0
  9
$UCSYDIR
 10
0.0
 20
1.0
 30
0.0
  9
$PUCSNAME
  2

  9
$PUCSORG
 10
0.0
 20
0.0
 30
0.0
  9
$PUCSXDIR
 10
1.0
 20
0.0
 30
0.0
  9
$PUCSYDIR
 10
0.0
 20
1.0
 30
0.0
  9
$USERI1
 70
               0
  9
$USERI2
 70
               0
  9
$USERI3
 70
               0
  9
$USERI4
 70
               0
  9
$USERI5
 70
               0
  9
$USERR1
 40
0.0
  9
$USERR2
 40
0.0
  9
$USERR3
 40
0.0
  9
$USERR4
 40
0.0
  9
$USERR5
 40
0.0
  9
$WORLDVIEW
 70
               1
  9
$SHADEDGE
 70
               3
  9
$SHADEDIF
 70
              70
  9
$TILEMODE
 70
               1
  9
$MAXACTVP
 70
              16
  9
$PINSBASE
 10
0.0
 20
0.0
 30
0.0
  9
$PLIMCHECK
 70
               0
  9
$PEXTMIN
 10
1.0000000000000000E+20
 20
1.0000000000000000E+20
 30
1.0000000000000000E+20
  9
$PEXTMAX
 10
-1.0000000000000000E+20
 20
-1.0000000000000000E+20
 30
-1.0000000000000000E+20
  9
$PLIMMIN
 10
0.0
 20
0.0
  9
$PLIMMAX
 10
12.0
 20
9.0
  9
$UNITMODE
 70
               0
  9
$VISRETAIN
 70
               0
  9
$PLINEGEN
 70
               1
  9
$PSLTSCALE
 70
               0
  9
$TREEDEPTH
 70
            3020
  9
$PICKSTYLE
 70
               1
  9
$CMLSTYLE
  2
Standard
  9
$CMLJUST
 70
               0
  9
$CMLSCALE
 40
1.0
  9
$PROXYGRAPHICS
 70
               0
  9
$MEASUREMENT
 70
               0
  0
ENDSEC
  0
SECTION
  2
CLASSES
  0
CLASS
  1
LWPOLYLINE
  2
AcDbPolyline
  3
"AutoCAD"
 90
        0
280
               0
281
               1
  0
CLASS
  1
IMAGE
  2
AcDbRasterImage
  3
ISM
 90
      127
280
               0
281
               1
  0
CLASS
  1
OLE2FRAME
  2
AcDbOle2Frame
  3
""
 90
        0
280
               0
281
               1
  0
CLASS
  1
HATCH
  2
AcDbHatch
  3
"ACAD_SEDONA"
 90
        0
280
               0
281
               1
  0
CLASS
  1
DICTIONARYVAR
  2
AcDbDictionaryVar
  3
"AutoCAD"
 90
        0
280
               0
281
               0
  0
CLASS
  1
RASTERVARIABLES
  2
AcDbRasterVariables
  3
ISM
 90
        0
280
               0
281
               0
  0
CLASS
  1
IMAGEDEF
  2
AcDbRasterImageDef
  3
ISM
 90
        0
280
               0
281
               0
  0
CLASS
  1
IMAGEDEF_REACTOR
  2
AcDbRasterImageDefReactor
  3
ISM
 90
        1
280
               0
281
               0
  0
CLASS
  1
IDBUFFER
  2
AcDbIdBuffer
  3
"Acad"
 90
        0
280
               0
281
               0
  0
CLASS
  1
SPATIAL_FILTER
  2
AcDbSpatialFilter
  3
"Acad"
 90
        0
280
               0
281
               0
  0
CLASS
  1
XRECORD
  2
AcDbXrecord
  3
"<Built In>"
 90
        0
280
               0
281
               0
  0
CLASS
  1
SORTENTSTABLE
  2
AcDbSortentsTable
  3
"AutoCAD"
 90
        0
280
               0
281
               0
  0
CLASS
  1
LAYER_INDEX
  2
AcDbLayerIndex
  3
"Acad"
 90
        0
280
               0
281
               0
  0
CLASS
  1
SPATIAL_INDEX
  2
AcDbSpatialIndex
  3
"Acad"
 90
        0
280
               0
281
               0
  0
CLASS
  1
OBJECT_PTR
  2
CAseDLPNTableRecord
  3
"ASE-LPNTableRecord"
 90
        1
280
               0
281
               0
  0
CLASS
  1
LAYOUT
  2
AcDbLayout
  3
"AutoCAD 2000"
 90
        0
280
               0
281
               0
  0
CLASS
  1
PLOTSETTINGS
  2
AcDbPlotSettings
  3
"AutoCAD 2000"
 90
        0
280
               0
281
               0
  0
CLASS
  1
ACDBDICTIONARYWDFLT
  2
AcDbDictionaryWithDefault
  3
"AutoCAD 2000"
 90
        0
280
               0
281
               0
  0
CLASS
  1
ACDBPLACEHOLDER
  2
AcDbPlaceHolder
  3
"AutoCAD 2000"
 90
        0
280
               0
281
               0
  0
CLASS
  1
VBA_PROJECT
  2
AcDbVbaProject
  3
"acadvba"
 90
        0
280
               0
281
               0
  0
CLASS
  1
WIPEOUT
  2
AcDbWipeout
  3
WipeOut|AutoCAD Express Tool|expresstools@autodesk.com
 90
      127
280
               0
281
               1
  0
CLASS
  1
WIPEOUTVARIABLES
  2
AcDbWipeoutVariables
  3
WipeOut|AutoCAD Express Tool|expresstools@autodesk.com
 90
        0
280
               0
281
               0
  0
CLASS
  1
RTEXT
  2
RText
  3
RText|AutoCAD Express Tool|expresstools@autodesk.com
 90
        0
280
               0
281
               1
  0
CLASS
  1
ARCALIGNEDTEXT
  2
AcDbArcAlignedText
  3
ATEXT|AutoCAD Express Tool|expresstools@autodesk.com
 90
        0
280
               0
281
               1
  0
ENDSEC
  0
SECTION
  2
TABLES
  0
TABLE
  2
VPORT
  5
7
100
AcDbSymbolTable
 70
               1
  0
VPORT
  5
15
100
AcDbSymbolTableRecord
100
AcDbViewportTableRecord
  2
*ACTIVE
 70
               0
 10
0.0
 20
0.0
 11
1.0
 21
1.0
 12
445.50000000000045
 22
315.00000000000034
 13
0.0
 23
0.0
 14
10.0
 24
10.0
 15
10.0
 25
10.0
 16
0.0
 26
0.0
 36
1.0
 17
0.0
 27
0.0
 37
0.0
 40
630.00000000000068
 41
1.4142857142857141
 42
50.0
 43
0.0
 44
0.0
 50
0.0
 51
0.0
 71
               0
 72
             100
 73
               1
 74
               1
 75
               0
 76
               0
 77
               0
 78
               0
  0
ENDTAB
  0
TABLE
  2
LTYPE
  5
4
100
AcDbSymbolTable
 70
              24
  0
LTYPE
  5
11
100
AcDbSymbolTableRecord
100
AcDbLinetypeTableRecord
  2
ByBlock
 70
              64
  3

 72
              65
 73
               0
 40
0.0
  0
LTYPE
  5
12
100
AcDbSymbolTableRecord
100
AcDbLinetypeTableRecord
  2
ByLayer
 70
              64
  3

 72
              65
 73
               0
 40
0.0
  0
LTYPE
  5
13
100
AcDbSymbolTableRecord
100
AcDbLinetypeTableRecord
  2
Continuous
 70
              64
  3
Solid line
 72
              65
 73
               0
 40
0.0
  0
LTYPE
  5
1D
100
AcDbSymbolTableRecord
100
AcDbLinetypeTableRecord
  2
DOT
 70
              64
  3
Dot . . . . . . . . . . . . . . . . . . . . . .
 72
              65
 73
               2
 40
6.3499999999999996
 49
0.35
 74
               0
 49
-6.0
 74
               0
  0
LTYPE
  5
1E
100
AcDbSymbolTableRecord
100
AcDbLinetypeTableRecord
  2
DASHED
 70
              64
  3
Dashed __ __ __ __ __ __ __ __ __ __ __ __ __ _
 72
              65
 73
               2
 40
12.699999999999999
 49
6.3499999999999996
 74
               0
 49
-6.3499999999999996
 74
               0
  0
LTYPE
  5
1F
100
AcDbSymbolTableRecord
100
AcDbLinetypeTableRecord
  2
DASHDOT
 70
              64
  3
Dash dot __ . __ . __ . __ . __ . __ . __ . __
 72
              65
 73
               4
 40
25.399999999999999
 49
12.699999999999999
 74
               0
 49
-6.0
 74
               0
 49
0.7
 74
               0
 49
-6.0
 74
               0
  0
LTYPE
  5
20
100
AcDbSymbolTableRecord
100
AcDbLinetypeTableRecord
  2
DIVIDE
 70
              64
  3
Divide ____ . . ____ . . ____ . . ____ . . ____
 72
              65
 73
               6
 40
31.75
 49
12.699999999999999
 74
               0
 49
-6.0
 74
               0
 49
0.875
 74
               0
 49
-6.0
 74
               0
 49
0.875
 74
               0
 49
-6.0
 74
               0
  0
LTYPE
  5
21
100
AcDbSymbolTableRecord
100
AcDbLinetypeTableRecord
  2
HIDDEN
 70
              64
  3
Hidden __ __ __ __ __ __ __ __ __ __ __ __ __ _
 72
              65
 73
               2
 40
9.5250000000000004
 49
6.3499999999999996
 74
               0
 49
-3.1749999999999998
 74
               0
  0
LTYPE
  5
22
100
AcDbSymbolTableRecord
100
AcDbLinetypeTableRecord
  2
CENTER
 70
              64
  3
Center ____ _ ____ _ ____ _ ____ _ ____ _ ____
 72
              65
 73
               4
 40
50.799999999999997
 49
31.75
 74
               0
 49
-6.3499999999999996
 74
               0
 49
6.3499999999999996
 74
               0
 49
-6.3499999999999996
 74
               0
  0
LTYPE
  5
23
100
AcDbSymbolTableRecord
100
AcDbLinetypeTableRecord
  2
PHANTOM
 70
              64
  3
Phantom ______  __  __  ______  __  __  ______
 72
              65
 73
               6
 40
63.5
 49
31.75
 74
               0
 49
-6.3499999999999996
 74
               0
 49
6.3499999999999996
 74
               0
 49
-6.3499999999999996
 74
               0
 49
6.3499999999999996
 74
               0
 49
-6.3499999999999996
 74
               0
  0
LTYPE
  5
24
100
AcDbSymbolTableRecord
100
AcDbLinetypeTableRecord
  2
ACAD_ISO02W100
 70
              64
  3
ISO dash __ __ __ __ __ __ __ __ __ __ __ __ __
 72
              65
 73
               2
 40
15.0
 49
12.0
 74
               0
 49
-3.0
 74
               0
  0
LTYPE
  5
25
100
AcDbSymbolTableRecord
100
AcDbLinetypeTableRecord
  2
ACAD_ISO03W100
 70
              64
  3
ISO dash space __ __ __ __ __ __ __ __ __ __ __ __ __ __
 72
              65
 73
               2
 40
30.0
 49
12.0
 74
               0
 49
-18.0
 74
               0
  0
LTYPE
  5
26
100
AcDbSymbolTableRecord
100
AcDbLinetypeTableRecord
  2
ACAD_ISO04W100
 70
              64
  3
ISO long-dash dot ____ . ____ . ____ . ____ . _
 72
              65
 73
               4
 40
30.0
 49
24.0
 74
               0
 49
-3.0
 74
               0
 49
0.0
 74
               0
 49
-3.0
 74
               0
  0
LTYPE
  5
27
100
AcDbSymbolTableRecord
100
AcDbLinetypeTableRecord
  2
ACAD_ISO05W100
 70
              64
  3
ISO long-dash double-dot ____ .. ____ .. ____ .
 72
              65
 73
               6
 40
33.0
 49
24.0
 74
               0
 49
-3.0
 74
               0
 49
0.0
 74
               0
 49
-3.0
 74
               0
 49
0.0
 74
               0
 49
-3.0
 74
               0
  0
LTYPE
  5
28
100
AcDbSymbolTableRecord
100
AcDbLinetypeTableRecord
  2
ACAD_ISO06W100
 70
              64
  3
ISO long-dash triple-dot ____ ... ____ ... ____
 72
              65
 73
               8
 40
36.0
 49
24.0
 74
               0
 49
-3.0
 74
               0
 49
0.0
 74
               0
 49
-3.0
 74
               0
 49
0.0
 74
               0
 49
-3.0
 74
               0
 49
0.0
 74
               0
 49
-3.0
 74
               0
  0
LTYPE
  5
29
100
AcDbSymbolTableRecord
100
AcDbLinetypeTableRecord
  2
ACAD_ISO07W100
 70
              64
  3
ISO dot . . . . . . . . . . . . . . . . . . . .
 72
              65
 73
               2
 40
3.0
 49
0.0
 74
               0
 49
-3.0
 74
               0
  0
LTYPE
  5
2A
100
AcDbSymbolTableRecord
100
AcDbLinetypeTableRecord
  2
ACAD_ISO08W100
 70
              64
  3
ISO long-dash short-dash ____ __ ____ __ ____ _
 72
              65
 73
               4
 40
36.0
 49
24.0
 74
               0
 49
-3.0
 74
               0
 49
6.0
 74
               0
 49
-3.0
 74
               0
  0
LTYPE
  5
2B
100
AcDbSymbolTableRecord
100
AcDbLinetypeTableRecord
  2
ACAD_ISO09W100
 70
              64
  3
ISO long-dash double-short-dash ____ __ __ ____
 72
              65
 73
               6
 40
45.0
 49
24.0
 74
               0
 49
-3.0
 74
               0
 49
6.0
 74
               0
 49
-3.0
 74
               0
 49
6.0
 74
               0
 49
-3.0
 74
               0
  0
LTYPE
  5
2C
100
AcDbSymbolTableRecord
100
AcDbLinetypeTableRecord
  2
ACAD_ISO10W100
 70
              64
  3
ISO dash dot __ . __ . __ . __ . __ . __ . __ .
 72
              65
 73
               4
 40
18.0
 49
12.0
 74
               0
 49
-3.0
 74
               0
 49
0.0
 74
               0
 49
-3.0
 74
               0
  0
LTYPE
  5
2D
100
AcDbSymbolTableRecord
100
AcDbLinetypeTableRecord
  2
ACAD_ISO11W100
 70
              64
  3
ISO double-dash dot __ __ . __ __ . __ __ . __ 
 72
              65
 73
               6
 40
33.0
 49
12.0
 74
               0
 49
-3.0
 74
               0
 49
12.0
 74
               0
 49
-3.0
 74
               0
 49
0.0
 74
               0
 49
-3.0
 74
               0
  0
LTYPE
  5
2E
100
AcDbSymbolTableRecord
100
AcDbLinetypeTableRecord
  2
ACAD_ISO12W100
 70
              64
  3
ISO dash double-dot __ . . __ . . __ . . __ . .
 72
              65
 73
               6
 40
21.0
 49
12.0
 74
               0
 49
-3.0
 74
               0
 49
0.0
 74
               0
 49
-3.0
 74
               0
 49
0.0
 74
               0
 49
-3.0
 74
               0
  0
LTYPE
  5
2F
100
AcDbSymbolTableRecord
100
AcDbLinetypeTableRecord
  2
ACAD_ISO13W100
 70
              64
  3
ISO double-dash double-dot __ __ . . __ __ . . 
 72
              65
 73
               8
 40
36.0
 49
12.0
 74
               0
 49
-3.0
 74
               0
 49
12.0
 74
               0
 49
-3.0
 74
               0
 49
0.0
 74
               0
 49
-3.0
 74
               0
 49
0.0
 74
               0
 49
-3.0
 74
               0
  0
LTYPE
  5
30
100
AcDbSymbolTableRecord
100
AcDbLinetypeTableRecord
  2
ACAD_ISO14W100
 70
              64
  3
ISO dash triple-dot __ . . . __ . . . __ . . . 
 72
              65
 73
               8
 40
24.0
 49
12.0
 74
               0
 49
-3.0
 74
               0
 49
0.0
 74
               0
 49
-3.0
 74
               0
 49
0.0
 74
               0
 49
-3.0
 74
               0
 49
0.0
 74
               0
 49
-3.0
 74
               0
  0
LTYPE
  5
31
100
AcDbSymbolTableRecord
100
AcDbLinetypeTableRecord
  2
ACAD_ISO15W100
 70
              64
  3
ISO double-dash double-dot __ __ . . __ __ . . 
 72
              65
 73
              10
 40
39.0
 49
12.0
 74
               0
 49
-3.0
 74
               0
 49
12.0
 74
               0
 49
-3.0
 74
               0
 49
0.0
 74
               0
 49
-3.0
 74
               0
 49
0.0
 74
               0
 49
-3.0
 74
               0
 49
0.0
 74
               0
 49
-3.0
 74
               0
  0
ENDTAB
  0
TABLE
  2
LAYER
  5
2
100
AcDbSymbolTable
 70
              16
  0
LAYER
  5
14
100
AcDbSymbolTableRecord
100
AcDbLayerTableRecord
  2
0
 70
               0
 62
               7
  6
Continuous
  0
LAYER
  5
35
100
AcDbSymbolTableRecord
100
AcDbLayerTableRecord
  2
Layer00001
 70
               0
 62
               7
  6
Continuous
  0
LAYER
  5
36
100
AcDbSymbolTableRecord
100
AcDbLayerTableRecord
  2
Layer00002
 70
               0
 62
               7
  6
Continuous
  0
LAYER
  5
37
100
AcDbSymbolTableRecord
100
AcDbLayerTableRecord
  2
Layer00003
 70
               0
 62
               7
  6
Continuous
  0
LAYER
  5
38
100
AcDbSymbolTableRecord
100
AcDbLayerTableRecord
  2
Layer00004
 70
               0
 62
               7
  6
Continuous
  0
LAYER
  5
39
100
AcDbSymbolTableRecord
100
AcDbLayerTableRecord
  2
Layer00005
 70
               0
 62
               7
  6
Continuous
  0
LAYER
  5
3A
100
AcDbSymbolTableRecord
100
AcDbLayerTableRecord
  2
Layer00006
 70
               0
 62
               7
  6
Continuous
  0
LAYER
  5
3B
100
AcDbSymbolTableRecord
100
AcDbLayerTableRecord
  2
Layer00007
 70
               0
 62
               7
  6
Continuous
  0
LAYER
  5
3C
100
AcDbSymbolTableRecord
100
AcDbLayerTableRecord
  2
Layer00008
 70
               0
 62
               7
  6
Continuous
  0
LAYER
  5
3D
100
AcDbSymbolTableRecord
100
AcDbLayerTableRecord
  2
Layer00009
 70
               0
 62
               7
  6
Continuous
  0
LAYER
  5
3E
100
AcDbSymbolTableRecord
100
AcDbLayerTableRecord
  2
Layer00010
 70
               0
 62
               7
  6
Continuous
  0
LAYER
  5
3F
100
AcDbSymbolTableRecord
100
AcDbLayerTableRecord
  2
Layer00011
 70
               0
 62
               7
  6
Continuous
  0
LAYER
  5
40
100
AcDbSymbolTableRecord
100
AcDbLayerTableRecord
  2
Layer00012
 70
               0
 62
               7
  6
Continuous
  0
LAYER
  5
41
100
AcDbSymbolTableRecord
100
AcDbLayerTableRecord
  2
Layer00013
 70
               0
 62
               7
  6
Continuous
  0
LAYER
  5
42
100
AcDbSymbolTableRecord
100
AcDbLayerTableRecord
  2
Layer00014
 70
               0
 62
               7
  6
Continuous
  0
LAYER
  5
43
100
AcDbSymbolTableRecord
100
AcDbLayerTableRecord
  2
Layer00015
 70
               0
 62
               7
  6
Continuous
  0
ENDTAB
  0
TABLE
  2
STYLE
  5
3
100
AcDbSymbolTable
 70
               4
  0
STYLE
  5
17
100
AcDbSymbolTableRecord
100
AcDbTextStyleTableRecord
  2
Standard
 70
               0
 40
0.0
 41
1.0
 50
0.0
 71
               0
 42
0.0
  3
txt.shx
  4
bigfont.shx
  0
STYLE
  5
32
100
AcDbSymbolTableRecord
100
AcDbTextStyleTableRecord
  2
STANDARD_T
 70
               4
 40
0.0
 41
1.0
 50
0.0
 71
               0
 42
0.0
  3
txt.shx
  4
bigfont.shx
  0
STYLE
  5
33
100
AcDbSymbolTableRecord
100
AcDbTextStyleTableRecord
  2
FontTableH_0
 70
               0
 40
0.0
 41
1.0
 50
0.0
 71
               0
 42
0.0
  3
MS Gothic.ttf
  4

1001
ACAD
1000
MS Gothic
1071
    32817
  0
STYLE
  5
34
100
AcDbSymbolTableRecord
100
AcDbTextStyleTableRecord
  2
FontTableV_0
 70
               0
 40
0.0
 41
1.0
 50
0.0
 71
               0
 42
0.0
  3
@MS Gothic.ttf
  4

1001
ACAD
1000
@MS Gothic
1071
    32817
  0
ENDTAB
  0
TABLE
  2
VIEW
  5
5
100
AcDbSymbolTable
 70
               0
  0
ENDTAB
  0
TABLE
  2
UCS
  5
6
100
AcDbSymbolTable
 70
               0
  0
ENDTAB
  0
TABLE
  2
APPID
  5
8
100
AcDbSymbolTable
 70
               1
  0
APPID
  5
16
100
AcDbSymbolTableRecord
100
AcDbRegAppTableRecord
  2
ACAD
 70
               0
  0
ENDTAB
  0
TABLE
  2
DIMSTYLE
  5
9
100
AcDbSymbolTable
 70
               1
  0
DIMSTYLE
105
18
100
AcDbSymbolTableRecord
100
AcDbDimStyleTableRecord
  2
Standard
 70
               0
  3

  4

  5

  6

  7

 40
1.0
 41
0.18
 42
0.0625
 43
0.38
 44
0.18
 45
0.0
 46
0.0
 47
0.0
 48
0.0
 71
               0
 72
               0
 73
               1
 74
               1
 75
               0
 76
               0
 77
               0
 78
               0
140
0.18
141
0.09
142
0.0
143
25.399999999999999
144
1.0
145
0.0
146
1.0
147
0.09
170
               0
171
               2
172
               0
173
               0
174
               0
175
               0
176
               0
177
               0
178
               0
270
               2
271
               4
272
               4
273
               2
274
               2
275
               0
280
               0
281
               0
282
               0
283
               1
284
               0
285
               0
286
               0
287
               0
288
               0
340
17
  0
ENDTAB
  0
TABLE
  2
BLOCK_RECORD
  5
1
100
AcDbSymbolTable
 70
               0
  0
BLOCK_RECORD
  5
A
100
AcDbSymbolTableRecord
100
AcDbBlockTableRecord
  2
*MODEL_SPACE
  0
BLOCK_RECORD
  5
B
100
AcDbSymbolTableRecord
100
AcDbBlockTableRecord
  2
*PAPER_SPACE
  0
ENDTAB
  0
ENDSEC
  0
SECTION
  2
BLOCKS
  0
BLOCK
  5
D
100
AcDbEntity
  8
0
100
AcDbBlockBegin
  2
*MODEL_SPACE
 70
               0
 10
0.0
 20
0.0
 30
0.0
  3
*MODEL_SPACE
  1

  0
ENDBLK
  5
E
100
AcDbEntity
  8
0
100
AcDbBlockEnd
  0
BLOCK
  5
F
100
AcDbEntity
 67
               1
  8
0
100
AcDbBlockBegin
  2
*PAPER_SPACE
 70
               0
 10
0.0
 20
0.0
 30
0.0
  3
*PAPER_SPACE
  1

  0
ENDBLK
  5
10
100
AcDbEntity
 67
               1
  8
0
100
AcDbBlockEnd
  0
ENDSEC
  0
SECTION
  2
ENTITIES
  0
LINE
  5
44
100
AcDbEntity
  8
0
  6
Continuous
 62
               4
100
AcDbLine
 10
226.67214104970515
 20
288.20249065287055
 30
0.0
 11
175.72905476889764
 21
317.61449523044513
 31
0.0
  0
LINE
  5
45
100
AcDbEntity
  8
0
  6
Continuous
 62
               4
100
AcDbLine
 10
175.72905476889764
 20
317.61449523044513
 30
0.0
 11
77.725220680744059
 21
317.61449523044513
 31
0.0
  0
LINE
  5
46
100
AcDbEntity
  8
0
  6
Continuous
 62
               4
100
AcDbLine
 10
226.67214104970515
 20
288.20249065287055
 30
0.0
 11
218.21490746263197
 21
291.28067194280158
 31
0.0
  0
LINE
  5
47
100
AcDbEntity
  8
0
  6
Continuous
 62
               4
100
AcDbLine
 10
226.67214104970515
 20
288.20249065287055
 30
0.0
 11
219.77774106163434
 21
293.98757914004943
 31
0.0
  0
LINE
  5
48
100
AcDbEntity
  8
0
  6
Continuous
 62
               3
100
AcDbLine
 10
226.47578666123496
 20
311.47766938374457
 30
0.0
 11
231.64804860142897
 21
294.23679624976376
 31
0.0
  0
LINE
  5
49
100
AcDbEntity
  8
0
  6
Continuous
 62
               4
100
AcDbLine
 10
202.24546098783054
 20
369.62475752578865
 30
0.0
 11
218.09480666554998
 21
316.79360526672207
 31
0.0
  0
LINE
  5
4A
100
AcDbEntity
  8
0
  6
Continuous
 62
               4
100
AcDbLine
 10
189.47993265866705
 20
304.29335136425573
 30
0.0
 11
155.86754458217075
 21
294.20963494130723
 31
0.0
  0
LINE
  5
4B
100
AcDbEntity
  8
0
  6
Continuous
 62
               7
100
AcDbLine
 10
530.14195217919087
 20
402.57751903912731
 30
0.0
 11
520.53629307857341
 21
384.73787413291484
 31
0.0
  0
LINE
  5
4C
100
AcDbEntity
  8
0
  6
Continuous
 62
               7
100
AcDbLine
 10
523.36918690068842
 20
400.54568945557673
 30
0.0
 11
518.50440989219214
 21
391.51081808751985
 31
0.0
  0
LINE
  5
4D
100
AcDbEntity
  8
0
  6
Continuous
 62
               7
100
AcDbLine
 10
501.29165939169201
 20
380.63639238168793
 30
0.0
 11
497.75549997899913
 21
374.06903166303124
 31
0.0
  0
LINE
  5
4E
100
AcDbEntity
  8
0
  6
Continuous
 62
               7
100
AcDbLine
 10
499.25977620531063
 20
387.40933633629288
 30
0.0
 11
490.98273470049679
 21
372.03720207948078
 31
0.0
  0
LINE
  5
4F
100
AcDbEntity
  8
0
  6
Continuous
 62
               7
100
AcDbLine
 10
496.27812578667914
 20
392.41837112137421
 30
0.0
 11
484.20996942199446
 21
370.00537249593015
 31
0.0
  0
LINE
  5
50
100
AcDbEntity
  8
0
  6
Continuous
 62
               7
100
AcDbLine
 10
489.50536050817692
 20
390.38654153782363
 30
0.0
 11
477.43720414349224
 21
367.97354291237957
 31
0.0
  0
LINE
  5
51
100
AcDbEntity
  8
0
  6
Continuous
 62
               7
100
AcDbLine
 10
482.73259522967459
 20
388.35471195427306
 30
0.0
 11
470.6644388649899
 21
365.94171332882888
 31
0.0
  0
LINE
  5
52
100
AcDbEntity
  8
0
  6
Continuous
 62
               7
100
AcDbLine
 10
475.95982995117225
 20
386.32288237072237
 30
0.0
 11
463.89167358648757
 21
363.90988374527836
 31
0.0
  0
LINE
  5
53
100
AcDbEntity
  8
0
  6
Continuous
 62
               7
100
AcDbLine
 10
469.18706467266992
 20
384.29105278717174
 30
0.0
 11
457.11890830798524
 21
361.87805416172773
 31
0.0
  0
LINE
  5
54
100
AcDbEntity
  8
0
  6
Continuous
 62
               7
100
AcDbLine
 10
462.41429939416759
 20
382.25922320362127
 30
0.0
 11
450.3461430294829
 21
359.84622457817704
 31
0.0
  0
LINE
  5
55
100
AcDbEntity
  8
0
  6
Continuous
 62
               7
100
AcDbLine
 10
455.64153411566537
 20
380.22739362007064
 30
0.0
 11
443.57337775098068
 21
357.81439499462647
 31
0.0
  0
LINE
  5
56
100
AcDbEntity
  8
0
  6
Continuous
 62
               7
100
AcDbLine
 10
448.86876883716303
 20
378.19556403652007
 30
0.0
 11
436.80061247247835
 21
355.78256541107584
 31
0.0
  0
LINE
  5
57
100
AcDbEntity
  8
0
  6
Continuous
 62
               7
100
AcDbLine
 10
442.0960035586607
 20
376.16373445296938
 30
0.0
 11
430.02784719397602
 21
353.75073582752526
 31
0.0
  0
LINE
  5
58
100
AcDbEntity
  8
0
  6
Continuous
 62
               7
100
AcDbLine
 10
435.32323828015836
 20
374.13190486941886
 30
0.0
 11
423.2550819154738
 21
351.71890624397463
 31
0.0
  0
LINE
  5
59
100
AcDbEntity
  8
0
  6
Continuous
 62
               7
100
AcDbLine
 10
428.55047300165603
 20
372.10007528586823
 30
0.0
 11
416.48231663697146
 21
349.68707666042405
 31
0.0
  0
LINE
  5
5A
100
AcDbEntity
  8
0
  6
Continuous
 62
               7
100
AcDbLine
 10
421.77770772315381
 20
370.06824570231754
 30
0.0
 11
409.70955135846913
 21
347.65524707687348
 31
0.0
  0
LINE
  5
5B
100
AcDbEntity
  8
0
  6
Continuous
 62
               7
100
AcDbLine
 10
415.00494244465148
 20
368.03641611876697
 30
0.0
 11
402.93678607996679
 21
345.62341749332285
 31
0.0
  0
LINE
  5
5C
100
AcDbEntity
  8
0
  6
Continuous
 62
               7
100
AcDbLine
 10
408.23217716614914
 20
366.00458653521633
 30
0.0
 11
396.16402080146446
 21
343.59158790977227
 31
0.0
  0
LINE
  5
5D
100
AcDbEntity
  8
0
  6
Continuous
 62
               7
100
AcDbLine
 10
401.45941188764681
 20
363.97275695166576
 30
0.0
 11
389.39125552296224
 21
341.55975832622164
 31
0.0
  0
LINE
  5
5E
100
AcDbEntity
  8
0
  6
Continuous
 62
               7
100
AcDbLine
 10
394.68664660914447
 20
361.94092736811513
 30
0.0
 11
382.61849024445991
 21
339.52792874267107
 31
0.0
  0
LINE
  5
5F
100
AcDbEntity
  8
0
  6
Continuous
 62
               7
100
AcDbLine
 10
387.91388133064225
 20
359.90909778456455
 30
0.0
 11
375.84572496595757
 21
337.49609915912043
 31
0.0
  0
LINE
  5
60
100
AcDbEntity
  8
0
  6
Continuous
 62
               7
100
AcDbLine
 10
381.14111605213992
 20
357.87726820101398
 30
0.0
 11
369.07295968745524
 21
335.46426957556986
 31
0.0
  0
LINE
  5
61
100
AcDbEntity
  8
0
  6
Continuous
 62
               7
100
AcDbLine
 10
374.36835077363759
 20
355.84543861746334
 30
0.0
 11
362.3001944089529
 21
333.43243999201923
 31
0.0
  0
LINE
  5
62
100
AcDbEntity
  8
0
  6
Continuous
 62
               7
100
AcDbLine
 10
367.59558549513537
 20
353.81360903391277
 30
0.0
 11
355.52742913045068
 21
331.40061040846865
 31
0.0
  0
LINE
  5
63
100
AcDbEntity
  8
0
  6
Continuous
 62
               7
100
AcDbLine
 10
360.82282021663303
 20
351.78177945036214
 30
0.0
 11
348.75466385194835
 21
329.36878082491808
 31
0.0
  0
LINE
  5
64
100
AcDbEntity
  8
0
  6
Continuous
 62
               7
100
AcDbLine
 10
354.0500549381307
 20
349.74994986681156
 30
0.0
 11
341.98189857344607
 21
327.33695124136744
 31
0.0
  0
LINE
  5
65
100
AcDbEntity
  8
0
  6
Continuous
 62
               7
100
AcDbLine
 10
347.27728965962837
 20
347.71812028326093
 30
0.0
 11
335.20913329494374
 21
325.30512165781687
 31
0.0
  0
LINE
  5
66
100
AcDbEntity
  8
0
  6
Continuous
 62
               7
100
AcDbLine
 10
340.50452438112603
 20
345.68629069971036
 30
0.0
 11
328.43636801644146
 21
323.27329207426624
 31
0.0
  0
LINE
  5
67
100
AcDbEntity
  8
0
  6
Continuous
 62
               7
100
AcDbLine
 10
333.73175910262376
 20
343.65446111615978
 30
0.0
 11
321.66360273793913
 21
321.24146249071566
 31
0.0
  0
LINE
  5
68
100
AcDbEntity
  8
0
  6
Continuous
 62
               7
100
AcDbLine
 10
326.95899382412148
 20
341.62263153260915
 30
0.0
 11
314.89083745943674
 21
319.20963290716503
 31
0.0
  0
LINE
  5
69
100
AcDbEntity
  8
0
  6
Continuous
 62
               7
100
AcDbLine
 10
320.18622854561914
 20
339.59080194905857
 30
0.0
 11
308.11807218093458
 21
317.17780332361434
 31
0.0
  0
LINE
  5
6A
100
AcDbEntity
  8
0
  6
Continuous
 62
               7
100
AcDbLine
 10
313.41346326711687
 20
337.55897236550794
 30
0.0
 11
301.34530690243213
 21
315.14597374006388
 31
0.0
  0
LINE
  5
6B
100
AcDbEntity
  8
0
  6
Continuous
 62
               7
100
AcDbLine
 10
306.64069798861453
 20
335.52714278195737
 30
0.0
 11
294.57254162392996
 21
313.11414415651325
 31
0.0
  0
LINE
  5
6C
100
AcDbEntity
  8
0
  6
Continuous
 62
               7
100
AcDbLine
 10
299.86793271011226
 20
333.49531319840673
 30
0.0
 11
287.79977634542757
 21
311.08231457296256
 31
0.0
  0
LINE
  5
6D
100
AcDbEntity
  8
0
  6
Continuous
 62
               7
100
AcDbLine
 10
293.09516743160998
 20
331.46348361485605
 30
0.0
 11
281.02701106692524
 21
309.05048498941193
 31
0.0
  0
LINE
  5
6E
100
AcDbEntity
  8
0
  6
Continuous
 62
               7
100
AcDbLine
 10
286.32240215310753
 20
329.43165403130553
 30
0.0
 11
274.25424578842296
 21
307.01865540586147
 31
0.0
  0
LINE
  5
6F
100
AcDbEntity
  8
0
  6
Continuous
 62
               7
100
AcDbLine
 10
279.54963687460537
 20
327.39982444775484
 30
0.0
 11
267.48148050992063
 21
304.98682582231078
 31
0.0
  0
LINE
  5
70
100
AcDbEntity
  8
0
  6
Continuous
 62
               7
100
AcDbLine
 10
272.77687159610298
 20
325.36799486420438
 30
0.0
 11
260.70871523141835
 21
302.95499623876015
 31
0.0
  0
LINE
  5
71
100
AcDbEntity
  8
0
  6
Continuous
 62
               7
100
AcDbLine
 10
266.00410631760064
 20
323.33616528065374
 30
0.0
 11
253.93594995291608
 21
300.92316665520957
 31
0.0
  0
LINE
  5
72
100
AcDbEntity
  8
0
  6
Continuous
 62
               7
100
AcDbLine
 10
259.23134103909837
 20
321.30433569710317
 30
0.0
 11
247.16318467441374
 21
298.89133707165894
 31
0.0
  0
LINE
  5
73
100
AcDbEntity
  8
0
  6
Continuous
 62
               7
100
AcDbLine
 10
252.45857576059603
 20
319.27250611355254
 30
0.0
 11
240.39041939591147
 21
296.85950748810836
 31
0.0
  0
LINE
  5
74
100
AcDbEntity
  8
0
  6
Continuous
 62
               7
100
AcDbLine
 10
245.68581048209376
 20
317.24067653000196
 30
0.0
 11
233.61765411740913
 21
294.82767790455773
 31
0.0
  0
LINE
  5
75
100
AcDbEntity
  8
0
  6
Continuous
 62
               7
100
AcDbLine
 10
238.91304520359148
 20
315.20884694645133
 30
0.0
 11
230.20706265822048
 21
299.04008272712554
 31
0.0
  0
LINE
  5
76
100
AcDbEntity
  8
0
  6
Continuous
 62
               7
100
AcDbLine
 10
232.14027992508915
 20
313.17701736290064
 30
0.0
 11
228.17517947183904
 21
305.81302668173043
 31
0.0
  0
LINE
  5
77
100
AcDbEntity
  8
0
  6
Continuous
 62
               4
100
AcDbLine
 10
509.21068681909725
 20
377.50558771506053
 30
0.0
 11
504.0384248789033
 21
394.74646084904123
 31
0.0
  0
LINE
  5
78
100
AcDbEntity
  8
0
  6
Continuous
 62
               7
100
AcDbLine
 10
550.46024801469798
 20
408.67300778977915
 30
0.0
 11
538.39209165001307
 21
386.26000916433497
 31
0.0
  0
LINE
  5
79
100
AcDbEntity
  8
0
  6
Continuous
 62
               7
100
AcDbLine
 10
543.68748273619553
 20
406.64117820622857
 30
0.0
 11
531.61932637151085
 21
384.22817958078434
 31
0.0
  0
LINE
  5
7A
100
AcDbEntity
  8
0
  6
Continuous
 62
               7
100
AcDbLine
 10
536.91471745769309
 20
404.60934862267789
 30
0.0
 11
524.8465610930084
 21
382.19634999723377
 31
0.0
  0
LINE
  5
7B
100
AcDbEntity
  8
0
  6
Continuous
 62
               7
100
AcDbLine
 10
570.77854385020487
 20
414.7684965404311
 30
0.0
 11
558.71038748552019
 21
392.35549791498681
 31
0.0
  0
LINE
  5
7C
100
AcDbEntity
  8
0
  6
Continuous
 62
               7
100
AcDbLine
 10
564.00577857170242
 20
412.73666695688041
 30
0.0
 11
551.93762220701774
 21
390.32366833143612
 31
0.0
  0
LINE
  5
7D
100
AcDbEntity
  8
0
  6
Continuous
 62
               7
100
AcDbLine
 10
557.2330132932002
 20
410.70483737332972
 30
0.0
 11
545.16485692851552
 21
388.29183874788555
 31
0.0
  0
LINE
  5
7E
100
AcDbEntity
  8
0
  6
Continuous
 62
               2
100
AcDbLine
 10
224.69422977072367
 20
312.19603909766033
 30
0.0
 11
315.68772686673293
 21
339.49408822646325
 31
0.0
  0
LINE
  5
7F
100
AcDbEntity
  8
0
  6
DASHED
 62
               6
100
AcDbLine
 10
296.18638369963037
 20
334.89652205740163
 30
0.0
 11
225.78615173587576
 21
313.77645246827524
 31
0.0
  0
LINE
  5
80
100
AcDbEntity
  8
0
  6
Continuous
 62
               2
100
AcDbLine
 10
219.64648524760815
 20
311.62134332652778
 30
0.0
 11
197.80804594456583
 21
305.06981153561497
 31
0.0
  0
LINE
  5
81
100
AcDbEntity
  8
0
  6
Continuous
 62
               7
100
AcDbLine
 10
252.16244107901326
 20
283.34761735365026
 30
0.0
 11
241.81791719862554
 21
317.82936362161183
 31
0.0
  0
LINE
  5
82
100
AcDbEntity
  8
0
  6
Continuous
 62
               7
100
AcDbLine
 10
238.70498177165683
 20
319.50555962074907
 30
0.0
 11
238.84865571444004
 21
319.02664647813833
 31
0.0
  0
LINE
  5
83
100
AcDbEntity
  8
0
  6
Continuous
 62
               7
100
AcDbLine
 10
256.95157250511897
 20
284.78435678148185
 30
0.0
 11
246.60704862473136
 21
319.26610304944353
 31
0.0
  0
LINE
  5
84
100
AcDbEntity
  8
0
  6
Continuous
 62
               7
100
AcDbLine
 10
248.28324462386843
 20
322.37903847641223
 30
0.0
 11
248.42691856665158
 21
321.90012533380167
 31
0.0
  0
LINE
  5
85
100
AcDbEntity
  8
0
  6
Continuous
 62
               7
100
AcDbLine
 10
238.70498177165683
 20
319.50555962074907
 30
0.0
 11
248.28324462386843
 21
322.37903847641223
 31
0.0
  0
LINE
  5
86
100
AcDbEntity
  8
0
  6
Continuous
 62
               7
100
AcDbLine
 10
241.81791719862554
 20
317.82936362161183
 30
0.0
 11
246.60704862473136
 21
319.26610304944353
 31
0.0
  0
LINE
  5
87
100
AcDbEntity
  8
0
  6
Continuous
 62
               7
100
AcDbLine
 10
238.84865571444004
 20
319.02664647813833
 30
0.0
 11
241.81791719862554
 21
317.82936362161183
 31
0.0
  0
LINE
  5
88
100
AcDbEntity
  8
0
  6
Continuous
 62
               7
100
AcDbLine
 10
246.60704862473136
 20
319.26610304944353
 30
0.0
 11
248.42691856665164
 21
321.90012533380167
 31
0.0
  0
LINE
  5
89
100
AcDbEntity
  8
0
  6
Continuous
 62
               7
100
AcDbLine
 10
238.84865571444004
 20
319.02664647813833
 30
0.0
 11
248.42691856665164
 21
321.90012533380155
 31
0.0
  0
LINE
  5
8A
100
AcDbEntity
  8
0
  6
Continuous
 62
               7
100
AcDbLine
 10
252.16244107901326
 20
283.34761735365026
 30
0.0
 11
254.98802862041566
 21
282.62924763973427
 31
0.0
  0
LINE
  5
8B
100
AcDbEntity
  8
0
  6
Continuous
 62
               7
100
AcDbLine
 10
256.95157250511897
 20
284.78435678148185
 30
0.0
 11
254.98802862041566
 21
282.62924763973427
 31
0.0
  0
LINE
  5
8C
100
AcDbEntity
  8
0
  6
Continuous
 62
               7
100
AcDbLine
 10
243.82935239758984
 20
311.12457962506375
 30
0.0
 11
248.04378805256295
 21
314.47697162333765
 31
0.0
  0
LINE
  5
8D
100
AcDbEntity
  8
0
  6
Continuous
 62
               7
100
AcDbLine
 10
244.40404816872245
 20
309.20892705462143
 30
0.0
 11
248.61848382369567
 21
312.56131905289544
 31
0.0
  0
LINE
  5
8E
100
AcDbEntity
  8
0
  6
Continuous
 62
               7
100
AcDbLine
 10
244.97874393985518
 20
307.29327448417916
 30
0.0
 11
249.19317959482828
 21
310.64566648245307
 31
0.0
  0
LINE
  5
8F
100
AcDbEntity
  8
0
  6
Continuous
 62
               7
100
AcDbLine
 10
245.55343971098773
 20
305.37762191373673
 30
0.0
 11
249.76787536596083
 21
308.73001391201075
 31
0.0
  0
LINE
  5
90
100
AcDbEntity
  8
0
  6
Continuous
 62
               7
100
AcDbLine
 10
246.12813548212034
 20
303.46196934329453
 30
0.0
 11
250.34257113709356
 21
306.81436134156843
 31
0.0
  0
LINE
  5
91
100
AcDbEntity
  8
0
  6
Continuous
 62
               7
100
AcDbLine
 10
246.70283125325307
 20
301.54631677285226
 30
0.0
 11
250.91726690822617
 21
304.89870877112617
 31
0.0
  0
LINE
  5
92
100
AcDbEntity
  8
0
  6
Continuous
 62
               7
100
AcDbLine
 10
247.27752702438568
 20
299.63066420240983
 30
0.0
 11
251.49196267935878
 21
302.98305620068373
 31
0.0
  0
LINE
  5
93
100
AcDbEntity
  8
0
  6
Continuous
 62
               7
100
AcDbLine
 10
247.85222279551823
 20
297.71501163196763
 30
0.0
 11
252.06665845049133
 21
301.06740363024153
 31
0.0
  0
LINE
  5
94
100
AcDbEntity
  8
0
  6
Continuous
 62
               7
100
AcDbLine
 10
248.42691856665095
 20
295.79935906152525
 30
0.0
 11
252.64135422162406
 21
299.15175105979927
 31
0.0
  0
LINE
  5
95
100
AcDbEntity
  8
0
  6
Continuous
 62
               7
100
AcDbLine
 10
249.00161433778356
 20
293.88370649108293
 30
0.0
 11
253.21604999275667
 21
297.23609848935706
 31
0.0
  0
LINE
  5
96
100
AcDbEntity
  8
0
  6
Continuous
 62
               7
100
AcDbLine
 10
249.57631010891623
 20
291.96805392064067
 30
0.0
 11
253.79074576388933
 21
295.32044591891463
 31
0.0
  0
LINE
  5
97
100
AcDbEntity
  8
0
  6
Continuous
 62
               7
100
AcDbLine
 10
250.15100588004884
 20
290.05240135019835
 30
0.0
 11
252.67966727303286
 21
292.06383654916277
 31
0.0
  0
LINE
  5
98
100
AcDbEntity
  8
0
  6
Continuous
 62
               7
100
AcDbLine
 10
256.32898541972526
 20
285.11959598130926
 30
0.0
 11
253.94399796952473
 21
293.06955414864507
 31
0.0
  0
LINE
  5
99
100
AcDbEntity
  8
0
  6
Continuous
 62
               7
100
AcDbLine
 10
252.67966727303286
 20
292.06383654916277
 30
0.0
 11
253.38366959267034
 21
293.37126942848965
 31
0.0
  0
LINE
  5
9A
100
AcDbEntity
  8
0
  6
Continuous
 62
               7
100
AcDbLine
 10
253.94399796952473
 20
293.06955414864495
 30
0.0
 11
253.38366959267034
 21
293.37126942848965
 31
0.0
  0
LINE
  5
9B
100
AcDbEntity
  8
0
  6
Continuous
 62
               7
100
AcDbLine
 10
253.94399796952473
 20
293.06955414864507
 30
0.0
 11
254.36544153502194
 21
293.40479334847237
 31
0.0
  0
LINE
  5
9C
100
AcDbEntity
  8
0
  6
Continuous
 62
               7
100
AcDbLine
 10
256.95157250511897
 20
284.78435678148185
 30
0.0
 11
256.32898541972526
 21
285.11959598130926
 31
0.0
  0
LINE
  5
9D
100
AcDbEntity
  8
0
  6
Continuous
 62
               7
100
AcDbLine
 10
271.73308975589146
 20
286.92003735022325
 30
0.0
 11
261.38856587550384
 21
321.40178361818494
 31
0.0
  0
LINE
  5
9E
100
AcDbEntity
  8
0
  6
Continuous
 62
               7
100
AcDbLine
 10
258.27563044853514
 20
323.07797961732206
 30
0.0
 11
258.41930439131835
 21
322.59906647471144
 31
0.0
  0
LINE
  5
9F
100
AcDbEntity
  8
0
  6
Continuous
 62
               7
100
AcDbLine
 10
276.52222118199728
 20
288.35677677805484
 30
0.0
 11
266.17769730160967
 21
322.83852304601658
 31
0.0
  0
LINE
  5
A0
100
AcDbEntity
  8
0
  6
Continuous
 62
               7
100
AcDbLine
 10
267.85389330074673
 20
325.95145847298528
 30
0.0
 11
267.99756724352983
 21
325.47254533037477
 31
0.0
  0
LINE
  5
A1
100
AcDbEntity
  8
0
  6
Continuous
 62
               7
100
AcDbLine
 10
258.27563044853514
 20
323.07797961732206
 30
0.0
 11
267.85389330074673
 21
325.95145847298528
 31
0.0
  0
LINE
  5
A2
100
AcDbEntity
  8
0
  6
Continuous
 62
               7
100
AcDbLine
 10
261.38856587550384
 20
321.40178361818494
 30
0.0
 11
266.17769730160967
 21
322.83852304601658
 31
0.0
  0
LINE
  5
A3
100
AcDbEntity
  8
0
  6
Continuous
 62
               7
100
AcDbLine
 10
258.41930439131835
 20
322.59906647471138
 30
0.0
 11
261.38856587550384
 21
321.40178361818494
 31
0.0
  0
LINE
  5
A4
100
AcDbEntity
  8
0
  6
Continuous
 62
               7
100
AcDbLine
 10
266.17769730160967
 20
322.83852304601658
 30
0.0
 11
267.99756724352983
 21
325.47254533037466
 31
0.0
  0
LINE
  5
A5
100
AcDbEntity
  8
0
  6
Continuous
 62
               7
100
AcDbLine
 10
258.41930439131835
 20
322.59906647471144
 30
0.0
 11
267.99756724352983
 21
325.47254533037454
 31
0.0
  0
LINE
  5
A6
100
AcDbEntity
  8
0
  6
Continuous
 62
               7
100
AcDbLine
 10
271.73308975589146
 20
286.92003735022325
 30
0.0
 11
274.55867729729385
 21
286.20166763630738
 31
0.0
  0
LINE
  5
A7
100
AcDbEntity
  8
0
  6
Continuous
 62
               7
100
AcDbLine
 10
276.52222118199728
 20
288.35677677805484
 30
0.0
 11
274.55867729729385
 21
286.20166763630738
 31
0.0
  0
LINE
  5
A8
100
AcDbEntity
  8
0
  6
Continuous
 62
               7
100
AcDbLine
 10
263.40000107446804
 20
314.69699962163673
 30
0.0
 11
267.61443672944114
 21
318.04939161991064
 31
0.0
  0
LINE
  5
A9
100
AcDbEntity
  8
0
  6
Continuous
 62
               7
100
AcDbLine
 10
263.97469684560065
 20
312.78134705119447
 30
0.0
 11
268.18913250057386
 21
316.13373904946843
 31
0.0
  0
LINE
  5
AA
100
AcDbEntity
  8
0
  6
Continuous
 62
               7
100
AcDbLine
 10
264.54939261673343
 20
310.86569448075215
 30
0.0
 11
268.76382827170653
 21
314.21808647902617
 31
0.0
  0
LINE
  5
AB
100
AcDbEntity
  8
0
  6
Continuous
 62
               7
100
AcDbLine
 10
265.12408838786598
 20
308.95004191030984
 30
0.0
 11
269.33852404283914
 21
312.30243390858374
 31
0.0
  0
LINE
  5
AC
100
AcDbEntity
  8
0
  6
Continuous
 62
               7
100
AcDbLine
 10
265.69878415899865
 20
307.03438933986757
 30
0.0
 11
269.91321981397186
 21
310.38678133814147
 31
0.0
  0
LINE
  5
AD
100
AcDbEntity
  8
0
  6
Continuous
 62
               7
100
AcDbLine
 10
266.27347993013126
 20
305.11873676942525
 30
0.0
 11
270.48791558510436
 21
308.47112876769916
 31
0.0
  0
LINE
  5
AE
100
AcDbEntity
  8
0
  6
Continuous
 62
               7
100
AcDbLine
 10
266.84817570126393
 20
303.20308419898294
 30
0.0
 11
271.06261135623703
 21
306.55547619725684
 31
0.0
  0
LINE
  5
AF
100
AcDbEntity
  8
0
  6
Continuous
 62
               7
100
AcDbLine
 10
267.42287147239654
 20
301.28743162854067
 30
0.0
 11
271.63730712736964
 21
304.63982362681463
 31
0.0
  0
LINE
  5
B0
100
AcDbEntity
  8
0
  6
Continuous
 62
               7
100
AcDbLine
 10
267.99756724352915
 20
299.37177905809824
 30
0.0
 11
272.21200289850236
 21
302.72417105637226
 31
0.0
  0
LINE
  5
B1
100
AcDbEntity
  8
0
  6
Continuous
 62
               7
100
AcDbLine
 10
268.57226301466176
 20
297.45612648765598
 30
0.0
 11
272.78669866963497
 21
300.80851848592994
 31
0.0
  0
LINE
  5
B2
100
AcDbEntity
  8
0
  6
Continuous
 62
               7
100
AcDbLine
 10
269.14695878579448
 20
295.54047391721366
 30
0.0
 11
273.36139444076753
 21
298.89286591548768
 31
0.0
  0
LINE
  5
B3
100
AcDbEntity
  8
0
  6
Continuous
 62
               7
100
AcDbLine
 10
269.72165455692704
 20
293.62482134677134
 30
0.0
 11
272.25031594991106
 21
295.63625654573576
 31
0.0
  0
LINE
  5
B4
100
AcDbEntity
  8
0
  6
Continuous
 62
               7
100
AcDbLine
 10
275.89963409660356
 20
288.69201597788236
 30
0.0
 11
273.51464664640298
 21
296.64197414521794
 31
0.0
  0
LINE
  5
B5
100
AcDbEntity
  8
0
  6
Continuous
 62
               7
100
AcDbLine
 10
272.25031594991106
 20
295.63625654573576
 30
0.0
 11
272.95431826954865
 21
296.94368942506264
 31
0.0
  0
LINE
  5
B6
100
AcDbEntity
  8
0
  6
Continuous
 62
               7
100
AcDbLine
 10
273.51464664640298
 20
296.64197414521794
 30
0.0
 11
272.95431826954865
 21
296.94368942506264
 31
0.0
  0
LINE
  5
B7
100
AcDbEntity
  8
0
  6
Continuous
 62
               7
100
AcDbLine
 10
273.51464664640298
 20
296.64197414521794
 30
0.0
 11
273.93609021190014
 21
296.97721334504536
 31
0.0
  0
LINE
  5
B8
100
AcDbEntity
  8
0
  6
Continuous
 62
               7
100
AcDbLine
 10
276.52222118199728
 20
288.35677677805484
 30
0.0
 11
275.89963409660356
 21
288.69201597788236
 31
0.0
  0
LINE
  5
B9
100
AcDbEntity
  8
0
  6
DASHED
 62
               6
100
AcDbLine
 10
296.18638369963037
 20
334.89652205740163
 30
0.0
 11
305.73591176328557
 21
337.86578354158638
 31
0.0
  0
LINE
  5
BA
100
AcDbEntity
  8
0
  6
Continuous
 62
               6
100
AcDbLine
 10
264.78883797873567
 20
199.77596797384996
 30
0.0
 11
308.27415141912138
 21
212.82156200596557
 31
0.0
  0
LINE
  5
BB
100
AcDbEntity
  8
0
  6
Continuous
 62
               6
100
AcDbLine
 10
306.95235117291998
 20
217.22756282663767
 30
0.0
 11
302.52719370779454
 21
231.97808771038888
 31
0.0
  0
LINE
  5
BC
100
AcDbEntity
  8
0
  6
Continuous
 62
               6
100
AcDbLine
 10
302.52719370779454
 20
231.97808771038888
 30
0.0
 11
300.32419329745863
 21
231.31718758728806
 31
0.0
  0
LINE
  5
BD
100
AcDbEntity
  8
0
  6
Continuous
 62
               6
100
AcDbLine
 10
300.32419329745863
 20
231.31718758728806
 30
0.0
 11
304.74935076258407
 21
216.56666270353685
 31
0.0
  0
LINE
  5
BE
100
AcDbEntity
  8
0
  6
Continuous
 62
               6
100
AcDbLine
 10
303.20725047534887
 20
213.70276217010007
 30
0.0
 11
264.12793785563474
 21
201.97896838418598
 31
0.0
  0
LINE
  5
BF
100
AcDbEntity
  8
0
  6
Continuous
 62
               6
100
AcDbLine
 10
261.26403732219808
 20
203.52106867142106
 30
0.0
 11
235.17284925796667
 21
290.49169555219277
 31
0.0
  0
LINE
  5
C0
100
AcDbEntity
  8
0
  6
Continuous
 62
               6
100
AcDbLine
 10
236.71494954520188
 20
293.35559608562943
 30
0.0
 11
275.79426216491566
 21
305.07938987154353
 31
0.0
  0
LINE
  5
C1
100
AcDbEntity
  8
0
  6
Continuous
 62
               6
100
AcDbLine
 10
278.65816269835233
 20
303.53728958430844
 30
0.0
 11
283.08332016347777
 21
288.78676470055723
 31
0.0
  0
LINE
  5
C2
100
AcDbEntity
  8
0
  6
Continuous
 62
               6
100
AcDbLine
 10
283.08332016347777
 20
288.78676470055723
 30
0.0
 11
285.28632057381367
 21
289.44766482365804
 31
0.0
  0
LINE
  5
C3
100
AcDbEntity
  8
0
  6
Continuous
 62
               6
100
AcDbLine
 10
285.28632057381367
 20
289.44766482365804
 30
0.0
 11
280.86116310868834
 21
304.19818970740914
 31
0.0
  0
LINE
  5
C4
100
AcDbEntity
  8
0
  6
Continuous
 62
               6
100
AcDbLine
 10
275.13336204181496
 20
307.28239028187954
 30
0.0
 11
236.05404942210095
 21
295.55859649596533
 31
0.0
  0
LINE
  5
C5
100
AcDbEntity
  8
0
  6
Continuous
 62
               6
100
AcDbLine
 10
232.96984884763077
 20
289.83079542909195
 30
0.0
 11
259.06103691186217
 21
202.86016854832025
 31
0.0
  0
LINE
  5
C6
100
AcDbEntity
  8
0
  6
DASHED
 62
               6
100
AcDbLine
 10
278.58153657726564
 20
172.59285802667728
 30
0.0
 11
316.89458798611173
 21
184.08677344933108
 31
0.0
  0
LINE
  5
C7
100
AcDbEntity
  8
0
  6
DIVIDE
 62
               6
100
AcDbLine
 10
261.81957658589533
 20
193.66503630154267
 30
0.0
 11
270.44001315288563
 21
164.93024774490806
 31
0.0
  0
LINE
  5
C8
100
AcDbEntity
  8
0
  6
DASHED
 62
               6
100
AcDbLine
 10
309.71089084695308
 20
208.03243057985986
 30
0.0
 11
316.89458798611173
 21
184.08677344933108
 31
0.0
  0
LINE
  5
C9
100
AcDbEntity
  8
0
  6
DASHED
 62
               6
100
AcDbLine
 10
271.39783943810693
 20
196.53851515720618
 30
0.0
 11
278.58153657726564
 21
172.59285802667728
 31
0.0
  0
LINE
  5
CA
100
AcDbEntity
  8
0
  6
DASHED
 62
               6
100
AcDbLine
 10
270.82314366697437
 20
198.45416772764833
 30
0.0
 11
309.13619507582047
 21
209.94808315030218
 31
0.0
  0
LINE
  5
CB
100
AcDbEntity
  8
0
  6
Continuous
 62
               2
100
AcDbLine
 10
224.69422977072367
 20
312.19603909766033
 30
0.0
 11
284.95108137398603
 21
111.33986708678466
 31
0.0
  0
LINE
  5
CC
100
AcDbEntity
  8
0
  6
Continuous
 62
               2
100
AcDbLine
 10
276.47431874977883
 20
144.81589575526374
 30
0.0
 11
286.53149474460093
 21
111.29197577252356
 31
0.0
  0
LINE
  5
CD
100
AcDbEntity
  8
0
  6
Continuous
 62
               2
100
AcDbLine
 10
283.91694227270096
 20
128.23252276868504
 30
0.0
 11
287.82456022964948
 21
112.20191074348367
 31
0.0
  0
LINE
  5
CE
100
AcDbEntity
  8
0
  6
Continuous
 62
               2
100
AcDbLine
 10
276.47431874977883
 20
144.81589575526374
 30
0.0
 11
314.78737015862498
 21
156.30981117791788
 31
0.0
  0
LINE
  5
CF
100
AcDbEntity
  8
0
  6
Continuous
 62
               3
100
AcDbLine
 10
278.19840606317695
 20
144.28909129839218
 30
0.0
 11
280.78453703327403
 21
135.66865473140183
 31
0.0
  0
LINE
  5
D0
100
AcDbEntity
  8
0
  6
Continuous
 62
               4
100
AcDbLine
 10
328.66635371290437
 20
107.63037866946496
 30
0.0
 11
359.3627528191393
 21
107.63037866946496
 31
0.0
  0
LINE
  5
D1
100
AcDbEntity
  8
0
  6
Continuous
 62
               4
100
AcDbLine
 10
302.66152776174738
 20
152.67205845885456
 30
0.0
 11
328.66635371290437
 21
107.63037866946496
 31
0.0
  0
LINE
  5
D2
100
AcDbEntity
  8
0
  6
Continuous
 62
               4
100
AcDbLine
 10
302.66152776174738
 20
152.67205845885456
 30
0.0
 11
308.44661624892626
 21
145.77765847078376
 31
0.0
  0
LINE
  5
D3
100
AcDbEntity
  8
0
  6
Continuous
 62
               4
100
AcDbLine
 10
302.66152776174738
 20
152.67205845885456
 30
0.0
 11
305.73970905167835
 21
144.21482487178133
 31
0.0
  0
LINE
  5
D4
100
AcDbEntity
  8
0
  6
Continuous
 62
               6
100
AcDbLine
 10
269.96110001027523
 20
201.32764658331183
 30
0.0
 11
271.39783943810693
 21
196.53851515720618
 31
0.0
  0
LINE
  5
D5
100
AcDbEntity
  8
0
  6
Continuous
 62
               6
100
AcDbLine
 10
308.27415141912138
 20
212.82156200596557
 30
0.0
 11
309.71089084695308
 21
208.03243057985986
 31
0.0
  0
LINE
  5
D6
100
AcDbEntity
  8
0
  6
DIVIDE
 62
               4
100
AcDbLine
 10
298.21697542429916
 20
152.38272340851097
 30
0.0
 11
276.18697086421253
 21
145.77372204048504
 31
0.0
  0
LINE
  5
D7
100
AcDbEntity
  8
0
  6
DIVIDE
 62
               4
100
AcDbLine
 10
298.21697542429916
 20
152.38272340851097
 30
0.0
 11
292.47001771297226
 21
171.53924911293393
 31
0.0
  0
LINE
  5
D8
100
AcDbEntity
  8
0
  6
DIVIDE
 62
               4
100
AcDbLine
 10
276.18697086421253
 20
145.77372204048504
 30
0.0
 11
270.44001315288563
 21
164.93024774490806
 31
0.0
  0
LINE
  5
D9
100
AcDbEntity
  8
0
  6
DIVIDE
 62
               4
100
AcDbLine
 10
271.07768421527123
 20
164.54472862177454
 30
0.0
 11
276.52221006403994
 21
146.39630912587876
 31
0.0
  0
LINE
  5
DA
100
AcDbEntity
  8
0
  6
DIVIDE
 62
               4
100
AcDbLine
 10
276.52221006403994
 20
146.39630912587876
 30
0.0
 11
297.59438833890533
 21
152.71796260833838
 31
0.0
  0
LINE
  5
DB
100
AcDbEntity
  8
0
  6
DIVIDE
 62
               4
100
AcDbLine
 10
297.59438833890533
 20
152.71796260833838
 30
0.0
 11
292.14986249013663
 21
170.86638210423416
 31
0.0
  0
LINE
  5
DC
100
AcDbEntity
  8
0
  6
DIVIDE
 62
               4
100
AcDbLine
 10
270.44001315288563
 20
164.93024774490806
 30
0.0
 11
275.37281852177466
 21
165.88807403012913
 31
0.0
  0
LINE
  5
DD
100
AcDbEntity
  8
0
  6
DIVIDE
 62
               4
100
AcDbLine
 10
271.07768421527123
 20
164.54472862177454
 30
0.0
 11
275.46812579933027
 21
165.39724155071798
 31
0.0
  0
LINE
  5
DE
100
AcDbEntity
  8
0
  6
DIVIDE
 62
               4
100
AcDbLine
 10
292.47001771297226
 20
171.53924911293393
 30
0.0
 11
287.82456022964965
 21
169.62359654249167
 31
0.0
  0
LINE
  5
DF
100
AcDbEntity
  8
0
  6
DIVIDE
 62
               4
100
AcDbLine
 10
292.14986249013663
 20
170.86638210423416
 30
0.0
 11
288.01517478476075
 21
169.16135624634705
 31
0.0
  0
LINE
  5
E0
100
AcDbEntity
  8
0
  6
DIVIDE
 62
               4
100
AcDbLine
 10
288.01517478476075
 20
169.16135624634705
 30
0.0
 11
287.82456022964965
 21
169.62359654249167
 31
0.0
  0
LINE
  5
E1
100
AcDbEntity
  8
0
  6
DIVIDE
 62
               4
100
AcDbLine
 10
275.46812579933027
 20
165.39724155071798
 30
0.0
 11
275.37281852177466
 21
165.88807403012913
 31
0.0
  0
LINE
  5
E2
100
AcDbEntity
  8
0
  6
Continuous
 62
               4
100
AcDbLine
 10
283.20956745081168
 20
296.27466805276083
 30
0.0
 11
314.48581344323367
 21
264.99842206033884
 31
0.0
  0
LINE
  5
E3
100
AcDbEntity
  8
0
  6
Continuous
 62
               4
100
AcDbLine
 10
283.20956745081168
 20
296.27466805276083
 30
0.0
 11
290.58193584941256
 21
291.11248012560145
 31
0.0
  0
LINE
  5
E4
100
AcDbEntity
  8
0
  6
Continuous
 62
               4
100
AcDbLine
 10
283.20956745081168
 20
296.27466805276083
 30
0.0
 11
288.37175537797106
 21
288.90229965415995
 31
0.0
  0
LINE
  5
E5
100
AcDbEntity
  8
0
  6
Continuous
 62
               4
100
AcDbLine
 10
314.48581344323367
 20
264.99842206033884
 30
0.0
 11
380.9784403580839
 21
264.99842206033884
 31
0.0
  0
LINE
  5
E6
100
AcDbEntity
  8
0
  6
Continuous
 62
               7
100
AcDbLine
 10
279.99687586040824
 20
164.81179376892004
 30
0.0
 11
285.31281174338517
 21
147.09200749232826
 31
0.0
  0
LINE
  5
E7
100
AcDbEntity
  8
0
  6
Continuous
 62
               7
100
AcDbLine
 10
283.49294180146478
 20
144.45798520797018
 30
0.0
 11
282.91824603033217
 21
146.37363777841233
 31
0.0
  0
LINE
  5
E8
100
AcDbEntity
  8
0
  6
Continuous
 62
               7
100
AcDbLine
 10
284.78600728651418
 20
166.24853319675168
 30
0.0
 11
290.10194316949105
 21
148.52874692015996
 31
0.0
  0
LINE
  5
E9
100
AcDbEntity
  8
0
  6
Continuous
 62
               7
100
AcDbLine
 10
293.07120465367655
 20
147.33146406363323
 30
0.0
 11
292.49650888254394
 21
149.24711663407595
 31
0.0
  0
LINE
  5
EA
100
AcDbEntity
  8
0
  6
Continuous
 62
               7
100
AcDbLine
 10
284.78600728651418
 20
166.24853319675168
 30
0.0
 11
281.96041974511166
 21
166.96690291066756
 31
0.0
  0
LINE
  5
EB
100
AcDbEntity
  8
0
  6
Continuous
 62
               7
100
AcDbLine
 10
279.99687586040824
 20
164.81179376892004
 30
0.0
 11
281.96041974511166
 21
166.96690291066756
 31
0.0
  0
LINE
  5
EC
100
AcDbEntity
  8
0
  6
Continuous
 62
               7
100
AcDbLine
 10
292.49650888254394
 20
149.24711663407595
 30
0.0
 11
282.91824603033217
 21
146.37363777841233
 31
0.0
  0
LINE
  5
ED
100
AcDbEntity
  8
0
  6
Continuous
 62
               7
100
AcDbLine
 10
284.16342020111983
 20
150.92331263321313
 30
0.0
 11
288.37785585609316
 21
154.27570463148714
 31
0.0
  0
LINE
  5
EE
100
AcDbEntity
  8
0
  6
Continuous
 62
               7
100
AcDbLine
 10
287.80316008496044
 20
156.19135720192946
 30
0.0
 11
283.58872442998717
 21
152.83896520365556
 31
0.0
  0
LINE
  5
EF
100
AcDbEntity
  8
0
  6
Continuous
 62
               7
100
AcDbLine
 10
283.01402865885467
 20
154.75461777409788
 30
0.0
 11
287.22846431382777
 21
158.10700977237184
 31
0.0
  0
LINE
  5
F0
100
AcDbEntity
  8
0
  6
Continuous
 62
               7
100
AcDbLine
 10
286.65376854269516
 20
160.02266234281404
 30
0.0
 11
282.43933288772195
 21
156.67027034454037
 31
0.0
  0
LINE
  5
F1
100
AcDbEntity
  8
0
  6
Continuous
 62
               7
100
AcDbLine
 10
286.07907277156255
 20
161.93831491325648
 30
0.0
 11
283.55041137857853
 21
159.92687971429217
 31
0.0
  0
LINE
  5
F2
100
AcDbEntity
  8
0
  6
Continuous
 62
               7
100
AcDbLine
 10
280.61946294580207
 20
164.47655456909263
 30
0.0
 11
282.28608068208666
 21
158.92116211481004
 31
0.0
  0
LINE
  5
F3
100
AcDbEntity
  8
0
  6
Continuous
 62
               7
100
AcDbLine
 10
279.99687586040824
 20
164.81179376892004
 30
0.0
 11
280.61946294580207
 21
164.47655456909263
 31
0.0
  0
LINE
  5
F4
100
AcDbEntity
  8
0
  6
Continuous
 62
               7
100
AcDbLine
 10
282.28608068208655
 20
158.92116211481004
 30
0.0
 11
282.84640905894094
 21
158.61944683496523
 31
0.0
  0
LINE
  5
F5
100
AcDbEntity
  8
0
  6
Continuous
 62
               7
100
AcDbLine
 10
283.55041137857853
 20
159.92687971429217
 30
0.0
 11
282.84640905894094
 21
158.61944683496523
 31
0.0
  0
LINE
  5
F6
100
AcDbEntity
  8
0
  6
Continuous
 62
               7
100
AcDbLine
 10
282.28608068208666
 20
158.92116211481004
 30
0.0
 11
281.86463711658928
 21
158.58592291498258
 31
0.0
  0
LINE
  5
F7
100
AcDbEntity
  8
0
  6
Continuous
 62
               7
100
AcDbLine
 10
584.32407440720965
 20
418.83215570753225
 30
0.0
 11
572.25591804252485
 21
396.41915708208796
 31
0.0
  0
LINE
  5
F8
100
AcDbEntity
  8
0
  6
Continuous
 62
               7
100
AcDbLine
 10
577.55130912870709
 20
416.80032612398156
 30
0.0
 11
565.48315276402241
 21
394.38732749853739
 31
0.0
  0
LINE
  5
F9
100
AcDbEntity
  8
0
  6
Continuous
 62
               7
100
AcDbLine
 10
597.86960496421432
 20
422.89581487463352
 30
0.0
 11
585.80144859952941
 21
400.48281624918934
 31
0.0
  0
LINE
  5
FA
100
AcDbEntity
  8
0
  6
Continuous
 62
               7
100
AcDbLine
 10
591.09683968571187
 20
420.86398529108283
 30
0.0
 11
579.02868332102707
 21
398.45098666563865
 31
0.0
  0
LINE
  5
FB
100
AcDbEntity
  8
0
  6
Continuous
 62
               7
100
AcDbLine
 10
611.41513552121899
 20
426.95947404173478
 30
0.0
 11
599.34697915653408
 21
404.54647541629049
 31
0.0
  0
LINE
  5
FC
100
AcDbEntity
  8
0
  6
Continuous
 62
               7
100
AcDbLine
 10
604.64237024271654
 20
424.92764445818409
 30
0.0
 11
592.57421387803186
 21
402.51464583273992
 31
0.0
  0
LINE
  5
FD
100
AcDbEntity
  8
0
  6
Continuous
 62
               7
100
AcDbLine
 10
624.96066607822365
 20
431.02313320883604
 30
0.0
 11
612.89250971353874
 21
408.61013458339175
 31
0.0
  0
LINE
  5
FE
100
AcDbEntity
  8
0
  6
Continuous
 62
               7
100
AcDbLine
 10
618.18790079972121
 20
428.99130362528535
 30
0.0
 11
606.11974443503652
 21
406.57830499984118
 31
0.0
  0
LINE
  5
FF
100
AcDbEntity
  8
0
  6
Continuous
 62
               7
100
AcDbLine
 10
638.50619663522832
 20
435.08679237593731
 30
0.0
 11
626.43804027054341
 21
412.67379375049302
 31
0.0
  0
LINE
  5
100
100
AcDbEntity
  8
0
  6
Continuous
 62
               7
100
AcDbLine
 10
631.73343135672587
 20
433.05496279238662
 30
0.0
 11
619.66527499204119
 21
410.64196416694233
 31
0.0
  0
LINE
  5
101
100
AcDbEntity
  8
0
  6
Continuous
 62
               7
100
AcDbLine
 10
652.05172719223299
 20
439.15045154303846
 30
0.0
 11
639.98357082754831
 21
416.73745291759428
 31
0.0
  0
LINE
  5
102
100
AcDbEntity
  8
0
  6
Continuous
 62
               7
100
AcDbLine
 10
645.27896191373054
 20
437.11862195948777
 30
0.0
 11
633.21080554904586
 21
414.70562333404371
 31
0.0
  0
LINE
  5
103
100
AcDbEntity
  8
0
  6
Continuous
 62
               7
100
AcDbLine
 10
665.59725774923766
 20
443.21411071013972
 30
0.0
 11
653.52910138455297
 21
420.80111208469555
 31
0.0
  0
LINE
  5
104
100
AcDbEntity
  8
0
  6
Continuous
 62
               7
100
AcDbLine
 10
658.82449247073521
 20
441.18228112658903
 30
0.0
 11
646.75633610605053
 21
418.76928250114486
 31
0.0
  0
LINE
  5
105
100
AcDbEntity
  8
0
  6
Continuous
 62
               7
100
AcDbLine
 10
679.14278830624232
 20
447.27776987724098
 30
0.0
 11
667.07463194155764
 21
424.8647712517967
 31
0.0
  0
LINE
  5
106
100
AcDbEntity
  8
0
  6
Continuous
 62
               7
100
AcDbLine
 10
672.37002302773988
 20
445.2459402936903
 30
0.0
 11
660.30186666305519
 21
422.83294166824612
 31
0.0
  0
LINE
  5
107
100
AcDbEntity
  8
0
  6
Continuous
 62
               7
100
AcDbLine
 10
692.68831886324699
 20
451.34142904434214
 30
0.0
 11
680.62016249856231
 21
428.92843041889796
 31
0.0
  0
LINE
  5
108
100
AcDbEntity
  8
0
  6
Continuous
 62
               7
100
AcDbLine
 10
685.91555358474454
 20
449.30959946079145
 30
0.0
 11
673.84739722005986
 21
426.89660083534739
 31
0.0
  0
LINE
  5
109
100
AcDbEntity
  8
0
  6
Continuous
 62
               7
100
AcDbLine
 10
706.23384942025166
 20
455.4050882114434
 30
0.0
 11
694.16569305556698
 21
432.99208958599922
 31
0.0
  0
LINE
  5
10A
100
AcDbEntity
  8
0
  6
Continuous
 62
               7
100
AcDbLine
 10
699.46108414174921
 20
453.37325862789271
 30
0.0
 11
687.39292777706453
 21
430.96026000244865
 31
0.0
  0
LINE
  5
10B
100
AcDbEntity
  8
0
  6
Continuous
 62
               7
100
AcDbLine
 10
719.77937997725655
 20
459.46874737854466
 30
0.0
 11
707.71122361257164
 21
437.05574875310049
 31
0.0
  0
LINE
  5
10C
100
AcDbEntity
  8
0
  6
Continuous
 62
               7
100
AcDbLine
 10
713.00661469875388
 20
457.43691779499397
 30
0.0
 11
700.9384583340692
 21
435.0239191695498
 31
0.0
  0
LINE
  5
10D
100
AcDbEntity
  8
0
  6
Continuous
 62
               7
100
AcDbLine
 10
733.32491053426122
 20
463.53240654564593
 30
0.0
 11
721.25675416957631
 21
441.11940792020175
 31
0.0
  0
LINE
  5
10E
100
AcDbEntity
  8
0
  6
Continuous
 62
               7
100
AcDbLine
 10
726.55214525575855
 20
461.50057696209524
 30
0.0
 11
714.48398889107386
 21
439.08757833665106
 31
0.0
  0
LINE
  5
10F
100
AcDbEntity
  8
0
  6
Continuous
 62
               7
100
AcDbLine
 10
746.87044109126589
 20
467.59606571274719
 30
0.0
 11
734.80228472658098
 21
445.1830670873029
 31
0.0
  0
LINE
  5
110
100
AcDbEntity
  8
0
  6
Continuous
 62
               7
100
AcDbLine
 10
740.09767581276321
 20
465.5642361291965
 30
0.0
 11
728.02951944807853
 21
443.15123750375233
 31
0.0
  0
LINE
  5
111
100
AcDbEntity
  8
0
  6
Continuous
 62
               7
100
AcDbLine
 10
753.64320636976811
 20
469.62789529629765
 30
0.0
 11
741.57505000508343
 21
447.21489667085359
 31
0.0
  0
LINE
  5
112
100
AcDbEntity
  8
0
  6
Continuous
 62
               4
100
AcDbLine
 10
180.88385435855685
 20
127.62094580804884
 30
0.0
 11
82.88002027040335
 21
127.62094580804884
 31
0.0
  0
LINE
  5
113
100
AcDbEntity
  8
0
  6
Continuous
 62
               4
100
AcDbLine
 10
248.86018694685316
 20
231.64284851056175
 30
0.0
 11
180.88385435855685
 21
127.62094580804884
 31
0.0
  0
LINE
  5
114
100
AcDbEntity
  8
0
  6
Continuous
 62
               4
100
AcDbLine
 10
248.86018694685316
 20
231.64284851056175
 30
0.0
 11
245.78200565692214
 21
223.18561492348857
 31
0.0
  0
LINE
  5
115
100
AcDbEntity
  8
0
  6
Continuous
 62
               4
100
AcDbLine
 10
248.86018694685316
 20
231.64284851056175
 30
0.0
 11
243.07509845967434
 21
224.74844852249095
 31
0.0
  0
LINE
  5
116
100
AcDbEntity
  8
0
  6
Continuous
 62
               6
100
AcDbLine
 10
676.6541406238324
 20
323.3355587673733
 30
0.0
 11
720.13945406421806
 21
336.38115279948892
 31
0.0
  0
LINE
  5
117
100
AcDbEntity
  8
0
  6
Continuous
 62
               6
100
AcDbLine
 10
718.81765381801654
 20
340.78715362016101
 30
0.0
 11
714.39249635289127
 21
355.53767850391222
 31
0.0
  0
LINE
  5
118
100
AcDbEntity
  8
0
  6
Continuous
 62
               6
100
AcDbLine
 10
714.39249635289127
 20
355.53767850391222
 30
0.0
 11
712.18949594255525
 21
354.8767783808114
 31
0.0
  0
LINE
  5
119
100
AcDbEntity
  8
0
  6
Continuous
 62
               6
100
AcDbLine
 10
712.18949594255525
 20
354.8767783808114
 30
0.0
 11
716.61465340768075
 21
340.12625349706019
 31
0.0
  0
LINE
  5
11A
100
AcDbEntity
  8
0
  6
Continuous
 62
               6
100
AcDbLine
 10
715.0725531204456
 20
337.26235296362341
 30
0.0
 11
675.9932405007313
 21
325.53855917770932
 31
0.0
  0
LINE
  5
11B
100
AcDbEntity
  8
0
  6
Continuous
 62
               6
100
AcDbLine
 10
673.12933996729464
 20
327.0806594649444
 30
0.0
 11
647.03815190306329
 21
414.05128634571611
 31
0.0
  0
LINE
  5
11C
100
AcDbEntity
  8
0
  6
Continuous
 62
               6
100
AcDbLine
 10
648.58025219029844
 20
416.91518687915277
 30
0.0
 11
687.65956481001228
 21
428.63898066506692
 31
0.0
  0
LINE
  5
11D
100
AcDbEntity
  8
0
  6
Continuous
 62
               6
100
AcDbLine
 10
690.52346534344895
 20
427.09688037783178
 30
0.0
 11
694.94862280857444
 21
412.34635549408051
 31
0.0
  0
LINE
  5
11E
100
AcDbEntity
  8
0
  6
Continuous
 62
               6
100
AcDbLine
 10
694.94862280857444
 20
412.34635549408051
 30
0.0
 11
697.15162321891023
 21
413.00725561718139
 31
0.0
  0
LINE
  5
11F
100
AcDbEntity
  8
0
  6
Continuous
 62
               6
100
AcDbLine
 10
697.15162321891023
 20
413.00725561718139
 30
0.0
 11
692.72646575378496
 21
427.75778050093254
 31
0.0
  0
LINE
  5
120
100
AcDbEntity
  8
0
  6
Continuous
 62
               6
100
AcDbLine
 10
686.99866468691164
 20
430.84198107540294
 30
0.0
 11
647.91935206719756
 21
419.11818728948867
 31
0.0
  0
LINE
  5
121
100
AcDbEntity
  8
0
  6
Continuous
 62
               6
100
AcDbLine
 10
644.8351514927275
 20
413.39038622261523
 30
0.0
 11
670.92633955695885
 21
326.41975934184359
 31
0.0
  0
LINE
  5
122
100
AcDbEntity
  8
0
  6
Continuous
 62
               4
100
AcDbLine
 10
225.86530747425408
 20
273.44773777328959
 30
0.0
 11
167.36146000482415
 21
255.89658353246108
 31
0.0
  0
LINE
  5
123
100
AcDbEntity
  8
0
  6
Continuous
 62
               4
100
AcDbLine
 10
232.10320188203576
 20
270.09895454510126
 30
0.0
 11
237.56282022377945
 21
251.90022673928829
 31
0.0
  0
LINE
  5
124
100
AcDbEntity
  8
0
  6
Continuous
 62
               4
100
AcDbLine
 10
236.70077656708048
 20
254.77370559495179
 30
0.0
 11
241.48990799318608
 21
256.21044502278346
 31
0.0
  0
LINE
  5
125
100
AcDbEntity
  8
0
  6
Continuous
 62
               2
100
AcDbLine
 10
232.43500815572696
 20
285.52750680439715
 30
0.0
 11
231.88769143683368
 21
276.03747595023162
 31
0.0
  0
LINE
  5
126
100
AcDbEntity
  8
0
  6
Continuous
 62
               4
100
AcDbLine
 10
170.32340718110672
 20
256.78516768534581
 30
0.0
 11
158.82949175845323
 21
295.09821909419207
 31
0.0
  0
LINE
  5
127
100
AcDbEntity
  8
0
  6
Continuous
 62
               2
100
AcDbLine
 10
230.66646292317657
 20
274.88808440796635
 30
0.0
 11
219.64648524760815
 21
311.62134332652778
 31
0.0
  0
LINE
  5
128
100
AcDbEntity
  8
0
  6
Continuous
 62
               4
100
AcDbLine
 10
14.142135623730949
 20
595.85786437626905
 30
0.0
 11
14.142135623730949
 21
615.85786437626905
 31
0.0
  0
LINE
  5
129
100
AcDbEntity
  8
0
  6
Continuous
 62
               4
100
AcDbLine
 10
164.14213562373095
 20
595.85786437626905
 30
0.0
 11
14.142135623730949
 21
595.85786437626905
 31
0.0
  0
LINE
  5
12A
100
AcDbEntity
  8
0
  6
Continuous
 62
               4
100
AcDbLine
 10
164.14213562373095
 20
615.85786437626905
 30
0.0
 11
164.14213562373095
 21
595.85786437626905
 31
0.0
  0
LINE
  5
12B
100
AcDbEntity
  8
0
  6
Continuous
 62
               4
100
AcDbLine
 10
164.14213562373095
 20
615.85786437626905
 30
0.0
 11
14.142135623730949
 21
615.85786437626905
 31
0.0
  0
LINE
  5
12C
100
AcDbEntity
  8
0
  6
Continuous
 62
               4
100
AcDbLine
 10
714.78679656440374
 20
21.213203435596483
 30
0.0
 11
714.78679656440374
 21
41.213203435596483
 31
0.0
  0
LINE
  5
12D
100
AcDbEntity
  8
0
  6
Continuous
 62
               4
100
AcDbLine
 10
864.78679656440374
 20
21.213203435596483
 30
0.0
 11
714.78679656440374
 21
21.213203435596483
 31
0.0
  0
LINE
  5
12E
100
AcDbEntity
  8
0
  6
Continuous
 62
               4
100
AcDbLine
 10
864.78679656440374
 20
41.213203435596483
 30
0.0
 11
864.78679656440374
 21
21.213203435596483
 31
0.0
  0
LINE
  5
12F
100
AcDbEntity
  8
0
  6
Continuous
 62
               4
100
AcDbLine
 10
864.78679656440374
 20
41.213203435596483
 30
0.0
 11
714.78679656440374
 21
41.213203435596483
 31
0.0
  0
LINE
  5
130
100
AcDbEntity
  8
0
  6
Continuous
 62
               2
100
AcDbLine
 10
197.37702411621638
 20
306.50655096344656
 30
0.0
 11
295.84156623695077
 21
336.04591359966713
 31
0.0
  0
LINE
  5
131
100
AcDbEntity
  8
0
  6
DIVIDE
 62
               6
100
AcDbLine
 10
759.56045332801693
 20
342.9872993241774
 30
0.0
 11
261.81957658589533
 21
193.6650363015427
 31
0.0
  0
LINE
  5
132
100
AcDbEntity
  8
0
  6
DIVIDE
 62
               6
100
AcDbLine
 10
759.56045332801705
 20
311.66637979744576
 30
0.0
 11
270.44001315288563
 21
164.93024774490806
 31
0.0
  0
LINE
  5
133
100
AcDbEntity
  8
0
  6
DIVIDE
 62
               6
100
AcDbLine
 10
759.56045332801705
 20
314.79847175011878
 30
0.0
 11
269.57796949618665
 21
167.80372660057157
 31
0.0
  0
LINE
  5
134
100
AcDbEntity
  8
0
  6
Continuous
 62
               3
100
AcDbLine
 10
759.56045332801693
 20
288.69770547784282
 30
0.0
 11
278.19840606317695
 21
144.28909129839218
 31
0.0
  0
LINE
  5
135
100
AcDbEntity
  8
0
  6
Continuous
 62
               3
100
AcDbLine
 10
759.56045332801693
 20
279.30142961982324
 30
0.0
 11
280.78453703327403
 21
135.66865473140183
 31
0.0
  0
LINE
  5
136
100
AcDbEntity
  8
0
  6
Continuous
 62
               7
100
AcDbLine
 10
759.56045332801693
 20
281.65049858432803
 30
0.0
 11
280.13800429074973
 21
137.82376387314935
 31
0.0
  0
LINE
  5
137
100
AcDbEntity
  8
0
  6
Continuous
 62
               7
100
AcDbLine
 10
759.56045332801705
 20
283.99956754883311
 30
0.0
 11
279.49147154822555
 21
139.97887301489698
 31
0.0
  0
LINE
  5
138
100
AcDbEntity
  8
0
  6
Continuous
 62
               7
100
AcDbLine
 10
759.56045332801693
 20
286.34863651333791
 30
0.0
 11
278.84493880570125
 21
142.13398215664466
 31
0.0
  0
LINE
  5
139
100
AcDbEntity
  8
0
  6
Continuous
 62
               3
100
AcDbLine
 10
759.56045332801705
 20
471.40306938377216
 30
0.0
 11
226.47578666123496
 21
311.47766938374457
 31
0.0
  0
LINE
  5
13A
100
AcDbEntity
  8
0
  6
Continuous
 62
               3
100
AcDbLine
 10
759.56045332801693
 20
452.61051766773335
 30
0.0
 11
231.648048601429
 21
294.23679624976376
 31
0.0
  0
LINE
  5
13B
100
AcDbEntity
  8
0
  6
Continuous
 62
               7
100
AcDbLine
 10
759.56045332801693
 20
470.07085493513995
 30
0.0
 11
748.34781528358565
 21
449.24672625440417
 31
0.0
  0
LINE
  5
13C
100
AcDbEntity
  8
0
  6
Continuous
 62
               7
100
AcDbLine
 10
759.56045332801705
 20
459.52429439095459
 30
0.0
 11
755.12058056208809
 21
451.27855583795468
 31
0.0
  0
LINE
  5
13D
100
AcDbEntity
  8
0
  6
DASHED
 62
               6
100
AcDbLine
 10
335.09349744637007
 20
347.04637842052051
 30
0.0
 11
243.64292795400442
 21
318.61139693343563
 31
0.0
  0
LINE
  5
13E
100
AcDbEntity
  8
0
  6
DASHED
 62
               6
100
AcDbLine
 10
335.09349744637007
 20
347.04637842052051
 30
0.0
 11
346.69311372289701
 21
348.58689815313289
 31
0.0
  0
LINE
  5
13F
100
AcDbEntity
  8
0
  6
DASHED
 62
               6
100
AcDbLine
 10
346.6931137228969
 20
348.58689815313289
 30
0.0
 11
759.27310544245051
 21
472.36089566899381
 31
0.0
  0
LINE
  5
140
100
AcDbEntity
  8
0
  6
Continuous
 62
               4
100
AcDbLine
 10
179.16184751400081
 20
359.56758153096695
 30
0.0
 11
203.10750464452966
 21
366.75127867012526
 31
0.0
  0
LINE
  5
141
100
AcDbEntity
  8
0
  6
Continuous
 62
               2
100
AcDbLine
 10
195.70580351260506
 20
306.16111262043728
 30
0.0
 11
220.883808561601
 21
318.41133962864984
 31
0.0
  0
LINE
  5
142
100
AcDbEntity
  8
0
  6
Continuous
 62
               2
100
AcDbLine
 10
197.68836165976111
 20
297.81253437843117
 30
0.0
 11
195.37056431277759
 21
305.53852553504356
 31
0.0
  0
LINE
  5
143
100
AcDbEntity
  8
0
  6
Continuous
 62
               2
100
AcDbLine
 10
198.24198013878382
 20
297.46182070738132
 30
0.0
 11
210.07383416315182
 21
299.24969445368168
 31
0.0
  0
LINE
  5
144
100
AcDbEntity
  8
0
  6
Continuous
 62
               2
100
AcDbLine
 10
221.03471064950864
 20
320.53997208568848
 30
0.0
 11
220.883808561601
 21
318.41133962864984
 31
0.0
  0
LINE
  5
145
100
AcDbEntity
  8
0
  6
Continuous
 62
               2
100
AcDbLine
 10
221.81345322054588
 20
320.91886522108985
 30
0.0
 11
223.58145195970761
 21
319.72386395095828
 31
0.0
  0
LINE
  5
146
100
AcDbEntity
  8
0
  6
Continuous
 62
               2
100
AcDbLine
 10
223.58145195970761
 20
319.72386395095828
 30
0.0
 11
291.66271140225047
 21
336.36434790909311
 31
0.0
  0
LINE
  5
147
100
AcDbEntity
  8
0
  6
Continuous
 62
               2
100
AcDbLine
 10
210.25312697054065
 20
298.06316418048232
 30
0.0
 11
206.29802605987598
 21
297.46552148918619
 31
0.0
  0
LINE
  5
148
100
AcDbEntity
  8
0
  6
Continuous
 62
               4
100
AcDbLine
 10
174.27693345937305
 20
375.85062837972657
 30
0.0
 11
193.50280305659604
 21
311.76439638898074
 31
0.0
  0
LINE
  5
149
100
AcDbEntity
  8
0
  6
Continuous
 62
               4
100
AcDbLine
 10
305.45821047032553
 20
450.45203752432269
 30
0.0
 11
146.48942836182056
 21
450.45203752432269
 31
0.0
  0
LINE
  5
14A
100
AcDbEntity
  8
0
  6
Continuous
 62
               4
100
AcDbLine
 10
296.7979564324811
 20
465.4520375243228
 30
0.0
 11
146.48942836182056
 21
465.4520375243228
 31
0.0
  0
LINE
  5
14B
100
AcDbEntity
  8
0
  6
Continuous
 62
               4
100
AcDbLine
 10
314.11846450816995
 20
435.45203752432269
 30
0.0
 11
146.48942836182056
 21
435.45203752432269
 31
0.0
  0
LINE
  5
14C
100
AcDbEntity
  8
0
  6
Continuous
 62
               4
100
AcDbLine
 10
296.7979564324811
 20
465.4520375243228
 30
0.0
 11
366.81293466889645
 21
344.18253792802187
 31
0.0
  0
LINE
  5
14D
100
AcDbEntity
  8
0
  6
Continuous
 62
               4
100
AcDbLine
 10
347.54770845587984
 20
424.69976892600329
 30
0.0
 11
175.13897711607206
 21
372.97714952406301
 31
0.0
  0
LINE
  5
14E
100
AcDbEntity
  8
0
  6
Continuous
 62
               2
100
AcDbLine
 10
366.7592746460686
 20
363.83031675115251
 30
0.0
 11
380.80330739159371
 21
365.40645491954558
 31
0.0
  0
LINE
  5
14F
100
AcDbEntity
  8
0
  6
Continuous
 62
               2
100
AcDbLine
 10
392.4670818900633
 20
365.45118055595304
 30
0.0
 11
408.17543296769037
 21
370.1636858792408
 31
0.0
  0
LINE
  5
150
100
AcDbEntity
  8
0
  6
Continuous
 62
               2
100
AcDbLine
 10
382.75981818813563
 20
375.34058559602641
 30
0.0
 11
392.4670818900633
 21
365.45118055595304
 31
0.0
  0
LINE
  5
151
100
AcDbEntity
  8
0
  6
Continuous
 62
               2
100
AcDbLine
 10
403.61617985003767
 20
370.04874672501433
 30
0.0
 11
407.83061550501083
 21
371.31307742150625
 31
0.0
  0
LINE
  5
152
100
AcDbEntity
  8
0
  6
Continuous
 62
               2
100
AcDbLine
 10
364.35791841347572
 20
370.40578681883335
 30
0.0
 11
391.17705439966818
 21
378.45152761469069
 31
0.0
  0
LINE
  5
153
100
AcDbEntity
  8
0
  6
Continuous
 62
               2
100
AcDbLine
 10
366.34050617246686
 20
362.05720291358978
 30
0.0
 11
364.02267921364825
 21
369.78319973343957
 31
0.0
  0
LINE
  5
154
100
AcDbEntity
  8
0
  6
Continuous
 62
               2
100
AcDbLine
 10
366.89409503965436
 20
361.70649490577728
 30
0.0
 11
378.72594906402247
 21
363.4943686520777
 31
0.0
  0
LINE
  5
155
100
AcDbEntity
  8
0
  6
Continuous
 62
               2
100
AcDbLine
 10
391.66800208809508
 20
380.52826013105425
 30
0.0
 11
391.17705439966818
 21
378.45152761469069
 31
0.0
  0
LINE
  5
156
100
AcDbEntity
  8
0
  6
Continuous
 62
               2
100
AcDbLine
 10
392.49750398350903
 20
380.77711069967847
 30
0.0
 11
394.05053325533169
 21
379.31357127138972
 31
0.0
  0
LINE
  5
157
100
AcDbEntity
  8
0
  6
Continuous
 62
               2
100
AcDbLine
 10
394.05053325533169
 20
379.31357127138972
 30
0.0
 11
463.92091652407868
 21
384.79929232902418
 31
0.0
  0
LINE
  5
158
100
AcDbEntity
  8
0
  6
Continuous
 62
               2
100
AcDbLine
 10
463.92091652407868
 20
384.79929232902418
 30
0.0
 11
468.13535217905189
 21
388.1516843272982
 31
0.0
  0
LINE
  5
159
100
AcDbEntity
  8
0
  6
Continuous
 62
               2
100
AcDbLine
 10
378.90524187141131
 20
362.30783837887839
 30
0.0
 11
374.95014096074664
 21
361.71019568758214
 31
0.0
  0
LINE
  5
15A
100
AcDbEntity
  8
0
  6
Continuous
 62
               2
100
AcDbLine
 10
365.03069205682885
 20
370.12423237717007
 30
0.0
 11
381.40809058318047
 21
372.83649589807595
 31
0.0
  0
LINE
  5
15B
100
AcDbEntity
  8
0
  6
Continuous
 62
               2
100
AcDbLine
 10
364.63347129276855
 20
369.48727722119634
 30
0.0
 11
366.22459742546226
 21
364.18352344555024
 31
0.0
  0
LINE
  5
15C
100
AcDbEntity
  8
0
  6
Continuous
 62
               2
100
AcDbLine
 10
381.91508741672334
 20
375.09963605668997
 30
0.0
 11
381.40809058318047
 21
372.83649589807595
 31
0.0
  0
LINE
  5
15D
100
AcDbEntity
  8
0
  6
Continuous
 62
               4
100
AcDbLine
 10
346.68566479918087
 20
427.57324778166674
 30
0.0
 11
361.54958811729881
 21
378.02683672127131
 31
0.0
  0
LINE
  5
15E
100
AcDbEntity
  8
0
  6
Continuous
 62
               7
100
AcDbLine
 10
405.30096653188906
 20
336.07663254862035
 30
0.0
 11
396.6805299648974
 21
364.81142110525514
 31
0.0
  0
LINE
  5
15F
100
AcDbEntity
  8
0
  6
Continuous
 62
               7
100
AcDbLine
 10
393.56759453792864
 20
366.48761710439226
 30
0.0
 11
393.71126848071191
 21
366.00870396178163
 31
0.0
  0
LINE
  5
160
100
AcDbEntity
  8
0
  6
Continuous
 62
               7
100
AcDbLine
 10
410.09009795799483
 20
337.51337197645194
 30
0.0
 11
401.46966139100317
 21
366.24816053308678
 31
0.0
  0
LINE
  5
161
100
AcDbEntity
  8
0
  6
Continuous
 62
               7
100
AcDbLine
 10
403.14585739014075
 20
369.36109596005542
 30
0.0
 11
403.2895313329239
 21
368.88218281744491
 31
0.0
  0
LINE
  5
162
100
AcDbEntity
  8
0
  6
Continuous
 62
               7
100
AcDbLine
 10
393.56759453792864
 20
366.48761710439226
 30
0.0
 11
403.14585739014075
 21
369.36109596005542
 31
0.0
  0
LINE
  5
163
100
AcDbEntity
  8
0
  6
Continuous
 62
               7
100
AcDbLine
 10
396.6805299648974
 20
364.81142110525514
 30
0.0
 11
401.46966139100317
 21
366.24816053308678
 31
0.0
  0
LINE
  5
164
100
AcDbEntity
  8
0
  6
Continuous
 62
               7
100
AcDbLine
 10
393.71126848071191
 20
366.00870396178163
 30
0.0
 11
396.6805299648974
 21
364.81142110525514
 31
0.0
  0
LINE
  5
165
100
AcDbEntity
  8
0
  6
Continuous
 62
               7
100
AcDbLine
 10
401.46966139100317
 20
366.24816053308678
 30
0.0
 11
403.28953133292401
 21
368.8821828174448
 31
0.0
  0
LINE
  5
166
100
AcDbEntity
  8
0
  6
Continuous
 62
               7
100
AcDbLine
 10
393.71126848071191
 20
366.00870396178163
 30
0.0
 11
403.28953133292401
 21
368.8821828174448
 31
0.0
  0
LINE
  5
167
100
AcDbEntity
  8
0
  6
Continuous
 62
               7
100
AcDbLine
 10
405.30096653188906
 20
336.07663254862035
 30
0.0
 11
408.1265540732914
 21
335.35826283470436
 31
0.0
  0
LINE
  5
168
100
AcDbEntity
  8
0
  6
Continuous
 62
               7
100
AcDbLine
 10
410.09009795799483
 20
337.51337197645194
 30
0.0
 11
408.1265540732914
 21
335.35826283470436
 31
0.0
  0
LINE
  5
169
100
AcDbEntity
  8
0
  6
Continuous
 62
               7
100
AcDbLine
 10
398.69196516386165
 20
358.10663710870705
 30
0.0
 11
402.90640081883504
 21
361.45902910698095
 31
0.0
  0
LINE
  5
16A
100
AcDbEntity
  8
0
  6
Continuous
 62
               7
100
AcDbLine
 10
399.26666093499426
 20
356.19098453826462
 30
0.0
 11
403.4810965899681
 21
359.54337653653863
 31
0.0
  0
LINE
  5
16B
100
AcDbEntity
  8
0
  6
Continuous
 62
               7
100
AcDbLine
 10
399.84135670612699
 20
354.27533196782235
 30
0.0
 11
404.05579236110196
 21
357.62772396609637
 31
0.0
  0
LINE
  5
16C
100
AcDbEntity
  8
0
  6
Continuous
 62
               7
100
AcDbLine
 10
400.4160524772596
 20
352.35967939738003
 30
0.0
 11
404.63048813223458
 21
355.71207139565405
 31
0.0
  0
LINE
  5
16D
100
AcDbEntity
  8
0
  6
Continuous
 62
               7
100
AcDbLine
 10
400.99074824839221
 20
350.44402682693772
 30
0.0
 11
405.2051839033673
 21
353.79641882521162
 31
0.0
  0
LINE
  5
16E
100
AcDbEntity
  8
0
  6
Continuous
 62
               7
100
AcDbLine
 10
401.56544401952482
 20
348.52837425649545
 30
0.0
 11
405.77987967449991
 21
351.88076625476936
 31
0.0
  0
LINE
  5
16F
100
AcDbEntity
  8
0
  6
Continuous
 62
               7
100
AcDbLine
 10
402.14013979065766
 20
346.61272168605313
 30
0.0
 11
406.35457544563252
 21
349.96511368432704
 31
0.0
  0
LINE
  5
170
100
AcDbEntity
  8
0
  6
Continuous
 62
               7
100
AcDbLine
 10
402.71483556179027
 20
344.69706911561082
 30
0.0
 11
406.92927121676513
 21
348.04946111388483
 31
0.0
  0
LINE
  5
171
100
AcDbEntity
  8
0
  6
Continuous
 62
               7
100
AcDbLine
 10
403.28953133292333
 20
342.78141654516855
 30
0.0
 11
405.818192725909
 21
344.79285174413326
 31
0.0
  0
LINE
  5
172
100
AcDbEntity
  8
0
  6
Continuous
 62
               7
100
AcDbLine
 10
409.46751087260105
 20
337.84861117627935
 30
0.0
 11
407.08252342240058
 21
345.79856934361516
 31
0.0
  0
LINE
  5
173
100
AcDbEntity
  8
0
  6
Continuous
 62
               7
100
AcDbLine
 10
405.81819272590866
 20
344.79285174413286
 30
0.0
 11
406.5221950455462
 21
346.10028462345974
 31
0.0
  0
LINE
  5
174
100
AcDbEntity
  8
0
  6
Continuous
 62
               7
100
AcDbLine
 10
407.08252342240058
 20
345.79856934361504
 30
0.0
 11
406.5221950455462
 21
346.10028462345974
 31
0.0
  0
LINE
  5
175
100
AcDbEntity
  8
0
  6
Continuous
 62
               7
100
AcDbLine
 10
410.09009795799483
 20
337.51337197645194
 30
0.0
 11
409.46751087260105
 21
337.84861117627935
 31
0.0
  0
LINE
  5
176
100
AcDbEntity
  8
0
  6
Continuous
 62
               7
100
AcDbLine
 10
407.08252342240047
 20
345.79856934361516
 30
0.0
 11
407.50396698789785
 21
346.13380854344246
 31
0.0
  0
LINE
  5
177
100
AcDbEntity
  8
0
  6
Continuous
 62
               4
100
AcDbLine
 10
519.95643979568763
 20
476.42238832794351
 30
0.0
 11
347.54770845587984
 21
424.69976892600329
 31
0.0
  0
LINE
  5
178
100
AcDbEntity
  8
0
  6
Continuous
 62
               2
100
AcDbLine
 10
539.16800598587656
 20
415.55293615309273
 30
0.0
 11
553.21203873140166
 21
417.1290743214858
 31
0.0
  0
LINE
  5
179
100
AcDbEntity
  8
0
  6
Continuous
 62
               2
100
AcDbLine
 10
564.87581322987126
 20
417.17379995789327
 30
0.0
 11
580.58416430749821
 21
421.88630528118102
 31
0.0
  0
LINE
  5
17A
100
AcDbEntity
  8
0
  6
Continuous
 62
               2
100
AcDbLine
 10
555.16854952794347
 20
427.06320499796664
 30
0.0
 11
564.87581322987126
 21
417.17379995789327
 31
0.0
  0
LINE
  5
17B
100
AcDbEntity
  8
0
  6
Continuous
 62
               2
100
AcDbLine
 10
576.02491118984562
 20
421.77136612695455
 30
0.0
 11
580.23934684481878
 21
423.03569682344647
 31
0.0
  0
LINE
  5
17C
100
AcDbEntity
  8
0
  6
Continuous
 62
               2
100
AcDbLine
 10
536.76664975328367
 20
422.12840622077357
 30
0.0
 11
563.58578573947602
 21
430.17414701663091
 31
0.0
  0
LINE
  5
17D
100
AcDbEntity
  8
0
  6
Continuous
 62
               2
100
AcDbLine
 10
538.7492375122747
 20
413.77982231553
 30
0.0
 11
536.43141055345609
 21
421.5058191353798
 31
0.0
  0
LINE
  5
17E
100
AcDbEntity
  8
0
  6
Continuous
 62
               2
100
AcDbLine
 10
539.3028263794622
 20
413.4291143077175
 30
0.0
 11
551.13468040383032
 21
415.21698805401792
 31
0.0
  0
LINE
  5
17F
100
AcDbEntity
  8
0
  6
Continuous
 62
               2
100
AcDbLine
 10
564.07673342790304
 20
432.25087953299447
 30
0.0
 11
563.58578573947602
 21
430.17414701663091
 31
0.0
  0
LINE
  5
180
100
AcDbEntity
  8
0
  6
Continuous
 62
               2
100
AcDbLine
 10
564.90623532331688
 20
432.4997301016187
 30
0.0
 11
566.45926459513953
 21
431.03619067332994
 31
0.0
  0
LINE
  5
181
100
AcDbEntity
  8
0
  6
Continuous
 62
               2
100
AcDbLine
 10
566.45926459513953
 20
431.03619067332994
 30
0.0
 11
636.32964786388652
 21
436.5219117309644
 31
0.0
  0
LINE
  5
182
100
AcDbEntity
  8
0
  6
Continuous
 62
               2
100
AcDbLine
 10
636.32964786388652
 20
436.5219117309644
 30
0.0
 11
640.54408351885991
 21
439.87430372923842
 31
0.0
  0
LINE
  5
183
100
AcDbEntity
  8
0
  6
Continuous
 62
               2
100
AcDbLine
 10
551.31397321121926
 20
414.03045778081861
 30
0.0
 11
547.35887230055459
 21
413.43281508952236
 31
0.0
  0
LINE
  5
184
100
AcDbEntity
  8
0
  6
Continuous
 62
               2
100
AcDbLine
 10
537.43942339663681
 20
421.8468517791103
 30
0.0
 11
553.81682192298831
 21
424.55911530001617
 31
0.0
  0
LINE
  5
185
100
AcDbEntity
  8
0
  6
Continuous
 62
               2
100
AcDbLine
 10
537.04220263257639
 20
421.20989662313656
 30
0.0
 11
538.63332876527011
 21
415.90614284749046
 31
0.0
  0
LINE
  5
186
100
AcDbEntity
  8
0
  6
Continuous
 62
               2
100
AcDbLine
 10
554.32381875653118
 20
426.8222554586302
 30
0.0
 11
553.81682192298831
 21
424.55911530001617
 31
0.0
  0
LINE
  5
187
100
AcDbEntity
  8
0
  6
Continuous
 62
               7
100
AcDbLine
 10
577.70969787169702
 20
387.79925195056057
 30
0.0
 11
569.08926130470536
 21
416.53404050719536
 31
0.0
  0
LINE
  5
188
100
AcDbEntity
  8
0
  6
Continuous
 62
               7
100
AcDbLine
 10
565.9763258777366
 20
418.21023650633248
 30
0.0
 11
566.11999982051975
 21
417.73132336372186
 31
0.0
  0
LINE
  5
189
100
AcDbEntity
  8
0
  6
Continuous
 62
               7
100
AcDbLine
 10
582.49882929780279
 20
389.23599137839216
 30
0.0
 11
573.87839273081113
 21
417.970779935027
 31
0.0
  0
LINE
  5
18A
100
AcDbEntity
  8
0
  6
Continuous
 62
               7
100
AcDbLine
 10
575.55458872994859
 20
421.08371536199564
 30
0.0
 11
575.69826267273174
 21
420.60480221938514
 31
0.0
  0
LINE
  5
18B
100
AcDbEntity
  8
0
  6
Continuous
 62
               7
100
AcDbLine
 10
565.9763258777366
 20
418.21023650633248
 30
0.0
 11
575.55458872994859
 21
421.08371536199564
 31
0.0
  0
LINE
  5
18C
100
AcDbEntity
  8
0
  6
Continuous
 62
               7
100
AcDbLine
 10
569.08926130470536
 20
416.53404050719536
 30
0.0
 11
573.87839273081113
 21
417.970779935027
 31
0.0
  0
LINE
  5
18D
100
AcDbEntity
  8
0
  6
Continuous
 62
               7
100
AcDbLine
 10
566.11999982051975
 20
417.73132336372186
 30
0.0
 11
569.08926130470536
 21
416.53404050719536
 31
0.0
  0
LINE
  5
18E
100
AcDbEntity
  8
0
  6
Continuous
 62
               7
100
AcDbLine
 10
573.87839273081113
 20
417.970779935027
 30
0.0
 11
575.69826267273197
 21
420.60480221938502
 31
0.0
  0
LINE
  5
18F
100
AcDbEntity
  8
0
  6
Continuous
 62
               7
100
AcDbLine
 10
566.11999982051975
 20
417.73132336372186
 30
0.0
 11
575.69826267273197
 21
420.60480221938502
 31
0.0
  0
LINE
  5
190
100
AcDbEntity
  8
0
  6
Continuous
 62
               7
100
AcDbLine
 10
577.70969787169702
 20
387.79925195056057
 30
0.0
 11
580.53528541309925
 21
387.08088223664458
 31
0.0
  0
LINE
  5
191
100
AcDbEntity
  8
0
  6
Continuous
 62
               7
100
AcDbLine
 10
582.49882929780279
 20
389.23599137839216
 30
0.0
 11
580.53528541309925
 21
387.08088223664458
 31
0.0
  0
LINE
  5
192
100
AcDbEntity
  8
0
  6
Continuous
 62
               7
100
AcDbLine
 10
571.1006965036695
 20
409.82925651064727
 30
0.0
 11
575.31513215864288
 21
413.18164850892117
 31
0.0
  0
LINE
  5
193
100
AcDbEntity
  8
0
  6
Continuous
 62
               7
100
AcDbLine
 10
571.67539227480211
 20
407.91360394020484
 30
0.0
 11
575.88982792977595
 21
411.26599593847885
 31
0.0
  0
LINE
  5
194
100
AcDbEntity
  8
0
  6
Continuous
 62
               7
100
AcDbLine
 10
572.25008804593494
 20
405.99795136976257
 30
0.0
 11
576.46452370090992
 21
409.35034336803659
 31
0.0
  0
LINE
  5
195
100
AcDbEntity
  8
0
  6
Continuous
 62
               7
100
AcDbLine
 10
572.82478381706755
 20
404.08229879932026
 30
0.0
 11
577.03921947204253
 21
407.43469079759427
 31
0.0
  0
LINE
  5
196
100
AcDbEntity
  8
0
  6
Continuous
 62
               7
100
AcDbLine
 10
573.39947958820017
 20
402.16664622887794
 30
0.0
 11
577.61391524317514
 21
405.51903822715184
 31
0.0
  0
LINE
  5
197
100
AcDbEntity
  8
0
  6
Continuous
 62
               7
100
AcDbLine
 10
573.97417535933278
 20
400.25099365843568
 30
0.0
 11
578.18861101430775
 21
403.60338565670958
 31
0.0
  0
LINE
  5
198
100
AcDbEntity
  8
0
  6
Continuous
 62
               7
100
AcDbLine
 10
574.54887113046561
 20
398.33534108799336
 30
0.0
 11
578.76330678544036
 21
401.68773308626726
 31
0.0
  0
LINE
  5
199
100
AcDbEntity
  8
0
  6
Continuous
 62
               7
100
AcDbLine
 10
575.12356690159822
 20
396.41968851755104
 30
0.0
 11
579.33800255657297
 21
399.77208051582505
 31
0.0
  0
LINE
  5
19A
100
AcDbEntity
  8
0
  6
Continuous
 62
               7
100
AcDbLine
 10
575.69826267273129
 20
394.50403594710878
 30
0.0
 11
578.22692406571696
 21
396.51547114607348
 31
0.0
  0
LINE
  5
19B
100
AcDbEntity
  8
0
  6
Continuous
 62
               7
100
AcDbLine
 10
581.8762422124089
 20
389.57123057821957
 30
0.0
 11
579.49125476220843
 21
397.52118874555538
 31
0.0
  0
LINE
  5
19C
100
AcDbEntity
  8
0
  6
Continuous
 62
               7
100
AcDbLine
 10
578.2269240657165
 20
396.51547114607308
 30
0.0
 11
578.93092638535404
 21
397.82290402539996
 31
0.0
  0
LINE
  5
19D
100
AcDbEntity
  8
0
  6
Continuous
 62
               7
100
AcDbLine
 10
579.49125476220843
 20
397.52118874555526
 30
0.0
 11
578.93092638535404
 21
397.82290402539996
 31
0.0
  0
LINE
  5
19E
100
AcDbEntity
  8
0
  6
Continuous
 62
               7
100
AcDbLine
 10
582.49882929780279
 20
389.23599137839216
 30
0.0
 11
581.8762422124089
 21
389.57123057821957
 31
0.0
  0
LINE
  5
19F
100
AcDbEntity
  8
0
  6
Continuous
 62
               7
100
AcDbLine
 10
579.49125476220843
 20
397.52118874555538
 30
0.0
 11
579.91269832770581
 21
397.85642794538268
 31
0.0
  0
LINE
  5
1A0
100
AcDbEntity
  8
0
  6
Continuous
 62
               4
100
AcDbLine
 10
519.09439613898871
 20
479.29586718360702
 30
0.0
 11
533.95831945710665
 21
429.74945612321153
 31
0.0
  0
LINE
  5
1A1
100
AcDbEntity
  8
0
  6
Continuous
 62
               2
100
AcDbLine
 10
468.13535217905189
 20
388.15168432729814
 30
0.0
 11
553.68149736616283
 21
413.81195362088795
 31
0.0
  0
LINE
  5
1A2
100
AcDbEntity
  8
0
  6
Continuous
 62
               2
100
AcDbLine
 10
294.46322407092418
 20
340.96407701335619
 30
0.0
 11
381.27276602635487
 21
362.08933421894784
 31
0.0
  0
LINE
  5
1A3
100
AcDbEntity
  8
0
  6
Continuous
 62
               2
100
AcDbLine
 10
291.66271140225047
 20
336.36434790909311
 30
0.0
 11
294.46322407092418
 21
340.96407701335619
 31
0.0
  0
LINE
  5
1A4
100
AcDbEntity
  8
0
  6
Continuous
 62
               2
100
AcDbLine
 10
711.57673732568458
 20
467.27555555503301
 30
0.0
 11
725.62077007120968
 21
468.85169372342608
 31
0.0
  0
LINE
  5
1A5
100
AcDbEntity
  8
0
  6
Continuous
 62
               2
100
AcDbLine
 10
737.28454456967927
 20
468.89641935983354
 30
0.0
 11
752.99289564730623
 21
473.6089246831213
 31
0.0
  0
LINE
  5
1A6
100
AcDbEntity
  8
0
  6
Continuous
 62
               2
100
AcDbLine
 10
727.57728086775148
 20
478.78582439990691
 30
0.0
 11
737.28454456967927
 21
468.89641935983354
 31
0.0
  0
LINE
  5
1A7
100
AcDbEntity
  8
0
  6
Continuous
 62
               2
100
AcDbLine
 10
748.43364252965364
 20
473.49398552889483
 30
0.0
 11
752.6480781846268
 21
474.75831622538675
 31
0.0
  0
LINE
  5
1A8
100
AcDbEntity
  8
0
  6
Continuous
 62
               2
100
AcDbLine
 10
709.17538109309169
 20
473.85102562271385
 30
0.0
 11
735.99451707928404
 21
481.89676641857119
 31
0.0
  0
LINE
  5
1A9
100
AcDbEntity
  8
0
  6
Continuous
 62
               2
100
AcDbLine
 10
711.15796885208272
 20
465.50244171747028
 30
0.0
 11
708.8401418932641
 21
473.22843853732007
 31
0.0
  0
LINE
  5
1AA
100
AcDbEntity
  8
0
  6
Continuous
 62
               2
100
AcDbLine
 10
711.71155771927022
 20
465.15173370965778
 30
0.0
 11
723.54341174363833
 21
466.9396074559582
 31
0.0
  0
LINE
  5
1AB
100
AcDbEntity
  8
0
  6
Continuous
 62
               2
100
AcDbLine
 10
736.48546476771105
 20
483.97349893493475
 30
0.0
 11
735.99451707928404
 21
481.89676641857119
 31
0.0
  0
LINE
  5
1AC
100
AcDbEntity
  8
0
  6
Continuous
 62
               2
100
AcDbLine
 10
737.31496666312489
 20
484.22234950355897
 30
0.0
 11
738.86799593494754
 21
482.75881007527022
 31
0.0
  0
LINE
  5
1AD
100
AcDbEntity
  8
0
  6
Continuous
 62
               2
100
AcDbLine
 10
723.72270455102728
 20
465.75307718275889
 30
0.0
 11
719.76760364036261
 21
465.15543449146264
 31
0.0
  0
LINE
  5
1AE
100
AcDbEntity
  8
0
  6
Continuous
 62
               2
100
AcDbLine
 10
709.84815473644483
 20
473.56947118105057
 30
0.0
 11
726.22555326279632
 21
476.28173470195645
 31
0.0
  0
LINE
  5
1AF
100
AcDbEntity
  8
0
  6
Continuous
 62
               2
100
AcDbLine
 10
709.45093397238441
 20
472.93251602507684
 30
0.0
 11
711.04206010507812
 21
467.62876224943074
 31
0.0
  0
LINE
  5
1B0
100
AcDbEntity
  8
0
  6
Continuous
 62
               2
100
AcDbLine
 10
726.7325500963392
 20
478.54487486057047
 30
0.0
 11
726.22555326279632
 21
476.28173470195645
 31
0.0
  0
LINE
  5
1B1
100
AcDbEntity
  8
0
  6
Continuous
 62
               7
100
AcDbLine
 10
750.11842921150503
 20
439.52187135250085
 30
0.0
 11
741.49799264451337
 21
468.25665990913564
 31
0.0
  0
LINE
  5
1B2
100
AcDbEntity
  8
0
  6
Continuous
 62
               7
100
AcDbLine
 10
738.38505721754461
 20
469.93285590827276
 30
0.0
 11
738.52873116032777
 21
469.45394276566213
 31
0.0
  0
LINE
  5
1B3
100
AcDbEntity
  8
0
  6
Continuous
 62
               7
100
AcDbLine
 10
754.9075606376108
 20
440.95861078033244
 30
0.0
 11
746.28712407061914
 21
469.69339933696727
 31
0.0
  0
LINE
  5
1B4
100
AcDbEntity
  8
0
  6
Continuous
 62
               7
100
AcDbLine
 10
747.96332006975661
 20
472.80633476393592
 30
0.0
 11
748.10699401253976
 21
472.32742162132541
 31
0.0
  0
LINE
  5
1B5
100
AcDbEntity
  8
0
  6
Continuous
 62
               7
100
AcDbLine
 10
738.38505721754461
 20
469.93285590827276
 30
0.0
 11
747.96332006975661
 21
472.80633476393592
 31
0.0
  0
LINE
  5
1B6
100
AcDbEntity
  8
0
  6
Continuous
 62
               7
100
AcDbLine
 10
741.49799264451337
 20
468.25665990913564
 30
0.0
 11
746.28712407061914
 21
469.69339933696727
 31
0.0
  0
LINE
  5
1B7
100
AcDbEntity
  8
0
  6
Continuous
 62
               7
100
AcDbLine
 10
738.52873116032777
 20
469.45394276566213
 30
0.0
 11
741.49799264451337
 21
468.25665990913564
 31
0.0
  0
LINE
  5
1B8
100
AcDbEntity
  8
0
  6
Continuous
 62
               7
100
AcDbLine
 10
746.28712407061914
 20
469.69339933696727
 30
0.0
 11
748.10699401253999
 21
472.3274216213253
 31
0.0
  0
LINE
  5
1B9
100
AcDbEntity
  8
0
  6
Continuous
 62
               7
100
AcDbLine
 10
738.52873116032777
 20
469.45394276566213
 30
0.0
 11
748.10699401253999
 21
472.3274216213253
 31
0.0
  0
LINE
  5
1BA
100
AcDbEntity
  8
0
  6
Continuous
 62
               7
100
AcDbLine
 10
750.11842921150503
 20
439.52187135250085
 30
0.0
 11
752.94401675290726
 21
438.80350163858486
 31
0.0
  0
LINE
  5
1BB
100
AcDbEntity
  8
0
  6
Continuous
 62
               7
100
AcDbLine
 10
754.9075606376108
 20
440.95861078033244
 30
0.0
 11
752.94401675290726
 21
438.80350163858486
 31
0.0
  0
LINE
  5
1BC
100
AcDbEntity
  8
0
  6
Continuous
 62
               7
100
AcDbLine
 10
743.50942784347751
 20
461.55187591258755
 30
0.0
 11
747.7238634984509
 21
464.90426791086145
 31
0.0
  0
LINE
  5
1BD
100
AcDbEntity
  8
0
  6
Continuous
 62
               7
100
AcDbLine
 10
744.08412361461012
 20
459.63622334214512
 30
0.0
 11
748.29855926958396
 21
462.98861534041913
 31
0.0
  0
LINE
  5
1BE
100
AcDbEntity
  8
0
  6
Continuous
 62
               7
100
AcDbLine
 10
744.65881938574296
 20
457.72057077170285
 30
0.0
 11
748.87325504071794
 21
461.07296276997687
 31
0.0
  0
LINE
  5
1BF
100
AcDbEntity
  8
0
  6
Continuous
 62
               7
100
AcDbLine
 10
745.23351515687557
 20
455.80491820126053
 30
0.0
 11
749.44795081185055
 21
459.15731019953455
 31
0.0
  0
LINE
  5
1C0
100
AcDbEntity
  8
0
  6
Continuous
 62
               7
100
AcDbLine
 10
745.80821092800818
 20
453.88926563081822
 30
0.0
 11
750.02264658298316
 21
457.24165762909212
 31
0.0
  0
LINE
  5
1C1
100
AcDbEntity
  8
0
  6
Continuous
 62
               7
100
AcDbLine
 10
746.38290669914079
 20
451.97361306037595
 30
0.0
 11
750.59734235411577
 21
455.32600505864986
 31
0.0
  0
LINE
  5
1C2
100
AcDbEntity
  8
0
  6
Continuous
 62
               7
100
AcDbLine
 10
746.95760247027363
 20
450.05796048993363
 30
0.0
 11
751.17203812524838
 21
453.41035248820754
 31
0.0
  0
LINE
  5
1C3
100
AcDbEntity
  8
0
  6
Continuous
 62
               7
100
AcDbLine
 10
747.53229824140624
 20
448.14230791949132
 30
0.0
 11
751.74673389638099
 21
451.49469991776533
 31
0.0
  0
LINE
  5
1C4
100
AcDbEntity
  8
0
  6
Continuous
 62
               7
100
AcDbLine
 10
748.1069940125393
 20
446.22665534904905
 30
0.0
 11
750.63565540552497
 21
448.23809054801376
 31
0.0
  0
LINE
  5
1C5
100
AcDbEntity
  8
0
  6
Continuous
 62
               7
100
AcDbLine
 10
754.28497355221691
 20
441.29384998015985
 30
0.0
 11
751.89998610201644
 21
449.24380814749566
 31
0.0
  0
LINE
  5
1C6
100
AcDbEntity
  8
0
  6
Continuous
 62
               7
100
AcDbLine
 10
750.63565540552452
 20
448.23809054801336
 30
0.0
 11
751.33965772516206
 21
449.54552342734024
 31
0.0
  0
LINE
  5
1C7
100
AcDbEntity
  8
0
  6
Continuous
 62
               7
100
AcDbLine
 10
751.89998610201644
 20
449.24380814749554
 30
0.0
 11
751.33965772516206
 21
449.54552342734024
 31
0.0
  0
LINE
  5
1C8
100
AcDbEntity
  8
0
  6
Continuous
 62
               7
100
AcDbLine
 10
754.9075606376108
 20
440.95861078033244
 30
0.0
 11
754.28497355221691
 21
441.29384998015985
 31
0.0
  0
LINE
  5
1C9
100
AcDbEntity
  8
0
  6
Continuous
 62
               7
100
AcDbLine
 10
751.89998610201644
 20
449.24380814749566
 30
0.0
 11
752.32142966751383
 21
449.57904734732296
 31
0.0
  0
LINE
  5
1CA
100
AcDbEntity
  8
0
  6
Continuous
 62
               2
100
AcDbLine
 10
726.08997670218378
 20
465.53541312247944
 30
0.0
 11
640.54408351885991
 21
439.87430372923848
 31
0.0
  0
LINE
  5
1CB
100
AcDbEntity
  8
0
  6
Continuous
 62
               2
100
AcDbLine
 10
759.56045332801705
 20
484.38343332685241
 30
0.0
 11
738.86799593494754
 21
482.75881007527022
 31
0.0
  0
LINE
  5
1CC
100
AcDbEntity
  8
0
  6
Continuous
 62
               4
100
AcDbLine
 10
691.50312747879661
 20
531.01848658554684
 30
0.0
 11
706.36705079691455
 21
481.47207552515141
 31
0.0
  0
LINE
  5
1CD
100
AcDbEntity
  8
0
  6
Continuous
 62
               4
100
AcDbLine
 10
519.95643979568763
 20
476.42238832794351
 30
0.0
 11
741.96774899936077
 21
543.02578108904254
 31
0.0
  0
LINE
  5
1CE
100
AcDbEntity
  8
0
  6
Continuous
 62
               4
100
AcDbLine
 10
741.96774899936042
 20
543.02578108904243
 30
0.0
 11
733.92735316400342
 21
538.98201615883465
 31
0.0
  0
LINE
  5
1CF
100
AcDbEntity
  8
0
  6
Continuous
 62
               4
100
AcDbLine
 10
741.96774899936042
 20
543.02578108904243
 30
0.0
 11
733.02919930367341
 21
541.9758623599372
 31
0.0
  0
CIRCLE
  5
1D0
100
AcDbEntity
  8
0
  6
Continuous
 62
               4
100
AcDbCircle
 10
179.16184751400073
 20
359.56758153096683
 30
0.0
 40
1.5
  0
CIRCLE
  5
1D1
100
AcDbEntity
  8
0
  6
Continuous
 62
               4
100
AcDbCircle
 10
175.13897711607206
 20
372.97714952406295
 30
0.0
 40
1.5
  0
CIRCLE
  5
1D2
100
AcDbEntity
  8
0
  6
Continuous
 62
               4
100
AcDbCircle
 10
509.21068681909725
 20
377.50558771506053
 30
0.0
 40
1.5
  0
CIRCLE
  5
1D3
100
AcDbEntity
  8
0
  6
Continuous
 62
               4
100
AcDbCircle
 10
504.0384248789033
 20
394.74646084904123
 30
0.0
 40
1.5
  0
CIRCLE
  5
1D4
100
AcDbEntity
  8
0
  6
Continuous
 62
               4
100
AcDbCircle
 10
158.82949175845323
 20
295.09821909419207
 30
0.0
 40
1.5
  0
CIRCLE
  5
1D5
100
AcDbEntity
  8
0
  6
Continuous
 62
               4
100
AcDbCircle
 10
236.70077656708048
 20
254.77370559495179
 30
0.0
 40
1.5
  0
CIRCLE
  5
1D6
100
AcDbEntity
  8
0
  6
Continuous
 62
               4
100
AcDbCircle
 10
241.48990799318608
 20
256.21044502278346
 30
0.0
 40
1.5
  0
CIRCLE
  5
1D7
100
AcDbEntity
  8
0
  6
Continuous
 62
               4
100
AcDbCircle
 10
170.32340718110675
 20
256.78516768534587
 30
0.0
 40
1.5
  0
CIRCLE
  5
1D8
100
AcDbEntity
  8
0
  6
Continuous
 62
               4
100
AcDbCircle
 10
203.10750464452966
 20
366.75127867012526
 30
0.0
 40
1.5
  0
CIRCLE
  5
1D9
100
AcDbEntity
  8
0
  6
Continuous
 62
               4
100
AcDbCircle
 10
175.13897711607208
 20
372.97714952406307
 30
0.0
 40
1.5
  0
CIRCLE
  5
1DA
100
AcDbEntity
  8
0
  6
Continuous
 62
               4
100
AcDbCircle
 10
366.81293466889645
 20
344.18253792802187
 30
0.0
 40
1.5
  0
CIRCLE
  5
1DB
100
AcDbEntity
  8
0
  6
Continuous
 62
               4
100
AcDbCircle
 10
360.90444436908376
 20
354.41634332332524
 30
0.0
 40
1.5
  0
CIRCLE
  5
1DC
100
AcDbEntity
  8
0
  6
Continuous
 62
               4
100
AcDbCircle
 10
347.54770845587984
 20
424.69976892600329
 30
0.0
 40
1.5
  0
CIRCLE
  5
1DD
100
AcDbEntity
  8
0
  6
Continuous
 62
               4
100
AcDbCircle
 10
519.95643979568786
 20
476.42238832794351
 30
0.0
 40
1.5
  0
CIRCLE
  5
1DE
100
AcDbEntity
  8
0
  6
Continuous
 62
               4
100
AcDbCircle
 10
359.52937104526541
 20
356.79804018431145
 30
0.0
 40
1.5
  0
CIRCLE
  5
1DF
100
AcDbEntity
  8
0
  6
Continuous
 62
               4
100
AcDbCircle
 10
692.36517113549576
 20
528.14500772988345
 30
0.0
 40
1.5
  0
ARC
  5
1E0
100
AcDbEntity
  8
0
  6
Continuous
 62
               7
100
AcDbCircle
 10
224.43405912615776
 20
281.95514620801748
 30
0.0
 40
30.0
100
AcDbArc
 50
1.5620294067002536
 51
19.691546246868189
  0
ARC
  5
1E1
100
AcDbEntity
  8
0
  6
Continuous
 62
               7
100
AcDbCircle
 10
244.00470780303596
 20
285.52756620459047
 30
0.0
 40
30.0
100
AcDbArc
 50
1.5620294067002536
 51
19.691546246868189
  0
ARC
  5
1E2
100
AcDbEntity
  8
0
  6
Continuous
 62
               6
100
AcDbCircle
 10
263.46703773253404
 20
204.18196879452188
 30
0.0
 40
2.2999999523162842
100
AcDbArc
 50
196.69924423399354
 51
286.69924423399368
  0
ARC
  5
1E3
100
AcDbEntity
  8
0
  6
Continuous
 62
               6
100
AcDbCircle
 10
263.46703773253404
 20
204.18196879452188
 30
0.0
 40
4.5999999046325684
100
AcDbArc
 50
196.69924423399354
 51
286.69924423399368
  0
ARC
  5
1E4
100
AcDbEntity
  8
0
  6
Continuous
 62
               6
100
AcDbCircle
 10
302.54635035224817
 20
215.90576258043598
 30
0.0
 40
2.2999999523162842
100
AcDbArc
 50
286.69924423399368
 51
16.699244233993603
  0
ARC
  5
1E5
100
AcDbEntity
  8
0
  6
Continuous
 62
               6
100
AcDbCircle
 10
302.54635035224817
 20
215.90576258043598
 30
0.0
 40
4.5999999046325684
100
AcDbArc
 50
286.69924423399368
 51
16.699244233993603
  0
ARC
  5
1E6
100
AcDbEntity
  8
0
  6
Continuous
 62
               6
100
AcDbCircle
 10
276.45516228801648
 20
302.87638946120768
 30
0.0
 40
4.5999999046325684
100
AcDbArc
 50
16.699244233993618
 51
106.6992442339936
  0
ARC
  5
1E7
100
AcDbEntity
  8
0
  6
Continuous
 62
               6
100
AcDbCircle
 10
276.45516228801648
 20
302.87638946120768
 30
0.0
 40
2.2999999523162842
100
AcDbArc
 50
16.699244233993618
 51
106.6992442339936
  0
ARC
  5
1E8
100
AcDbEntity
  8
0
  6
Continuous
 62
               6
100
AcDbCircle
 10
237.37584966830258
 20
291.15259567529347
 30
0.0
 40
2.2999999523162842
100
AcDbArc
 50
106.6992442339936
 51
196.69924423399354
  0
ARC
  5
1E9
100
AcDbEntity
  8
0
  6
Continuous
 62
               6
100
AcDbCircle
 10
237.37584966830258
 20
291.15259567529347
 30
0.0
 40
4.5999999046325684
100
AcDbArc
 50
106.6992442339936
 51
196.69924423399354
  0
ARC
  5
1EA
100
AcDbEntity
  8
0
  6
Continuous
 62
               2
100
AcDbCircle
 10
286.38782080181778
 20
111.77088891513415
 30
0.0
 40
1.500000000000004
100
AcDbArc
 50
196.69924423399337
 51
16.699244233993554
  0
ARC
  5
1EB
100
AcDbEntity
  8
0
  6
Continuous
 62
               7
100
AcDbCircle
 10
284.83389860077483
 20
157.38864005845608
 30
0.0
 40
13.0
100
AcDbArc
 50
264.07937928595436
 51
309.31910918203499
  0
ARC
  5
1EC
100
AcDbEntity
  8
0
  6
Continuous
 62
               7
100
AcDbCircle
 10
302.51788382616138
 20
166.26998533773838
 30
0.0
 40
20.0
100
AcDbArc
 50
178.41487154792969
 51
198.49097529111998
  0
ARC
  5
1ED
100
AcDbEntity
  8
0
  6
Continuous
 62
               6
100
AcDbCircle
 10
675.33234037763066
 20
327.74155958804522
 30
0.0
 40
2.2999999523162842
100
AcDbArc
 50
196.69924423399354
 51
286.69924423399368
  0
ARC
  5
1EE
100
AcDbEntity
  8
0
  6
Continuous
 62
               6
100
AcDbCircle
 10
675.33234037763066
 20
327.74155958804522
 30
0.0
 40
4.5999999046325684
100
AcDbArc
 50
196.69924423399354
 51
286.69924423399368
  0
ARC
  5
1EF
100
AcDbEntity
  8
0
  6
Continuous
 62
               6
100
AcDbCircle
 10
714.41165299734473
 20
339.46535337395932
 30
0.0
 40
2.2999999523162842
100
AcDbArc
 50
286.69924423399368
 51
16.699244233993603
  0
ARC
  5
1F0
100
AcDbEntity
  8
0
  6
Continuous
 62
               6
100
AcDbCircle
 10
714.41165299734473
 20
339.46535337395932
 30
0.0
 40
4.5999999046325684
100
AcDbArc
 50
286.69924423399368
 51
16.699244233993603
  0
ARC
  5
1F1
100
AcDbEntity
  8
0
  6
Continuous
 62
               6
100
AcDbCircle
 10
688.32046493311316
 20
426.43598025473102
 30
0.0
 40
4.5999999046325684
100
AcDbArc
 50
16.699244233993618
 51
106.6992442339936
  0
ARC
  5
1F2
100
AcDbEntity
  8
0
  6
Continuous
 62
               6
100
AcDbCircle
 10
688.32046493311316
 20
426.43598025473102
 30
0.0
 40
2.2999999523162842
100
AcDbArc
 50
16.699244233993618
 51
106.6992442339936
  0
ARC
  5
1F3
100
AcDbEntity
  8
0
  6
Continuous
 62
               6
100
AcDbCircle
 10
649.24115231339931
 20
414.71218646881675
 30
0.0
 40
2.2999999523162842
100
AcDbArc
 50
106.6992442339936
 51
196.69924423399354
  0
ARC
  5
1F4
100
AcDbEntity
  8
0
  6
Continuous
 62
               6
100
AcDbCircle
 10
649.24115231339931
 20
414.71218646881675
 30
0.0
 40
4.5999999046325684
100
AcDbArc
 50
106.6992442339936
 51
196.69924423399354
  0
ARC
  5
1F5
100
AcDbEntity
  8
0
  6
Continuous
 62
               2
100
AcDbCircle
 10
231.16932172291774
 20
275.82196503605689
 30
0.0
 40
0.750000000000006
100
AcDbArc
 50
196.6992442339938
 51
16.699244233993603
  0
ARC
  5
1F6
100
AcDbEntity
  8
0
  6
Continuous
 62
               2
100
AcDbCircle
 10
197.5925350303911
 20
305.78818124953079
 30
0.0
 40
0.7499999999999371
100
AcDbArc
 50
106.69924423399364
 51
286.69924423399272
  0
ARC
  5
1F7
100
AcDbEntity
  8
0
  6
Continuous
 62
               2
100
AcDbCircle
 10
210.16348056684629
 20
298.65642931708203
 30
0.0
 40
0.599999999999997
100
AcDbArc
 50
278.59277574093392
 51
98.592775740933902
  0
ARC
  5
1F8
100
AcDbEntity
  8
0
  6
Continuous
 62
               2
100
AcDbCircle
 10
221.5334589618864
 20
320.5046150368803
 30
0.0
 40
0.5
100
AcDbArc
 50
55.94499635753909
 51
175.9449963575392
  0
ARC
  5
1F9
100
AcDbEntity
  8
0
  6
Continuous
 62
               2
100
AcDbCircle
 10
195.84947745538821
 20
305.68219947782666
 30
0.0
 40
0.5
100
AcDbArc
 50
106.69924423399301
 51
196.69924423399308
  0
ARC
  5
1FA
100
AcDbEntity
  8
0
  6
Continuous
 62
               2
100
AcDbCircle
 10
198.16727480237174
 20
297.95620832121438
 30
0.0
 40
0.5
100
AcDbArc
 50
196.69924423399308
 51
278.59277574093375
  0
ARC
  5
1FB
100
AcDbEntity
  8
0
  6
Continuous
 62
               2
100
AcDbCircle
 10
380.78595134235792
 20
363.71221795005289
 30
0.0
 40
1.6943258663081291
100
AcDbArc
 50
286.69761062788427
 51
89.413072902886626
  0
ARC
  5
1FC
100
AcDbEntity
  8
0
  6
Continuous
 62
               2
100
AcDbCircle
 10
408.00302423635065
 20
370.73838165037353
 30
0.0
 40
0.600000000000001
100
AcDbArc
 50
286.69924423399306
 51
106.699244233993
  0
ARC
  5
1FD
100
AcDbEntity
  8
0
  6
Continuous
 62
               2
100
AcDbCircle
 10
378.81559546771695
 20
362.9011035154781
 30
0.0
 40
0.599999999999997
100
AcDbArc
 50
278.59277574093392
 51
98.592775740933902
  0
ARC
  5
1FE
100
AcDbEntity
  8
0
  6
Continuous
 62
               2
100
AcDbCircle
 10
392.15459000719369
 20
380.41322884406111
 30
0.0
 40
0.5
100
AcDbArc
 50
46.699244233992999
 51
166.69924423399314
  0
ARC
  5
1FF
100
AcDbEntity
  8
0
  6
Continuous
 62
               2
100
AcDbCircle
 10
364.50159235625887
 20
369.92687367622273
 30
0.0
 40
0.5
100
AcDbArc
 50
106.69924423399301
 51
196.69924423399308
  0
ARC
  5
200
100
AcDbEntity
  8
0
  6
Continuous
 62
               2
100
AcDbCircle
 10
366.81938970324239
 20
362.20088251961033
 30
0.0
 40
0.5
100
AcDbArc
 50
196.69924423399308
 51
278.59277574093375
  0
ARC
  5
201
100
AcDbEntity
  8
0
  6
Continuous
 62
               2
100
AcDbCircle
 10
382.40299410603535
 20
374.99033343767007
 30
0.0
 40
0.5
100
AcDbArc
 50
44.46747941749031
 51
167.37287487982056
  0
ARC
  5
202
100
AcDbEntity
  8
0
  6
Continuous
 62
               2
100
AcDbCircle
 10
366.70351056807289
 20
364.32719738833345
 30
0.0
 40
0.5
100
AcDbArc
 50
196.69924423399306
 51
276.40341456412045
  0
ARC
  5
203
100
AcDbEntity
  8
0
  6
Continuous
 62
               2
100
AcDbCircle
 10
365.11238443537917
 20
369.63095116397949
 30
0.0
 40
0.5
100
AcDbArc
 50
99.403414564120226
 51
196.69924423399308
  0
ARC
  5
204
100
AcDbEntity
  8
0
  6
Continuous
 62
               7
100
AcDbCircle
 10
377.57258457903157
 20
334.68416140298751
 30
0.0
 40
30.0
100
AcDbArc
 50
1.5620294067002536
 51
19.691546246868189
  0
ARC
  5
205
100
AcDbEntity
  8
0
  6
Continuous
 62
               2
100
AcDbCircle
 10
553.19468268216588
 20
415.43483735199311
 30
0.0
 40
1.6943258663081291
100
AcDbArc
 50
286.69761062788427
 51
89.413072902886626
  0
ARC
  5
206
100
AcDbEntity
  8
0
  6
Continuous
 62
               2
100
AcDbCircle
 10
580.41175557615861
 20
422.46100105231375
 30
0.0
 40
0.600000000000001
100
AcDbArc
 50
286.69924423399306
 51
106.699244233993
  0
ARC
  5
207
100
AcDbEntity
  8
0
  6
Continuous
 62
               2
100
AcDbCircle
 10
551.2243268075249
 20
414.62372291741832
 30
0.0
 40
0.599999999999997
100
AcDbArc
 50
278.59277574093392
 51
98.592775740933902
  0
ARC
  5
208
100
AcDbEntity
  8
0
  6
Continuous
 62
               2
100
AcDbCircle
 10
564.56332134700165
 20
432.13584824600133
 30
0.0
 40
0.5
100
AcDbArc
 50
46.699244233992999
 51
166.69924423399314
  0
ARC
  5
209
100
AcDbEntity
  8
0
  6
Continuous
 62
               2
100
AcDbCircle
 10
536.91032369606683
 20
421.64949307816295
 30
0.0
 40
0.5
100
AcDbArc
 50
106.69924423399301
 51
196.69924423399308
  0
ARC
  5
20A
100
AcDbEntity
  8
0
  6
Continuous
 62
               2
100
AcDbCircle
 10
539.22812104305035
 20
413.92350192155055
 30
0.0
 40
0.5
100
AcDbArc
 50
196.69924423399308
 51
278.59277574093375
  0
ARC
  5
20B
100
AcDbEntity
  8
0
  6
Continuous
 62
               2
100
AcDbCircle
 10
554.81172544584319
 20
426.7129528396103
 30
0.0
 40
0.5
100
AcDbArc
 50
44.46747941749031
 51
167.37287487982056
  0
ARC
  5
20C
100
AcDbEntity
  8
0
  6
Continuous
 62
               2
100
AcDbCircle
 10
539.11224190788084
 20
416.04981679027367
 30
0.0
 40
0.5
100
AcDbArc
 50
196.69924423399306
 51
276.40341456412045
  0
ARC
  5
20D
100
AcDbEntity
  8
0
  6
Continuous
 62
               2
100
AcDbCircle
 10
537.52111577518713
 20
421.35357056591971
 30
0.0
 40
0.5
100
AcDbArc
 50
99.403414564120226
 51
196.69924423399308
  0
ARC
  5
20E
100
AcDbEntity
  8
0
  6
Continuous
 62
               7
100
AcDbCircle
 10
549.98131591883953
 20
386.40678080492773
 30
0.0
 40
30.0
100
AcDbArc
 50
1.5620294067002536
 51
19.691546246868189
  0
ARC
  5
20F
100
AcDbEntity
  8
0
  6
Continuous
 62
               2
100
AcDbCircle
 10
725.60341402197389
 20
467.15745675393339
 30
0.0
 40
1.6943258663081291
100
AcDbArc
 50
286.69761062788427
 51
89.413072902886626
  0
ARC
  5
210
100
AcDbEntity
  8
0
  6
Continuous
 62
               2
100
AcDbCircle
 10
752.82048691596663
 20
474.18362045425403
 30
0.0
 40
0.600000000000001
100
AcDbArc
 50
286.69924423399306
 51
106.699244233993
  0
ARC
  5
211
100
AcDbEntity
  8
0
  6
Continuous
 62
               2
100
AcDbCircle
 10
723.63305814733292
 20
466.3463423193586
 30
0.0
 40
0.599999999999997
100
AcDbArc
 50
278.59277574093392
 51
98.592775740933902
  0
ARC
  5
212
100
AcDbEntity
  8
0
  6
Continuous
 62
               2
100
AcDbCircle
 10
736.97205268680966
 20
483.85846764794161
 30
0.0
 40
0.5
100
AcDbArc
 50
46.699244233992999
 51
166.69924423399314
  0
ARC
  5
213
100
AcDbEntity
  8
0
  6
Continuous
 62
               2
100
AcDbCircle
 10
709.31905503587484
 20
473.37211248010323
 30
0.0
 40
0.5
100
AcDbArc
 50
106.69924423399301
 51
196.69924423399308
  0
ARC
  5
214
100
AcDbEntity
  8
0
  6
Continuous
 62
               2
100
AcDbCircle
 10
711.63685238285836
 20
465.64612132349083
 30
0.0
 40
0.5
100
AcDbArc
 50
196.69924423399308
 51
278.59277574093375
  0
ARC
  5
215
100
AcDbEntity
  8
0
  6
Continuous
 62
               2
100
AcDbCircle
 10
727.22045678565121
 20
478.43557224155057
 30
0.0
 40
0.5
100
AcDbArc
 50
44.46747941749031
 51
167.37287487982056
  0
ARC
  5
216
100
AcDbEntity
  8
0
  6
Continuous
 62
               2
100
AcDbCircle
 10
711.52097324768886
 20
467.77243619221395
 30
0.0
 40
0.5
100
AcDbArc
 50
196.69924423399306
 51
276.40341456412045
  0
ARC
  5
217
100
AcDbEntity
  8
0
  6
Continuous
 62
               2
100
AcDbCircle
 10
709.92984711499514
 20
473.07618996785999
 30
0.0
 40
0.5
100
AcDbArc
 50
99.403414564120226
 51
196.69924423399308
  0
ARC
  5
218
100
AcDbEntity
  8
0
  6
Continuous
 62
               7
100
AcDbCircle
 10
722.39004725864754
 20
438.12940020686801
 30
0.0
 40
30.0
100
AcDbArc
 50
1.5620294067002536
 51
19.691546246868189
  0
TEXT
  5
219
100
AcDbEntity
  8
0
 62
               7
100
AcDbText
 10
80.727498191585767
 20
319.11807609451978
 30
0.0
 40
8.9999997615814333
  1
軒先唐草：屋根同材
 41
0.7695
  7
FontTableH_0
 72
               5
 11
161.72749604581867
 21
319.11807609451978
 31
0.0
100
AcDbText
  0
TEXT
  5
21A
100
AcDbEntity
  8
0
 62
               7
100
AcDbText
 10
186.10593141912483
 20
363.21738029373853
 30
0.0
 40
9.600000381469739
  1
25
 50
16.699255860263833
 41
0.7695
  7
FontTableH_0
 72
               5
 11
195.30106356287567
 21
365.97592197063585
 31
0.0
100
AcDbText
  0
TEXT
  5
21B
100
AcDbEntity
  8
0
 62
               7
100
AcDbText
 10
506.6830493390467
 20
391.1553380574104
 30
0.0
 40
9.600000381469739
  1
18
 50
286.6992667887929
 41
0.7695
  7
FontTableH_0
 72
               5
 11
509.44159276981259
 21
381.96020643982069
 31
0.0
100
AcDbText
  0
TEXT
  5
21C
100
AcDbEntity
  8
0
 62
               7
100
AcDbText
 10
339.03305544256233
 20
109.13432670487134
 30
0.0
 40
8.9999997615814333
  1
力板
 41
0.7695
  7
FontTableH_0
 72
               5
 11
357.03305496572517
 21
109.13432670487134
 31
0.0
100
AcDbText
  0
TEXT
  5
21D
100
AcDbEntity
  8
0
 62
               7
100
AcDbText
 10
320.38123049139045
 20
266.50125480545728
 30
0.0
 40
9.600000381469739
  1
母屋（別途）
 41
0.7695
  7
FontTableH_0
 72
               5
 11
377.98123278020887
 21
266.50125480545728
 31
0.0
100
AcDbText
  0
TEXT
  5
21E
100
AcDbEntity
  8
0
 62
               7
100
AcDbText
 10
85.882252830257642
 20
129.1251866902229
 30
0.0
 40
8.9999997615814333
  1
軒先役物：屋根同材
 41
0.7695
  7
FontTableH_0
 72
               5
 11
166.88225068449054
 21
129.1251866902229
 31
0.0
100
AcDbText
  0
TEXT
  5
21F
100
AcDbEntity
  8
0
 62
               7
100
AcDbText
 10
236.36594983657579
 20
256.23969032150671
 30
0.0
 40
9.600000381469739
  1
5
 50
16.699255860263833
 41
0.7695
  7
FontTableH_0
 72
               5
 11
240.9635159084512
 21
257.61896115995535
 31
0.0
100
AcDbText
  0
TEXT
  5
220
100
AcDbEntity
  8
0
 62
               7
100
AcDbText
 10
164.72107994083598
 20
280.68179170828404
 30
0.0
 40
9.600000381469739
  1
40
 50
286.6992667887929
 41
0.7695
  7
FontTableH_0
 72
               5
 11
167.47962337160186
 21
271.48666009069433
 31
0.0
100
AcDbText
  0
TEXT
  5
221
100
AcDbEntity
  8
0
 62
               7
100
AcDbText
 10
733.53679805451975
 20
26.713203554805766
 30
0.0
 40
8.9999997615814333
  1
軒先詳細図（1） 【S=1/3】
 41
0.7695
  7
FontTableH_0
 72
               5
 11
846.03679507428762
 21
26.713203554805766
 31
0.0
100
AcDbText
  0
TEXT
  5
222
100
AcDbEntity
  8
0
 62
               7
100
AcDbText
 10
149.48905583567222
 20
451.9513101289366
 30
0.0
 40
8.9999997615814333
  1
アスファルトルーフィング 22Kg
 41
0.7695
  7
FontTableH_0
 72
               5
 11
260.79787367108753
 21
451.9513101289366
 31
0.0
100
AcDbText
  0
TEXT
  5
223
100
AcDbEntity
  8
0
 62
               7
100
AcDbText
 10
149.48905583567222
 20
436.9513101289366
 30
0.0
 40
8.9999997615814333
  1
硬質木片セメント板 18mm
 41
0.7695
  7
FontTableH_0
 72
               5
 11
234.50691337021703
 21
436.9513101289366
 31
0.0
100
AcDbText
  0
TEXT
  5
224
100
AcDbEntity
  8
0
 62
               7
100
AcDbText
 10
254.7351667143588
 20
398.42256167987398
 30
0.0
 40
9.600000381469739
  1
180
 50
16.699255860263833
 41
0.7695
  7
FontTableH_0
 72
               5
 11
268.52786492998501
 21
402.56037419521994
 31
0.0
100
AcDbText
  0
TEXT
  5
225
100
AcDbEntity
  8
0
 62
               7
100
AcDbText
 10
149.48905583567222
 20
466.9513101289366
 30
0.0
 40
8.9999997615814333
  1
ハーパーズルーフ 180：各種金属板
 41
0.7695
  7
FontTableH_0
 72
               5
 11
277.48905339850467
 21
466.9513101289366
 31
0.0
100
AcDbText
  0
TEXT
  5
226
100
AcDbEntity
  8
0
 62
               7
100
AcDbText
 10
424.5549280729162
 20
449.36848951481289
 30
0.0
 40
9.6000003814696271
  1
180
 50
16.699255860263545
 41
0.7695
  7
FontTableH_0
 72
               5
 11
438.34762628854241
 21
453.50630203015879
 31
0.0
100
AcDbText
  0
TEXT
  5
227
100
AcDbEntity
  8
0
 62
               7
100
AcDbText
 10
704.30302619830968
 20
533.29144286661995
 30
0.0
 40
9.6000003814695791
  1
@180
 50
16.699255860263776
 41
0.7695
  7
FontTableH_0
 72
               5
 11
722.69329048581142
 21
538.80852622041459
 31
0.0
100
AcDbText
  0
TEXT
  5
228
100
AcDbEntity
  8
0
 62
               7
100
AcDbText
 10
596.96365941272416
 20
501.09110891675277
 30
0.0
 40
9.6000003814695791
  1
180
 50
16.699255860263374
 41
0.7695
  7
FontTableH_0
 72
               5
 11
610.75635762835054
 21
505.22892143209867
 31
0.0
100
AcDbText
  0
TEXT
  5
229
100
AcDbEntity
  8
0
 62
               7
100
AcDbText
 10
46.392136756219159
 20
601.35786449547834
 30
0.0
 40
8.9999997615814333
  1
ハーパーズルーフ180
 41
0.7695
  7
FontTableH_0
 72
               5
 11
131.89213449124279
 21
601.35786449547834
 31
0.0
100
AcDbText
  0
ENDSEC
  0
SECTION
  2
OBJECTS
  0
DICTIONARY
  5
19
100
AcDbDictionary
  3
ACAD_GROUP
350
1A
  3
ACAD_MLINESTYLE
350
1B
  3
DWGPROPS
350
22A
  0
DICTIONARY
  5
1A
102
{ACAD_REACTORS
330
19
102
}
100
AcDbDictionary
  0
DICTIONARY
  5
1B
102
{ACAD_REACTORS
330
19
102
}
100
AcDbDictionary
  3
STANDARD
350
1C
  0
MLINESTYLE
  5
1C
102
{ACAD_REACTORS
330
1B
102
}
100
AcDbMlineStyle
  2
Standard
 70
               0
  3

 62
               0
 51
90.0
 52
90.0
 71
               2
 49
0.5
 62
             256
  6
ByLayer
 49
-0.5
 62
             256
  6
ByLayer
  0
XRECORD
  5
22A
100
AcDbXrecord
  1
DWGPROPS COOKIE
  2

  3

  4

  6

  7

  0
ENDSEC
  0
EOF
