  0
SECTION
  2
HEADER
  9
$ACADVER
  1
AC1014
  9
$ACADMAINTVER
 70
               0
  9
$DWGCODEPAGE
  3
ANSI_932
  9
$INSBASE
 10
0.0
 20
0.0
 30
0.0
  9
$EXTMIN
 10
0.0
 20
0.0
 30
0.0
  9
$EXTMAX
 10
891.00000000000091
 20
630.00000000000068
 30
0.0
  9
$LIMMIN
 10
0.0
 20
0.0
  9
$LIMMAX
 10
891.00000000000091
 20
630.00000000000068
  9
$ORTHOMODE
 70
               0
  9
$REGENMODE
 70
               1
  9
$FILLMODE
 70
               1
  9
$QTEXTMODE
 70
               0
  9
$MIRRTEXT
 70
               1
  9
$DRAGMODE
 70
               2
  9
$LTSCALE
 40
3.0000000000000031
  9
$OSMODE
 70
               0
  9
$ATTMODE
 70
               1
  9
$TEXTSIZE
 40
0.2
  9
$TRACEWID
 40
0.05
  9
$TEXTSTYLE
  7
Standard
  9
$CLAYER
  8
0
  9
$CELTYPE
  6
Continuous
  9
$CECOLOR
 62
             256
  9
$CELTSCALE
 40
1.0
  9
$DELOBJ
 70
               1
  9
$DISPSILH
 70
               0
  9
$DIMSCALE
 40
1.0
  9
$DIMASZ
 40
0.18
  9
$DIMEXO
 40
0.0625
  9
$DIMDLI
 40
0.38
  9
$DIMRND
 40
0.0
  9
$DIMDLE
 40
0.0
  9
$DIMEXE
 40
0.18
  9
$DIMTP
 40
0.0
  9
$DIMTM
 40
0.0
  9
$DIMTXT
 40
0.18
  9
$DIMCEN
 40
0.09
  9
$DIMTSZ
 40
0.0
  9
$DIMTOL
 70
               0
  9
$DIMLIM
 70
               0
  9
$DIMTIH
 70
               1
  9
$DIMTOH
 70
               1
  9
$DIMSE1
 70
               0
  9
$DIMSE2
 70
               0
  9
$DIMTAD
 70
               0
  9
$DIMZIN
 70
               0
  9
$DIMBLK
  1

  9
$DIMASO
 70
               1
  9
$DIMSHO
 70
               1
  9
$DIMPOST
  1

  9
$DIMAPOST
  1

  9
$DIMALT
 70
               0
  9
$DIMALTD
 70
               2
  9
$DIMALTF
 40
25.399999999999999
  9
$DIMLFAC
 40
1.0
  9
$DIMTOFL
 70
               0
  9
$DIMTVP
 40
0.0
  9
$DIMTIX
 70
               0
  9
$DIMSOXD
 70
               0
  9
$DIMSAH
 70
               0
  9
$DIMBLK1
  1

  9
$DIMBLK2
  1

  9
$DIMSTYLE
  2
Standard
  9
$DIMCLRD
 70
               0
  9
$DIMCLRE
 70
               0
  9
$DIMCLRT
 70
               0
  9
$DIMTFAC
 40
1.0
  9
$DIMGAP
 40
0.09
  9
$DIMJUST
 70
               0
  9
$DIMSD1
 70
               0
  9
$DIMSD2
 70
               0
  9
$DIMTOLJ
 70
               1
  9
$DIMTZIN
 70
               0
  9
$DIMALTZ
 70
               0
  9
$DIMALTTZ
 70
               0
  9
$DIMFIT
 70
               3
  9
$DIMUPT
 70
               0
  9
$DIMUNIT
 70
               2
  9
$DIMDEC
 70
               4
  9
$DIMTDEC
 70
               4
  9
$DIMALTU
 70
               2
  9
$DIMALTTD
 70
               2
  9
$DIMTXSTY
  7
Standard
  9
$DIMAUNIT
 70
               0
  9
$LUNITS
 70
               2
  9
$LUPREC
 70
               4
  9
$SKETCHINC
 40
0.1
  9
$FILLETRAD
 40
0.0
  9
$AUNITS
 70
               0
  9
$AUPREC
 70
               0
  9
$MENU
  1
acad
  9
$ELEVATION
 40
0.0
  9
$PELEVATION
 40
0.0
  9
$THICKNESS
 40
0.0
  9
$LIMCHECK
 70
               0
  9
$BLIPMODE
 70
               1
  9
$CHAMFERA
 40
0.0
  9
$CHAMFERB
 40
0.0
  9
$CHAMFERC
 40
0.0
  9
$CHAMFERD
 40
0.0
  9
$SKPOLY
 70
               0
  9
$TDCREATE
 40
0.000000000
  9
$TDUPDATE
 40
0.000000000
  9
$TDINDWG
 40
0.0000000000
  9
$TDUSRTIMER
 40
0.0000000000
  9
$USRTIMER
 70
               1
  9
$ANGBASE
 50
0.0
  9
$ANGDIR
 70
               0
  9
$PDMODE
 70
               0
  9
$PDSIZE
 40
0.0
  9
$PLINEWID
 40
0.0
  9
$COORDS
 70
               0
  9
$SPLFRAME
 70
               0
  9
$SPLINETYPE
 70
               6
  9
$SPLINESEGS
 70
               8
  9
$ATTDIA
 70
               0
  9
$ATTREQ
 70
               1
  9
$HANDLING
 70
               1
  9
$HANDSEED
  5
155
  9
$SURFTAB1
 70
               6
  9
$SURFTAB2
 70
               6
  9
$SURFTYPE
 70
               6
  9
$SURFU
 70
               6
  9
$SURFV
 70
               6
  9
$UCSNAME
  2

  9
$UCSORG
 10
0.0
 20
0.0
 30
0.0
  9
$UCSXDIR
 10
1.0
 20
0.0
 30
0.0
  9
$UCSYDIR
 10
0.0
 20
1.0
 30
0.0
  9
$PUCSNAME
  2

  9
$PUCSORG
 10
0.0
 20
0.0
 30
0.0
  9
$PUCSXDIR
 10
1.0
 20
0.0
 30
0.0
  9
$PUCSYDIR
 10
0.0
 20
1.0
 30
0.0
  9
$USERI1
 70
               0
  9
$USERI2
 70
               0
  9
$USERI3
 70
               0
  9
$USERI4
 70
               0
  9
$USERI5
 70
               0
  9
$USERR1
 40
0.0
  9
$USERR2
 40
0.0
  9
$USERR3
 40
0.0
  9
$USERR4
 40
0.0
  9
$USERR5
 40
0.0
  9
$WORLDVIEW
 70
               1
  9
$SHADEDGE
 70
               3
  9
$SHADEDIF
 70
              70
  9
$TILEMODE
 70
               1
  9
$MAXACTVP
 70
              16
  9
$PINSBASE
 10
0.0
 20
0.0
 30
0.0
  9
$PLIMCHECK
 70
               0
  9
$PEXTMIN
 10
1.0000000000000000E+20
 20
1.0000000000000000E+20
 30
1.0000000000000000E+20
  9
$PEXTMAX
 10
-1.0000000000000000E+20
 20
-1.0000000000000000E+20
 30
-1.0000000000000000E+20
  9
$PLIMMIN
 10
0.0
 20
0.0
  9
$PLIMMAX
 10
12.0
 20
9.0
  9
$UNITMODE
 70
               0
  9
$VISRETAIN
 70
               0
  9
$PLINEGEN
 70
               1
  9
$PSLTSCALE
 70
               0
  9
$TREEDEPTH
 70
            3020
  9
$PICKSTYLE
 70
               1
  9
$CMLSTYLE
  2
Standard
  9
$CMLJUST
 70
               0
  9
$CMLSCALE
 40
1.0
  9
$PROXYGRAPHICS
 70
               0
  9
$MEASUREMENT
 70
               0
  0
ENDSEC
  0
SECTION
  2
CLASSES
  0
CLASS
  1
LWPOLYLINE
  2
AcDbPolyline
  3
"AutoCAD"
 90
        0
280
               0
281
               1
  0
CLASS
  1
IMAGE
  2
AcDbRasterImage
  3
ISM
 90
      127
280
               0
281
               1
  0
CLASS
  1
OLE2FRAME
  2
AcDbOle2Frame
  3
""
 90
        0
280
               0
281
               1
  0
CLASS
  1
HATCH
  2
AcDbHatch
  3
"ACAD_SEDONA"
 90
        0
280
               0
281
               1
  0
CLASS
  1
DICTIONARYVAR
  2
AcDbDictionaryVar
  3
"AutoCAD"
 90
        0
280
               0
281
               0
  0
CLASS
  1
RASTERVARIABLES
  2
AcDbRasterVariables
  3
ISM
 90
        0
280
               0
281
               0
  0
CLASS
  1
IMAGEDEF
  2
AcDbRasterImageDef
  3
ISM
 90
        0
280
               0
281
               0
  0
CLASS
  1
IMAGEDEF_REACTOR
  2
AcDbRasterImageDefReactor
  3
ISM
 90
        1
280
               0
281
               0
  0
CLASS
  1
IDBUFFER
  2
AcDbIdBuffer
  3
"Acad"
 90
        0
280
               0
281
               0
  0
CLASS
  1
SPATIAL_FILTER
  2
AcDbSpatialFilter
  3
"Acad"
 90
        0
280
               0
281
               0
  0
CLASS
  1
XRECORD
  2
AcDbXrecord
  3
"<Built In>"
 90
        0
280
               0
281
               0
  0
CLASS
  1
SORTENTSTABLE
  2
AcDbSortentsTable
  3
"AutoCAD"
 90
        0
280
               0
281
               0
  0
CLASS
  1
LAYER_INDEX
  2
AcDbLayerIndex
  3
"Acad"
 90
        0
280
               0
281
               0
  0
CLASS
  1
SPATIAL_INDEX
  2
AcDbSpatialIndex
  3
"Acad"
 90
        0
280
               0
281
               0
  0
CLASS
  1
OBJECT_PTR
  2
CAseDLPNTableRecord
  3
"ASE-LPNTableRecord"
 90
        1
280
               0
281
               0
  0
CLASS
  1
LAYOUT
  2
AcDbLayout
  3
"AutoCAD 2000"
 90
        0
280
               0
281
               0
  0
CLASS
  1
PLOTSETTINGS
  2
AcDbPlotSettings
  3
"AutoCAD 2000"
 90
        0
280
               0
281
               0
  0
CLASS
  1
ACDBDICTIONARYWDFLT
  2
AcDbDictionaryWithDefault
  3
"AutoCAD 2000"
 90
        0
280
               0
281
               0
  0
CLASS
  1
ACDBPLACEHOLDER
  2
AcDbPlaceHolder
  3
"AutoCAD 2000"
 90
        0
280
               0
281
               0
  0
CLASS
  1
VBA_PROJECT
  2
AcDbVbaProject
  3
"acadvba"
 90
        0
280
               0
281
               0
  0
CLASS
  1
WIPEOUT
  2
AcDbWipeout
  3
WipeOut|AutoCAD Express Tool|expresstools@autodesk.com
 90
      127
280
               0
281
               1
  0
CLASS
  1
WIPEOUTVARIABLES
  2
AcDbWipeoutVariables
  3
WipeOut|AutoCAD Express Tool|expresstools@autodesk.com
 90
        0
280
               0
281
               0
  0
CLASS
  1
RTEXT
  2
RText
  3
RText|AutoCAD Express Tool|expresstools@autodesk.com
 90
        0
280
               0
281
               1
  0
CLASS
  1
ARCALIGNEDTEXT
  2
AcDbArcAlignedText
  3
ATEXT|AutoCAD Express Tool|expresstools@autodesk.com
 90
        0
280
               0
281
               1
  0
ENDSEC
  0
SECTION
  2
TABLES
  0
TABLE
  2
VPORT
  5
7
100
AcDbSymbolTable
 70
               1
  0
VPORT
  5
15
100
AcDbSymbolTableRecord
100
AcDbViewportTableRecord
  2
*ACTIVE
 70
               0
 10
0.0
 20
0.0
 11
1.0
 21
1.0
 12
445.50000000000045
 22
315.00000000000034
 13
0.0
 23
0.0
 14
10.0
 24
10.0
 15
10.0
 25
10.0
 16
0.0
 26
0.0
 36
1.0
 17
0.0
 27
0.0
 37
0.0
 40
630.00000000000068
 41
1.4142857142857141
 42
50.0
 43
0.0
 44
0.0
 50
0.0
 51
0.0
 71
               0
 72
             100
 73
               1
 74
               1
 75
               0
 76
               0
 77
               0
 78
               0
  0
ENDTAB
  0
TABLE
  2
LTYPE
  5
4
100
AcDbSymbolTable
 70
              24
  0
LTYPE
  5
11
100
AcDbSymbolTableRecord
100
AcDbLinetypeTableRecord
  2
ByBlock
 70
              64
  3

 72
              65
 73
               0
 40
0.0
  0
LTYPE
  5
12
100
AcDbSymbolTableRecord
100
AcDbLinetypeTableRecord
  2
ByLayer
 70
              64
  3

 72
              65
 73
               0
 40
0.0
  0
LTYPE
  5
13
100
AcDbSymbolTableRecord
100
AcDbLinetypeTableRecord
  2
Continuous
 70
              64
  3
Solid line
 72
              65
 73
               0
 40
0.0
  0
LTYPE
  5
1D
100
AcDbSymbolTableRecord
100
AcDbLinetypeTableRecord
  2
DOT
 70
              64
  3
Dot . . . . . . . . . . . . . . . . . . . . . .
 72
              65
 73
               2
 40
6.3499999999999996
 49
0.35
 74
               0
 49
-6.0
 74
               0
  0
LTYPE
  5
1E
100
AcDbSymbolTableRecord
100
AcDbLinetypeTableRecord
  2
DASHED
 70
              64
  3
Dashed __ __ __ __ __ __ __ __ __ __ __ __ __ _
 72
              65
 73
               2
 40
12.699999999999999
 49
6.3499999999999996
 74
               0
 49
-6.3499999999999996
 74
               0
  0
LTYPE
  5
1F
100
AcDbSymbolTableRecord
100
AcDbLinetypeTableRecord
  2
DASHDOT
 70
              64
  3
Dash dot __ . __ . __ . __ . __ . __ . __ . __
 72
              65
 73
               4
 40
25.399999999999999
 49
12.699999999999999
 74
               0
 49
-6.0
 74
               0
 49
0.7
 74
               0
 49
-6.0
 74
               0
  0
LTYPE
  5
20
100
AcDbSymbolTableRecord
100
AcDbLinetypeTableRecord
  2
DIVIDE
 70
              64
  3
Divide ____ . . ____ . . ____ . . ____ . . ____
 72
              65
 73
               6
 40
31.75
 49
12.699999999999999
 74
               0
 49
-6.0
 74
               0
 49
0.875
 74
               0
 49
-6.0
 74
               0
 49
0.875
 74
               0
 49
-6.0
 74
               0
  0
LTYPE
  5
21
100
AcDbSymbolTableRecord
100
AcDbLinetypeTableRecord
  2
HIDDEN
 70
              64
  3
Hidden __ __ __ __ __ __ __ __ __ __ __ __ __ _
 72
              65
 73
               2
 40
9.5250000000000004
 49
6.3499999999999996
 74
               0
 49
-3.1749999999999998
 74
               0
  0
LTYPE
  5
22
100
AcDbSymbolTableRecord
100
AcDbLinetypeTableRecord
  2
CENTER
 70
              64
  3
Center ____ _ ____ _ ____ _ ____ _ ____ _ ____
 72
              65
 73
               4
 40
50.799999999999997
 49
31.75
 74
               0
 49
-6.3499999999999996
 74
               0
 49
6.3499999999999996
 74
               0
 49
-6.3499999999999996
 74
               0
  0
LTYPE
  5
23
100
AcDbSymbolTableRecord
100
AcDbLinetypeTableRecord
  2
PHANTOM
 70
              64
  3
Phantom ______  __  __  ______  __  __  ______
 72
              65
 73
               6
 40
63.5
 49
31.75
 74
               0
 49
-6.3499999999999996
 74
               0
 49
6.3499999999999996
 74
               0
 49
-6.3499999999999996
 74
               0
 49
6.3499999999999996
 74
               0
 49
-6.3499999999999996
 74
               0
  0
LTYPE
  5
24
100
AcDbSymbolTableRecord
100
AcDbLinetypeTableRecord
  2
ACAD_ISO02W100
 70
              64
  3
ISO dash __ __ __ __ __ __ __ __ __ __ __ __ __
 72
              65
 73
               2
 40
15.0
 49
12.0
 74
               0
 49
-3.0
 74
               0
  0
LTYPE
  5
25
100
AcDbSymbolTableRecord
100
AcDbLinetypeTableRecord
  2
ACAD_ISO03W100
 70
              64
  3
ISO dash space __ __ __ __ __ __ __ __ __ __ __ __ __ __
 72
              65
 73
               2
 40
30.0
 49
12.0
 74
               0
 49
-18.0
 74
               0
  0
LTYPE
  5
26
100
AcDbSymbolTableRecord
100
AcDbLinetypeTableRecord
  2
ACAD_ISO04W100
 70
              64
  3
ISO long-dash dot ____ . ____ . ____ . ____ . _
 72
              65
 73
               4
 40
30.0
 49
24.0
 74
               0
 49
-3.0
 74
               0
 49
0.0
 74
               0
 49
-3.0
 74
               0
  0
LTYPE
  5
27
100
AcDbSymbolTableRecord
100
AcDbLinetypeTableRecord
  2
ACAD_ISO05W100
 70
              64
  3
ISO long-dash double-dot ____ .. ____ .. ____ .
 72
              65
 73
               6
 40
33.0
 49
24.0
 74
               0
 49
-3.0
 74
               0
 49
0.0
 74
               0
 49
-3.0
 74
               0
 49
0.0
 74
               0
 49
-3.0
 74
               0
  0
LTYPE
  5
28
100
AcDbSymbolTableRecord
100
AcDbLinetypeTableRecord
  2
ACAD_ISO06W100
 70
              64
  3
ISO long-dash triple-dot ____ ... ____ ... ____
 72
              65
 73
               8
 40
36.0
 49
24.0
 74
               0
 49
-3.0
 74
               0
 49
0.0
 74
               0
 49
-3.0
 74
               0
 49
0.0
 74
               0
 49
-3.0
 74
               0
 49
0.0
 74
               0
 49
-3.0
 74
               0
  0
LTYPE
  5
29
100
AcDbSymbolTableRecord
100
AcDbLinetypeTableRecord
  2
ACAD_ISO07W100
 70
              64
  3
ISO dot . . . . . . . . . . . . . . . . . . . .
 72
              65
 73
               2
 40
3.0
 49
0.0
 74
               0
 49
-3.0
 74
               0
  0
LTYPE
  5
2A
100
AcDbSymbolTableRecord
100
AcDbLinetypeTableRecord
  2
ACAD_ISO08W100
 70
              64
  3
ISO long-dash short-dash ____ __ ____ __ ____ _
 72
              65
 73
               4
 40
36.0
 49
24.0
 74
               0
 49
-3.0
 74
               0
 49
6.0
 74
               0
 49
-3.0
 74
               0
  0
LTYPE
  5
2B
100
AcDbSymbolTableRecord
100
AcDbLinetypeTableRecord
  2
ACAD_ISO09W100
 70
              64
  3
ISO long-dash double-short-dash ____ __ __ ____
 72
              65
 73
               6
 40
45.0
 49
24.0
 74
               0
 49
-3.0
 74
               0
 49
6.0
 74
               0
 49
-3.0
 74
               0
 49
6.0
 74
               0
 49
-3.0
 74
               0
  0
LTYPE
  5
2C
100
AcDbSymbolTableRecord
100
AcDbLinetypeTableRecord
  2
ACAD_ISO10W100
 70
              64
  3
ISO dash dot __ . __ . __ . __ . __ . __ . __ .
 72
              65
 73
               4
 40
18.0
 49
12.0
 74
               0
 49
-3.0
 74
               0
 49
0.0
 74
               0
 49
-3.0
 74
               0
  0
LTYPE
  5
2D
100
AcDbSymbolTableRecord
100
AcDbLinetypeTableRecord
  2
ACAD_ISO11W100
 70
              64
  3
ISO double-dash dot __ __ . __ __ . __ __ . __ 
 72
              65
 73
               6
 40
33.0
 49
12.0
 74
               0
 49
-3.0
 74
               0
 49
12.0
 74
               0
 49
-3.0
 74
               0
 49
0.0
 74
               0
 49
-3.0
 74
               0
  0
LTYPE
  5
2E
100
AcDbSymbolTableRecord
100
AcDbLinetypeTableRecord
  2
ACAD_ISO12W100
 70
              64
  3
ISO dash double-dot __ . . __ . . __ . . __ . .
 72
              65
 73
               6
 40
21.0
 49
12.0
 74
               0
 49
-3.0
 74
               0
 49
0.0
 74
               0
 49
-3.0
 74
               0
 49
0.0
 74
               0
 49
-3.0
 74
               0
  0
LTYPE
  5
2F
100
AcDbSymbolTableRecord
100
AcDbLinetypeTableRecord
  2
ACAD_ISO13W100
 70
              64
  3
ISO double-dash double-dot __ __ . . __ __ . . 
 72
              65
 73
               8
 40
36.0
 49
12.0
 74
               0
 49
-3.0
 74
               0
 49
12.0
 74
               0
 49
-3.0
 74
               0
 49
0.0
 74
               0
 49
-3.0
 74
               0
 49
0.0
 74
               0
 49
-3.0
 74
               0
  0
LTYPE
  5
30
100
AcDbSymbolTableRecord
100
AcDbLinetypeTableRecord
  2
ACAD_ISO14W100
 70
              64
  3
ISO dash triple-dot __ . . . __ . . . __ . . . 
 72
              65
 73
               8
 40
24.0
 49
12.0
 74
               0
 49
-3.0
 74
               0
 49
0.0
 74
               0
 49
-3.0
 74
               0
 49
0.0
 74
               0
 49
-3.0
 74
               0
 49
0.0
 74
               0
 49
-3.0
 74
               0
  0
LTYPE
  5
31
100
AcDbSymbolTableRecord
100
AcDbLinetypeTableRecord
  2
ACAD_ISO15W100
 70
              64
  3
ISO double-dash double-dot __ __ . . __ __ . . 
 72
              65
 73
              10
 40
39.0
 49
12.0
 74
               0
 49
-3.0
 74
               0
 49
12.0
 74
               0
 49
-3.0
 74
               0
 49
0.0
 74
               0
 49
-3.0
 74
               0
 49
0.0
 74
               0
 49
-3.0
 74
               0
 49
0.0
 74
               0
 49
-3.0
 74
               0
  0
ENDTAB
  0
TABLE
  2
LAYER
  5
2
100
AcDbSymbolTable
 70
              16
  0
LAYER
  5
14
100
AcDbSymbolTableRecord
100
AcDbLayerTableRecord
  2
0
 70
               0
 62
               7
  6
Continuous
  0
LAYER
  5
35
100
AcDbSymbolTableRecord
100
AcDbLayerTableRecord
  2
Layer00001
 70
               0
 62
               7
  6
Continuous
  0
LAYER
  5
36
100
AcDbSymbolTableRecord
100
AcDbLayerTableRecord
  2
Layer00002
 70
               0
 62
               7
  6
Continuous
  0
LAYER
  5
37
100
AcDbSymbolTableRecord
100
AcDbLayerTableRecord
  2
Layer00003
 70
               0
 62
               7
  6
Continuous
  0
LAYER
  5
38
100
AcDbSymbolTableRecord
100
AcDbLayerTableRecord
  2
Layer00004
 70
               0
 62
               7
  6
Continuous
  0
LAYER
  5
39
100
AcDbSymbolTableRecord
100
AcDbLayerTableRecord
  2
Layer00005
 70
               0
 62
               7
  6
Continuous
  0
LAYER
  5
3A
100
AcDbSymbolTableRecord
100
AcDbLayerTableRecord
  2
Layer00006
 70
               0
 62
               7
  6
Continuous
  0
LAYER
  5
3B
100
AcDbSymbolTableRecord
100
AcDbLayerTableRecord
  2
Layer00007
 70
               0
 62
               7
  6
Continuous
  0
LAYER
  5
3C
100
AcDbSymbolTableRecord
100
AcDbLayerTableRecord
  2
Layer00008
 70
               0
 62
               7
  6
Continuous
  0
LAYER
  5
3D
100
AcDbSymbolTableRecord
100
AcDbLayerTableRecord
  2
Layer00009
 70
               0
 62
               7
  6
Continuous
  0
LAYER
  5
3E
100
AcDbSymbolTableRecord
100
AcDbLayerTableRecord
  2
Layer00010
 70
               0
 62
               7
  6
Continuous
  0
LAYER
  5
3F
100
AcDbSymbolTableRecord
100
AcDbLayerTableRecord
  2
Layer00011
 70
               0
 62
               7
  6
Continuous
  0
LAYER
  5
40
100
AcDbSymbolTableRecord
100
AcDbLayerTableRecord
  2
Layer00012
 70
               0
 62
               7
  6
Continuous
  0
LAYER
  5
41
100
AcDbSymbolTableRecord
100
AcDbLayerTableRecord
  2
Layer00013
 70
               0
 62
               7
  6
Continuous
  0
LAYER
  5
42
100
AcDbSymbolTableRecord
100
AcDbLayerTableRecord
  2
Layer00014
 70
               0
 62
               7
  6
Continuous
  0
LAYER
  5
43
100
AcDbSymbolTableRecord
100
AcDbLayerTableRecord
  2
Layer00015
 70
               0
 62
               7
  6
Continuous
  0
ENDTAB
  0
TABLE
  2
STYLE
  5
3
100
AcDbSymbolTable
 70
               4
  0
STYLE
  5
17
100
AcDbSymbolTableRecord
100
AcDbTextStyleTableRecord
  2
Standard
 70
               0
 40
0.0
 41
1.0
 50
0.0
 71
               0
 42
0.0
  3
txt.shx
  4
bigfont.shx
  0
STYLE
  5
32
100
AcDbSymbolTableRecord
100
AcDbTextStyleTableRecord
  2
STANDARD_T
 70
               4
 40
0.0
 41
1.0
 50
0.0
 71
               0
 42
0.0
  3
txt.shx
  4
bigfont.shx
  0
STYLE
  5
33
100
AcDbSymbolTableRecord
100
AcDbTextStyleTableRecord
  2
FontTableH_0
 70
               0
 40
0.0
 41
1.0
 50
0.0
 71
               0
 42
0.0
  3
MS Gothic.ttf
  4

1001
ACAD
1000
MS Gothic
1071
    32817
  0
STYLE
  5
34
100
AcDbSymbolTableRecord
100
AcDbTextStyleTableRecord
  2
FontTableV_0
 70
               0
 40
0.0
 41
1.0
 50
0.0
 71
               0
 42
0.0
  3
@MS Gothic.ttf
  4

1001
ACAD
1000
@MS Gothic
1071
    32817
  0
ENDTAB
  0
TABLE
  2
VIEW
  5
5
100
AcDbSymbolTable
 70
               0
  0
ENDTAB
  0
TABLE
  2
UCS
  5
6
100
AcDbSymbolTable
 70
               0
  0
ENDTAB
  0
TABLE
  2
APPID
  5
8
100
AcDbSymbolTable
 70
               1
  0
APPID
  5
16
100
AcDbSymbolTableRecord
100
AcDbRegAppTableRecord
  2
ACAD
 70
               0
  0
ENDTAB
  0
TABLE
  2
DIMSTYLE
  5
9
100
AcDbSymbolTable
 70
               1
  0
DIMSTYLE
105
18
100
AcDbSymbolTableRecord
100
AcDbDimStyleTableRecord
  2
Standard
 70
               0
  3

  4

  5

  6

  7

 40
1.0
 41
0.18
 42
0.0625
 43
0.38
 44
0.18
 45
0.0
 46
0.0
 47
0.0
 48
0.0
 71
               0
 72
               0
 73
               1
 74
               1
 75
               0
 76
               0
 77
               0
 78
               0
140
0.18
141
0.09
142
0.0
143
25.399999999999999
144
1.0
145
0.0
146
1.0
147
0.09
170
               0
171
               2
172
               0
173
               0
174
               0
175
               0
176
               0
177
               0
178
               0
270
               2
271
               4
272
               4
273
               2
274
               2
275
               0
280
               0
281
               0
282
               0
283
               1
284
               0
285
               0
286
               0
287
               0
288
               0
340
17
  0
ENDTAB
  0
TABLE
  2
BLOCK_RECORD
  5
1
100
AcDbSymbolTable
 70
               0
  0
BLOCK_RECORD
  5
A
100
AcDbSymbolTableRecord
100
AcDbBlockTableRecord
  2
*MODEL_SPACE
  0
BLOCK_RECORD
  5
B
100
AcDbSymbolTableRecord
100
AcDbBlockTableRecord
  2
*PAPER_SPACE
  0
ENDTAB
  0
ENDSEC
  0
SECTION
  2
BLOCKS
  0
BLOCK
  5
D
100
AcDbEntity
  8
0
100
AcDbBlockBegin
  2
*MODEL_SPACE
 70
               0
 10
0.0
 20
0.0
 30
0.0
  3
*MODEL_SPACE
  1

  0
ENDBLK
  5
E
100
AcDbEntity
  8
0
100
AcDbBlockEnd
  0
BLOCK
  5
F
100
AcDbEntity
 67
               1
  8
0
100
AcDbBlockBegin
  2
*PAPER_SPACE
 70
               0
 10
0.0
 20
0.0
 30
0.0
  3
*PAPER_SPACE
  1

  0
ENDBLK
  5
10
100
AcDbEntity
 67
               1
  8
0
100
AcDbBlockEnd
  0
ENDSEC
  0
SECTION
  2
ENTITIES
  0
LINE
  5
44
100
AcDbEntity
  8
0
  6
Continuous
 62
               3
100
AcDbLine
 10
182.16061013078445
 20
321.4058743463595
 30
0.0
 11
535.66061013078433
 21
321.4058743463595
 31
0.0
  0
LINE
  5
45
100
AcDbEntity
  8
0
  6
Continuous
 62
               3
100
AcDbLine
 10
535.66061013078433
 20
321.4058743463595
 30
0.0
 11
535.66061013078433
 21
339.4058743463595
 31
0.0
  0
LINE
  5
46
100
AcDbEntity
  8
0
  6
Continuous
 62
               7
100
AcDbLine
 10
529.36623761555575
 20
321.4058743463595
 30
0.0
 11
535.66061013078456
 21
327.70024686158808
 31
0.0
  0
LINE
  5
47
100
AcDbEntity
  8
0
  6
Continuous
 62
               7
100
AcDbLine
 10
522.29516980369044
 20
321.4058743463595
 30
0.0
 11
535.66061013078456
 21
334.77131467345362
 31
0.0
  0
LINE
  5
48
100
AcDbEntity
  8
0
  6
Continuous
 62
               7
100
AcDbLine
 10
515.22410199182491
 20
321.4058743463595
 30
0.0
 11
533.22410199182491
 21
339.4058743463595
 31
0.0
  0
LINE
  5
49
100
AcDbEntity
  8
0
  6
Continuous
 62
               7
100
AcDbLine
 10
508.15303417995943
 20
321.4058743463595
 30
0.0
 11
526.15303417995938
 21
339.4058743463595
 31
0.0
  0
LINE
  5
4A
100
AcDbEntity
  8
0
  6
Continuous
 62
               7
100
AcDbLine
 10
501.08196636809396
 20
321.4058743463595
 30
0.0
 11
519.08196636809384
 21
339.4058743463595
 31
0.0
  0
LINE
  5
4B
100
AcDbEntity
  8
0
  6
Continuous
 62
               7
100
AcDbLine
 10
494.01089855622854
 20
321.4058743463595
 30
0.0
 11
512.01089855622854
 21
339.4058743463595
 31
0.0
  0
LINE
  5
4C
100
AcDbEntity
  8
0
  6
Continuous
 62
               7
100
AcDbLine
 10
486.93983074436301
 20
321.4058743463595
 30
0.0
 11
504.93983074436301
 21
339.4058743463595
 31
0.0
  0
LINE
  5
4D
100
AcDbEntity
  8
0
  6
Continuous
 62
               7
100
AcDbLine
 10
479.86876293249759
 20
321.4058743463595
 30
0.0
 11
497.86876293249759
 21
339.4058743463595
 31
0.0
  0
LINE
  5
4E
100
AcDbEntity
  8
0
  6
Continuous
 62
               7
100
AcDbLine
 10
472.79769512063206
 20
321.4058743463595
 30
0.0
 11
490.79769512063206
 21
339.4058743463595
 31
0.0
  0
LINE
  5
4F
100
AcDbEntity
  8
0
  6
Continuous
 62
               7
100
AcDbLine
 10
465.72662730876664
 20
321.4058743463595
 30
0.0
 11
483.72662730876664
 21
339.4058743463595
 31
0.0
  0
LINE
  5
50
100
AcDbEntity
  8
0
  6
Continuous
 62
               7
100
AcDbLine
 10
458.65555949690111
 20
321.4058743463595
 30
0.0
 11
476.65555949690111
 21
339.4058743463595
 31
0.0
  0
LINE
  5
51
100
AcDbEntity
  8
0
  6
Continuous
 62
               7
100
AcDbLine
 10
451.58449168503569
 20
321.4058743463595
 30
0.0
 11
469.58449168503569
 21
339.4058743463595
 31
0.0
  0
LINE
  5
52
100
AcDbEntity
  8
0
  6
Continuous
 62
               7
100
AcDbLine
 10
444.51342387317015
 20
321.4058743463595
 30
0.0
 11
462.51342387317015
 21
339.4058743463595
 31
0.0
  0
LINE
  5
53
100
AcDbEntity
  8
0
  6
Continuous
 62
               7
100
AcDbLine
 10
437.44235606130474
 20
321.4058743463595
 30
0.0
 11
455.44235606130474
 21
339.4058743463595
 31
0.0
  0
LINE
  5
54
100
AcDbEntity
  8
0
  6
Continuous
 62
               7
100
AcDbLine
 10
430.3712882494392
 20
321.4058743463595
 30
0.0
 11
448.3712882494392
 21
339.4058743463595
 31
0.0
  0
LINE
  5
55
100
AcDbEntity
  8
0
  6
Continuous
 62
               7
100
AcDbLine
 10
423.30022043757378
 20
321.4058743463595
 30
0.0
 11
441.30022043757378
 21
339.4058743463595
 31
0.0
  0
LINE
  5
56
100
AcDbEntity
  8
0
  6
Continuous
 62
               7
100
AcDbLine
 10
416.22915262570825
 20
321.4058743463595
 30
0.0
 11
434.22915262570825
 21
339.4058743463595
 31
0.0
  0
LINE
  5
57
100
AcDbEntity
  8
0
  6
Continuous
 62
               7
100
AcDbLine
 10
409.15808481384283
 20
321.4058743463595
 30
0.0
 11
427.15808481384283
 21
339.4058743463595
 31
0.0
  0
LINE
  5
58
100
AcDbEntity
  8
0
  6
Continuous
 62
               7
100
AcDbLine
 10
402.0870170019773
 20
321.4058743463595
 30
0.0
 11
420.0870170019773
 21
339.4058743463595
 31
0.0
  0
LINE
  5
59
100
AcDbEntity
  8
0
  6
Continuous
 62
               7
100
AcDbLine
 10
395.01594919011188
 20
321.4058743463595
 30
0.0
 11
413.01594919011188
 21
339.4058743463595
 31
0.0
  0
LINE
  5
5A
100
AcDbEntity
  8
0
  6
Continuous
 62
               7
100
AcDbLine
 10
387.94488137824635
 20
321.4058743463595
 30
0.0
 11
405.94488137824635
 21
339.4058743463595
 31
0.0
  0
LINE
  5
5B
100
AcDbEntity
  8
0
  6
Continuous
 62
               7
100
AcDbLine
 10
380.87381356638093
 20
321.4058743463595
 30
0.0
 11
398.87381356638093
 21
339.4058743463595
 31
0.0
  0
LINE
  5
5C
100
AcDbEntity
  8
0
  6
Continuous
 62
               7
100
AcDbLine
 10
373.8027457545154
 20
321.4058743463595
 30
0.0
 11
391.8027457545154
 21
339.4058743463595
 31
0.0
  0
LINE
  5
5D
100
AcDbEntity
  8
0
  6
Continuous
 62
               7
100
AcDbLine
 10
366.73167794264998
 20
321.4058743463595
 30
0.0
 11
384.73167794264998
 21
339.4058743463595
 31
0.0
  0
LINE
  5
5E
100
AcDbEntity
  8
0
  6
Continuous
 62
               7
100
AcDbLine
 10
359.66061775837215
 20
321.4058743463595
 30
0.0
 11
377.66060631699065
 21
339.4058743463595
 31
0.0
  0
LINE
  5
5F
100
AcDbEntity
  8
0
  6
Continuous
 62
               7
100
AcDbLine
 10
352.58954231891903
 20
321.4058743463595
 30
0.0
 11
370.58954231891903
 21
339.4058743463595
 31
0.0
  0
LINE
  5
60
100
AcDbEntity
  8
0
  6
Continuous
 62
               7
100
AcDbLine
 10
345.5184745070535
 20
321.4058743463595
 30
0.0
 11
363.5184745070535
 21
339.4058743463595
 31
0.0
  0
LINE
  5
61
100
AcDbEntity
  8
0
  6
Continuous
 62
               7
100
AcDbLine
 10
338.44740669518808
 20
321.4058743463595
 30
0.0
 11
356.44740669518808
 21
339.4058743463595
 31
0.0
  0
LINE
  5
62
100
AcDbEntity
  8
0
  6
Continuous
 62
               7
100
AcDbLine
 10
331.37633888332255
 20
321.4058743463595
 30
0.0
 11
349.37633888332255
 21
339.4058743463595
 31
0.0
  0
LINE
  5
63
100
AcDbEntity
  8
0
  6
Continuous
 62
               7
100
AcDbLine
 10
324.30527107145713
 20
321.4058743463595
 30
0.0
 11
342.30527107145713
 21
339.4058743463595
 31
0.0
  0
LINE
  5
64
100
AcDbEntity
  8
0
  6
Continuous
 62
               7
100
AcDbLine
 10
317.2342032595916
 20
321.4058743463595
 30
0.0
 11
335.2342032595916
 21
339.4058743463595
 31
0.0
  0
LINE
  5
65
100
AcDbEntity
  8
0
  6
Continuous
 62
               7
100
AcDbLine
 10
310.16313544772606
 20
321.4058743463595
 30
0.0
 11
328.16313544772618
 21
339.4058743463595
 31
0.0
  0
LINE
  5
66
100
AcDbEntity
  8
0
  6
Continuous
 62
               7
100
AcDbLine
 10
303.09206763586064
 20
321.4058743463595
 30
0.0
 11
321.09206763586064
 21
339.4058743463595
 31
0.0
  0
LINE
  5
67
100
AcDbEntity
  8
0
  6
Continuous
 62
               7
100
AcDbLine
 10
296.02099982399523
 20
321.4058743463595
 30
0.0
 11
314.02099982399523
 21
339.4058743463595
 31
0.0
  0
LINE
  5
68
100
AcDbEntity
  8
0
  6
Continuous
 62
               7
100
AcDbLine
 10
288.94993201212969
 20
321.4058743463595
 30
0.0
 11
306.94993201212969
 21
339.4058743463595
 31
0.0
  0
LINE
  5
69
100
AcDbEntity
  8
0
  6
Continuous
 62
               7
100
AcDbLine
 10
281.87886420026416
 20
321.4058743463595
 30
0.0
 11
299.87886420026427
 21
339.4058743463595
 31
0.0
  0
LINE
  5
6A
100
AcDbEntity
  8
0
  6
Continuous
 62
               7
100
AcDbLine
 10
274.80779638839874
 20
321.4058743463595
 30
0.0
 11
292.80779638839874
 21
339.4058743463595
 31
0.0
  0
LINE
  5
6B
100
AcDbEntity
  8
0
  6
Continuous
 62
               7
100
AcDbLine
 10
267.73672857653327
 20
321.4058743463595
 30
0.0
 11
285.73672857653332
 21
339.4058743463595
 31
0.0
  0
LINE
  5
6C
100
AcDbEntity
  8
0
  6
Continuous
 62
               7
100
AcDbLine
 10
262.98834585876637
 20
323.72855944045807
 30
0.0
 11
278.66566076466779
 21
339.4058743463595
 31
0.0
  0
LINE
  5
6D
100
AcDbEntity
  8
0
  6
Continuous
 62
               7
100
AcDbLine
 10
262.98834585876637
 20
330.7996272523236
 30
0.0
 11
271.59459295280237
 21
339.4058743463595
 31
0.0
  0
LINE
  5
6E
100
AcDbEntity
  8
0
  6
Continuous
 62
               7
100
AcDbLine
 10
262.98834585876637
 20
337.87069506418902
 30
0.0
 11
264.52352514093684
 21
339.4058743463595
 31
0.0
  0
LINE
  5
6F
100
AcDbEntity
  8
0
  6
Continuous
 62
               7
100
AcDbLine
 10
239.45245732907136
 20
321.4058743463595
 30
0.0
 11
243.37353342640478
 21
325.32695044369291
 31
0.0
  0
LINE
  5
70
100
AcDbEntity
  8
0
  6
Continuous
 62
               7
100
AcDbLine
 10
232.38138951720589
 20
321.4058743463595
 30
0.0
 11
243.37353342640478
 21
332.39801825555844
 31
0.0
  0
LINE
  5
71
100
AcDbEntity
  8
0
  6
Continuous
 62
               3
100
AcDbLine
 10
535.66061013078433
 20
339.4058743463595
 30
0.0
 11
182.16061013078445
 21
339.4058743463595
 31
0.0
  0
LINE
  5
72
100
AcDbEntity
  8
0
  6
Continuous
 62
               2
100
AcDbLine
 10
566.16061013078433
 20
342.90587409086345
 30
0.0
 11
566.16061013078433
 21
330.50587434635952
 31
0.0
  0
LINE
  5
73
100
AcDbEntity
  8
0
  6
Continuous
 62
               2
100
AcDbLine
 10
564.96061013078452
 20
340.30587434635947
 30
0.0
 11
564.96061013078452
 21
330.50587434635952
 31
0.0
  0
LINE
  5
74
100
AcDbEntity
  8
0
  6
Continuous
 62
               2
100
AcDbLine
 10
563.38538222864986
 20
339.58075935376496
 30
0.0
 11
563.96061013078452
 21
331.00587434635952
 31
0.0
  0
LINE
  5
75
100
AcDbEntity
  8
0
  6
Continuous
 62
               2
100
AcDbLine
 10
564.66061013078433
 20
340.60587434635954
 30
0.0
 11
542.16061013078433
 21
340.60587434635954
 31
0.0
  0
LINE
  5
76
100
AcDbEntity
  8
0
  6
DASHED
 62
               6
100
AcDbLine
 10
429.75014917393071
 20
341.4058743463595
 30
0.0
 11
182.16061013078445
 21
341.4058743463595
 31
0.0
  0
LINE
  5
77
100
AcDbEntity
  8
0
  6
Continuous
 62
               2
100
AcDbLine
 10
567.16061013078433
 20
344.4058743463595
 30
0.0
 11
182.16061013078445
 21
344.4058743463595
 31
0.0
  0
LINE
  5
78
100
AcDbEntity
  8
0
  6
Continuous
 62
               4
100
AcDbLine
 10
573.16061013078433
 20
344.4058743463595
 30
0.0
 11
608.16061013078456
 21
344.4058743463595
 31
0.0
  0
LINE
  5
79
100
AcDbEntity
  8
0
  6
Continuous
 62
               4
100
AcDbLine
 10
571.56061013078443
 20
329.4058743463595
 30
0.0
 11
594.16061013078433
 21
329.4058743463595
 31
0.0
  0
LINE
  5
7A
100
AcDbEntity
  8
0
  6
Continuous
 62
               4
100
AcDbLine
 10
591.16061013078433
 20
344.4058743463595
 30
0.0
 11
591.16061013078433
 21
329.4058743463595
 31
0.0
  0
LINE
  5
7B
100
AcDbEntity
  8
0
  6
Continuous
 62
               4
100
AcDbLine
 10
542.16061013078433
 20
317.80587434635947
 30
0.0
 11
573.34088386632834
 21
371.8116926502272
 31
0.0
  0
LINE
  5
7C
100
AcDbEntity
  8
0
  6
Continuous
 62
               4
100
AcDbLine
 10
542.16061013078433
 20
317.80587434635947
 30
0.0
 11
545.23879142071542
 21
326.26310793343271
 31
0.0
  0
LINE
  5
7D
100
AcDbEntity
  8
0
  6
Continuous
 62
               4
100
AcDbLine
 10
542.16061013078433
 20
317.80587434635947
 30
0.0
 11
547.94569861796322
 21
324.70027433443033
 31
0.0
  0
LINE
  5
7E
100
AcDbEntity
  8
0
  6
Continuous
 62
               4
100
AcDbLine
 10
573.34088386632834
 20
371.8116926502272
 30
0.0
 11
687.59791705872544
 21
371.8116926502272
 31
0.0
  0
LINE
  5
7F
100
AcDbEntity
  8
0
  6
Continuous
 62
               4
100
AcDbLine
 10
389.8523737777864
 20
460.43530184584392
 30
0.0
 11
314.77984880838619
 21
330.4058743463595
 31
0.0
  0
LINE
  5
80
100
AcDbEntity
  8
0
  6
Continuous
 62
               4
100
AcDbLine
 10
255.87633888332255
 20
321.4058743463595
 30
0.0
 11
255.87633888332255
 21
339.4058743463595
 31
0.0
  0
LINE
  5
81
100
AcDbEntity
  8
0
  6
Continuous
 62
               4
100
AcDbLine
 10
381.19211973994197
 20
445.43530184584392
 30
0.0
 11
544.81352479786506
 21
445.43530184584392
 31
0.0
  0
LINE
  5
82
100
AcDbEntity
  8
0
  6
Continuous
 62
               4
100
AcDbLine
 10
372.53186570209755
 20
430.43530184584392
 30
0.0
 11
544.81352479786506
 21
430.43530184584392
 31
0.0
  0
LINE
  5
83
100
AcDbEntity
  8
0
  6
Continuous
 62
               4
100
AcDbLine
 10
389.8523737777864
 20
460.43530184584392
 30
0.0
 11
544.81352479786506
 21
460.43530184584392
 31
0.0
  0
LINE
  5
84
100
AcDbEntity
  8
0
  6
Continuous
 62
               7
100
AcDbLine
 10
491.10791099903031
 20
302.60587434635977
 30
0.0
 11
491.10791099903065
 21
338.60587434635977
 31
0.0
  0
LINE
  5
85
100
AcDbEntity
  8
0
  6
Continuous
 62
               7
100
AcDbLine
 10
488.60791099903065
 20
341.10587434635977
 30
0.0
 11
488.60791099903065
 21
340.60587434635977
 31
0.0
  0
LINE
  5
86
100
AcDbEntity
  8
0
  6
Continuous
 62
               7
100
AcDbLine
 10
496.10791099903031
 20
302.60587434635977
 30
0.0
 11
496.10791099903065
 21
338.60587434635977
 31
0.0
  0
LINE
  5
87
100
AcDbEntity
  8
0
  6
Continuous
 62
               7
100
AcDbLine
 10
498.60791099903065
 20
341.10587434635977
 30
0.0
 11
498.60791099903065
 21
340.60587434635977
 31
0.0
  0
LINE
  5
88
100
AcDbEntity
  8
0
  6
Continuous
 62
               7
100
AcDbLine
 10
488.60791099903065
 20
341.10587434635977
 30
0.0
 11
498.60791099903065
 21
341.10587434635977
 31
0.0
  0
LINE
  5
89
100
AcDbEntity
  8
0
  6
Continuous
 62
               7
100
AcDbLine
 10
491.10791099903065
 20
338.60587434635977
 30
0.0
 11
496.10791099903065
 21
338.60587434635977
 31
0.0
  0
LINE
  5
8A
100
AcDbEntity
  8
0
  6
Continuous
 62
               7
100
AcDbLine
 10
488.60791099903065
 20
340.60587434635977
 30
0.0
 11
491.10791099903065
 21
338.60587434635977
 31
0.0
  0
LINE
  5
8B
100
AcDbEntity
  8
0
  6
Continuous
 62
               7
100
AcDbLine
 10
496.10791099903065
 20
338.60587434635977
 30
0.0
 11
498.60791099903054
 21
340.60587434635977
 31
0.0
  0
LINE
  5
8C
100
AcDbEntity
  8
0
  6
Continuous
 62
               7
100
AcDbLine
 10
488.60791099903065
 20
340.60587434635977
 30
0.0
 11
498.60791099903054
 21
340.60587434635966
 31
0.0
  0
LINE
  5
8D
100
AcDbEntity
  8
0
  6
Continuous
 62
               7
100
AcDbLine
 10
491.10791099903031
 20
302.60587434635977
 30
0.0
 11
493.60791099903031
 21
301.10587434635977
 31
0.0
  0
LINE
  5
8E
100
AcDbEntity
  8
0
  6
Continuous
 62
               7
100
AcDbLine
 10
496.10791099903031
 20
302.60587434635977
 30
0.0
 11
493.60791099903031
 21
301.10587434635977
 31
0.0
  0
LINE
  5
8F
100
AcDbEntity
  8
0
  6
Continuous
 62
               7
100
AcDbLine
 10
491.10791099903054
 20
331.60587434635977
 30
0.0
 11
496.10791099903054
 21
333.60587434635977
 31
0.0
  0
LINE
  5
90
100
AcDbEntity
  8
0
  6
Continuous
 62
               7
100
AcDbLine
 10
491.10791099903054
 20
329.60587434635977
 30
0.0
 11
496.10791099903054
 21
331.60587434635977
 31
0.0
  0
LINE
  5
91
100
AcDbEntity
  8
0
  6
Continuous
 62
               7
100
AcDbLine
 10
491.10791099903054
 20
327.60587434635977
 30
0.0
 11
496.10791099903054
 21
329.60587434635977
 31
0.0
  0
LINE
  5
92
100
AcDbEntity
  8
0
  6
Continuous
 62
               7
100
AcDbLine
 10
491.10791099903054
 20
325.60587434635977
 30
0.0
 11
496.10791099903054
 21
327.60587434635977
 31
0.0
  0
LINE
  5
93
100
AcDbEntity
  8
0
  6
Continuous
 62
               7
100
AcDbLine
 10
491.10791099903054
 20
323.60587434635977
 30
0.0
 11
496.10791099903054
 21
325.60587434635977
 31
0.0
  0
LINE
  5
94
100
AcDbEntity
  8
0
  6
Continuous
 62
               7
100
AcDbLine
 10
491.10791099903042
 20
321.60587434635977
 30
0.0
 11
496.10791099903042
 21
323.60587434635977
 31
0.0
  0
LINE
  5
95
100
AcDbEntity
  8
0
  6
Continuous
 62
               7
100
AcDbLine
 10
491.10791099903042
 20
319.60587434635977
 30
0.0
 11
496.10791099903042
 21
321.60587434635977
 31
0.0
  0
LINE
  5
96
100
AcDbEntity
  8
0
  6
Continuous
 62
               7
100
AcDbLine
 10
491.10791099903042
 20
317.60587434635977
 30
0.0
 11
496.10791099903042
 21
319.60587434635988
 31
0.0
  0
LINE
  5
97
100
AcDbEntity
  8
0
  6
Continuous
 62
               7
100
AcDbLine
 10
491.10791099903031
 20
315.60587434635977
 30
0.0
 11
496.10791099903042
 21
317.60587434635977
 31
0.0
  0
LINE
  5
98
100
AcDbEntity
  8
0
  6
Continuous
 62
               7
100
AcDbLine
 10
491.10791099903031
 20
313.60587434635977
 30
0.0
 11
496.10791099903031
 21
315.60587434635977
 31
0.0
  0
LINE
  5
99
100
AcDbEntity
  8
0
  6
Continuous
 62
               7
100
AcDbLine
 10
491.10791099903031
 20
311.60587434635977
 30
0.0
 11
496.10791099903031
 21
313.60587434635977
 31
0.0
  0
LINE
  5
9A
100
AcDbEntity
  8
0
  6
Continuous
 62
               7
100
AcDbLine
 10
491.10791099903031
 20
309.60587434635977
 30
0.0
 11
494.10791099903042
 21
310.80587434635993
 31
0.0
  0
LINE
  5
9B
100
AcDbEntity
  8
0
  6
Continuous
 62
               7
100
AcDbLine
 10
495.60791099903031
 20
303.10587434635977
 30
0.0
 11
495.60791099903042
 21
311.40587434635995
 31
0.0
  0
LINE
  5
9C
100
AcDbEntity
  8
0
  6
Continuous
 62
               7
100
AcDbLine
 10
494.10791099903042
 20
310.80587434635981
 30
0.0
 11
495.15791099903049
 21
311.85587434635988
 31
0.0
  0
LINE
  5
9D
100
AcDbEntity
  8
0
  6
Continuous
 62
               7
100
AcDbLine
 10
495.60791099903042
 20
311.40587434635984
 30
0.0
 11
495.15791099903049
 21
311.85587434635988
 31
0.0
  0
LINE
  5
9E
100
AcDbEntity
  8
0
  6
Continuous
 62
               7
100
AcDbLine
 10
495.60791099903042
 20
311.40587434635995
 30
0.0
 11
496.10791099903031
 21
311.60587434635977
 31
0.0
  0
LINE
  5
9F
100
AcDbEntity
  8
0
  6
Continuous
 62
               7
100
AcDbLine
 10
496.10791099903031
 20
302.60587434635977
 30
0.0
 11
495.60791099903031
 21
303.10587434635977
 31
0.0
  0
LINE
  5
A0
100
AcDbEntity
  8
0
  6
Continuous
 62
               7
100
AcDbLine
 10
504.84518876061588
 20
304.70484694909942
 30
0.0
 11
504.84518876061622
 21
340.70484694909931
 31
0.0
  0
LINE
  5
A1
100
AcDbEntity
  8
0
  6
Continuous
 62
               7
100
AcDbLine
 10
502.34518876061622
 20
343.20484694909919
 30
0.0
 11
502.34518876061622
 21
342.70484694909919
 31
0.0
  0
LINE
  5
A2
100
AcDbEntity
  8
0
  6
Continuous
 62
               7
100
AcDbLine
 10
509.84518876061594
 20
304.70484694909942
 30
0.0
 11
509.84518876061617
 21
340.70484694909919
 31
0.0
  0
LINE
  5
A3
100
AcDbEntity
  8
0
  6
Continuous
 62
               7
100
AcDbLine
 10
512.34518876061611
 20
343.20484694909919
 30
0.0
 11
512.34518876061611
 21
342.70484694909919
 31
0.0
  0
LINE
  5
A4
100
AcDbEntity
  8
0
  6
Continuous
 62
               7
100
AcDbLine
 10
502.34518876061622
 20
343.20484694909919
 30
0.0
 11
512.34518876061611
 21
343.20484694909919
 31
0.0
  0
LINE
  5
A5
100
AcDbEntity
  8
0
  6
Continuous
 62
               7
100
AcDbLine
 10
504.84518876061622
 20
340.70484694909931
 30
0.0
 11
509.84518876061617
 21
340.70484694909919
 31
0.0
  0
LINE
  5
A6
100
AcDbEntity
  8
0
  6
Continuous
 62
               7
100
AcDbLine
 10
502.34518876061622
 20
342.70484694909931
 30
0.0
 11
504.84518876061622
 21
340.70484694909931
 31
0.0
  0
LINE
  5
A7
100
AcDbEntity
  8
0
  6
Continuous
 62
               7
100
AcDbLine
 10
509.84518876061617
 20
340.70484694909919
 30
0.0
 11
512.34518876061611
 21
342.70484694909919
 31
0.0
  0
LINE
  5
A8
100
AcDbEntity
  8
0
  6
Continuous
 62
               7
100
AcDbLine
 10
502.34518876061622
 20
342.70484694909919
 30
0.0
 11
512.34518876061611
 21
342.70484694909919
 31
0.0
  0
LINE
  5
A9
100
AcDbEntity
  8
0
  6
Continuous
 62
               7
100
AcDbLine
 10
504.84518876061588
 20
304.70484694909942
 30
0.0
 11
507.34518876061594
 21
303.20484694909942
 31
0.0
  0
LINE
  5
AA
100
AcDbEntity
  8
0
  6
Continuous
 62
               7
100
AcDbLine
 10
509.84518876061594
 20
304.70484694909942
 30
0.0
 11
507.34518876061594
 21
303.20484694909942
 31
0.0
  0
LINE
  5
AB
100
AcDbEntity
  8
0
  6
Continuous
 62
               7
100
AcDbLine
 10
504.84518876061611
 20
333.70484694909931
 30
0.0
 11
509.84518876061617
 21
335.70484694909919
 31
0.0
  0
LINE
  5
AC
100
AcDbEntity
  8
0
  6
Continuous
 62
               7
100
AcDbLine
 10
504.84518876061611
 20
331.70484694909931
 30
0.0
 11
509.84518876061617
 21
333.70484694909919
 31
0.0
  0
LINE
  5
AD
100
AcDbEntity
  8
0
  6
Continuous
 62
               7
100
AcDbLine
 10
504.84518876061611
 20
329.70484694909931
 30
0.0
 11
509.84518876061617
 21
331.70484694909931
 31
0.0
  0
LINE
  5
AE
100
AcDbEntity
  8
0
  6
Continuous
 62
               7
100
AcDbLine
 10
504.845188760616
 20
327.70484694909931
 30
0.0
 11
509.84518876061617
 21
329.70484694909931
 31
0.0
  0
LINE
  5
AF
100
AcDbEntity
  8
0
  6
Continuous
 62
               7
100
AcDbLine
 10
504.84518876061611
 20
325.70484694909942
 30
0.0
 11
509.84518876061617
 21
327.70484694909931
 31
0.0
  0
LINE
  5
B0
100
AcDbEntity
  8
0
  6
Continuous
 62
               7
100
AcDbLine
 10
504.845188760616
 20
323.70484694909942
 30
0.0
 11
509.84518876061594
 21
325.70484694909942
 31
0.0
  0
LINE
  5
B1
100
AcDbEntity
  8
0
  6
Continuous
 62
               7
100
AcDbLine
 10
504.845188760616
 20
321.70484694909942
 30
0.0
 11
509.84518876061594
 21
323.70484694909931
 31
0.0
  0
LINE
  5
B2
100
AcDbEntity
  8
0
  6
Continuous
 62
               7
100
AcDbLine
 10
504.84518876061588
 20
319.70484694909942
 30
0.0
 11
509.84518876061594
 21
321.70484694909942
 31
0.0
  0
LINE
  5
B3
100
AcDbEntity
  8
0
  6
Continuous
 62
               7
100
AcDbLine
 10
504.84518876061588
 20
317.70484694909942
 30
0.0
 11
509.84518876061594
 21
319.70484694909942
 31
0.0
  0
LINE
  5
B4
100
AcDbEntity
  8
0
  6
Continuous
 62
               7
100
AcDbLine
 10
504.84518876061588
 20
315.70484694909942
 30
0.0
 11
509.84518876061594
 21
317.70484694909942
 31
0.0
  0
LINE
  5
B5
100
AcDbEntity
  8
0
  6
Continuous
 62
               7
100
AcDbLine
 10
504.84518876061588
 20
313.70484694909942
 30
0.0
 11
509.84518876061594
 21
315.70484694909942
 31
0.0
  0
LINE
  5
B6
100
AcDbEntity
  8
0
  6
Continuous
 62
               7
100
AcDbLine
 10
504.84518876061588
 20
311.70484694909953
 30
0.0
 11
507.84518876061594
 21
312.90484694909958
 31
0.0
  0
LINE
  5
B7
100
AcDbEntity
  8
0
  6
Continuous
 62
               7
100
AcDbLine
 10
509.34518876061594
 20
305.20484694909942
 30
0.0
 11
509.34518876061594
 21
313.50484694909949
 31
0.0
  0
LINE
  5
B8
100
AcDbEntity
  8
0
  6
Continuous
 62
               7
100
AcDbLine
 10
507.84518876061594
 20
312.90484694909946
 30
0.0
 11
508.89518876061589
 21
313.95484694909953
 31
0.0
  0
LINE
  5
B9
100
AcDbEntity
  8
0
  6
Continuous
 62
               7
100
AcDbLine
 10
509.34518876061594
 20
313.50484694909949
 30
0.0
 11
508.89518876061589
 21
313.95484694909953
 31
0.0
  0
LINE
  5
BA
100
AcDbEntity
  8
0
  6
Continuous
 62
               7
100
AcDbLine
 10
509.34518876061594
 20
313.50484694909949
 30
0.0
 11
509.84518876061594
 21
313.70484694909942
 31
0.0
  0
LINE
  5
BB
100
AcDbEntity
  8
0
  6
Continuous
 62
               7
100
AcDbLine
 10
509.84518876061594
 20
304.70484694909942
 30
0.0
 11
509.34518876061594
 21
305.20484694909942
 31
0.0
  0
LINE
  5
BC
100
AcDbEntity
  8
0
  6
Continuous
 62
               2
100
AcDbLine
 10
437.16061013078445
 20
340.9058743463595
 30
0.0
 11
537.16061013078433
 21
340.9058743463595
 31
0.0
  0
LINE
  5
BD
100
AcDbEntity
  8
0
  6
Continuous
 62
               2
100
AcDbLine
 10
457.16061013078445
 20
342.9058926569063
 30
0.0
 11
566.16061013078433
 21
342.90587409086345
 31
0.0
  0
LINE
  5
BE
100
AcDbEntity
  8
0
  6
DASHED
 62
               6
100
AcDbLine
 10
437.16061013078445
 20
341.9058743463595
 30
0.0
 11
535.66061013078433
 21
341.9058743463595
 31
0.0
  0
LINE
  5
BF
100
AcDbEntity
  8
0
  6
DASHED
 62
               6
100
AcDbLine
 10
437.16061013078445
 20
341.9058743463595
 30
0.0
 11
429.75014917393071
 21
341.4058743463595
 31
0.0
  0
LINE
  5
C0
100
AcDbEntity
  8
0
  6
Continuous
 62
               2
100
AcDbLine
 10
537.16061013078433
 20
340.9058743463595
 30
0.0
 11
537.16061013078433
 21
130.90587434635952
 31
0.0
  0
LINE
  5
C1
100
AcDbEntity
  8
0
  6
Continuous
 62
               6
100
AcDbLine
 10
531.06061022615177
 20
321.4058743463595
 30
0.0
 11
490.26061003541702
 21
321.4058743463595
 31
0.0
  0
LINE
  5
C2
100
AcDbEntity
  8
0
  6
Continuous
 62
               6
100
AcDbLine
 10
485.66061013078445
 20
316.80587444172693
 30
0.0
 11
485.66061013078445
 21
301.40587434635927
 31
0.0
  0
LINE
  5
C3
100
AcDbEntity
  8
0
  6
Continuous
 62
               6
100
AcDbLine
 10
485.66061013078445
 20
301.40587434635927
 30
0.0
 11
487.96061008310073
 21
301.40587434635927
 31
0.0
  0
LINE
  5
C4
100
AcDbEntity
  8
0
  6
Continuous
 62
               6
100
AcDbLine
 10
487.96061008310073
 20
301.40587434635927
 30
0.0
 11
487.96061008310073
 21
316.80587444172693
 31
0.0
  0
LINE
  5
C5
100
AcDbEntity
  8
0
  6
Continuous
 62
               6
100
AcDbLine
 10
490.26061003541702
 20
319.10587439404333
 30
0.0
 11
531.06061022615177
 21
319.10587439404333
 31
0.0
  0
LINE
  5
C6
100
AcDbEntity
  8
0
  6
Continuous
 62
               6
100
AcDbLine
 10
533.36061017846805
 20
316.80587444172693
 30
0.0
 11
533.36061017846805
 21
226.00587425099181
 31
0.0
  0
LINE
  5
C7
100
AcDbEntity
  8
0
  6
Continuous
 62
               6
100
AcDbLine
 10
531.06061022615177
 20
223.70587429867564
 30
0.0
 11
490.26061003541702
 21
223.70587429867564
 31
0.0
  0
LINE
  5
C8
100
AcDbEntity
  8
0
  6
Continuous
 62
               6
100
AcDbLine
 10
487.96061008310073
 20
226.00587425099181
 30
0.0
 11
487.96061008310073
 21
241.4058743463593
 31
0.0
  0
LINE
  5
C9
100
AcDbEntity
  8
0
  6
Continuous
 62
               6
100
AcDbLine
 10
487.96061008310073
 20
241.4058743463593
 30
0.0
 11
485.66061013078445
 21
241.4058743463593
 31
0.0
  0
LINE
  5
CA
100
AcDbEntity
  8
0
  6
Continuous
 62
               6
100
AcDbLine
 10
485.66061013078445
 20
241.4058743463593
 30
0.0
 11
485.66061013078445
 21
226.00587425099181
 31
0.0
  0
LINE
  5
CB
100
AcDbEntity
  8
0
  6
Continuous
 62
               6
100
AcDbLine
 10
490.26061003541702
 20
221.4058743463593
 30
0.0
 11
531.06061022615177
 21
221.4058743463593
 31
0.0
  0
LINE
  5
CC
100
AcDbEntity
  8
0
  6
Continuous
 62
               6
100
AcDbLine
 10
535.66061013078433
 20
226.00587425099181
 30
0.0
 11
535.66061013078433
 21
316.80587444172693
 31
0.0
  0
LINE
  5
CD
100
AcDbEntity
  8
0
  6
Continuous
 62
               6
100
AcDbLine
 10
485.66059794974183
 20
321.4058743463595
 30
0.0
 11
485.66061013078445
 21
221.4058743463593
 31
0.0
  0
LINE
  5
CE
100
AcDbEntity
  8
0
  6
Continuous
 62
               6
100
AcDbLine
 10
182.16061013078445
 20
221.4058743463593
 30
0.0
 11
485.66061013078445
 21
221.4058743463593
 31
0.0
  0
LINE
  5
CF
100
AcDbEntity
  8
0
  6
Continuous
 62
               6
100
AcDbLine
 10
182.16061013078445
 20
241.4058743463593
 30
0.0
 11
485.66061013078445
 21
241.4058743463593
 31
0.0
  0
LINE
  5
D0
100
AcDbEntity
  8
0
  6
Continuous
 62
               6
100
AcDbLine
 10
182.16061013078445
 20
301.40587434635927
 30
0.0
 11
485.66061013078445
 21
301.40587434635927
 31
0.0
  0
LINE
  5
D1
100
AcDbEntity
  8
0
  6
DASHED
 62
               6
100
AcDbLine
 10
182.16061013078445
 20
319.10587434635966
 30
0.0
 11
485.66061013078445
 21
319.10587434635966
 31
0.0
  0
LINE
  5
D2
100
AcDbEntity
  8
0
  6
DASHED
 62
               6
100
AcDbLine
 10
182.16061013078445
 20
223.70587434635931
 30
0.0
 11
485.66061013078445
 21
223.70587434635931
 31
0.0
  0
LINE
  5
D3
100
AcDbEntity
  8
0
  6
Continuous
 62
               6
100
AcDbLine
 10
505.66061013078445
 20
221.4058743463593
 30
0.0
 11
475.66061013078445
 21
221.4058743463593
 31
0.0
  0
LINE
  5
D4
100
AcDbEntity
  8
0
  6
Continuous
 62
               6
100
AcDbLine
 10
475.66061013078445
 20
221.4058743463593
 30
0.0
 11
475.66061013078445
 21
220.4058743463593
 31
0.0
  0
LINE
  5
D5
100
AcDbEntity
  8
0
  6
Continuous
 62
               6
100
AcDbLine
 10
477.66061013078445
 20
218.4058743463593
 30
0.0
 11
498.66061013078445
 21
218.4058743463593
 31
0.0
  0
LINE
  5
D6
100
AcDbEntity
  8
0
  6
Continuous
 62
               6
100
AcDbLine
 10
502.66061013078445
 20
214.4058743463593
 30
0.0
 11
502.66061013078445
 21
193.4058743463593
 31
0.0
  0
LINE
  5
D7
100
AcDbEntity
  8
0
  6
Continuous
 62
               6
100
AcDbLine
 10
504.66061013078445
 20
191.4058743463593
 30
0.0
 11
505.66061013078445
 21
191.4058743463593
 31
0.0
  0
LINE
  5
D8
100
AcDbEntity
  8
0
  6
Continuous
 62
               6
100
AcDbLine
 10
505.66061013078445
 20
191.4058743463593
 30
0.0
 11
505.66061013078445
 21
221.4058743463593
 31
0.0
  0
LINE
  5
D9
100
AcDbEntity
  8
0
  6
Continuous
 62
               6
100
AcDbLine
 10
505.66061013078456
 20
186.4058743463593
 30
0.0
 11
535.66061013078456
 21
186.40587434635941
 31
0.0
  0
LINE
  5
DA
100
AcDbEntity
  8
0
  6
Continuous
 62
               6
100
AcDbLine
 10
535.66061013078456
 20
186.40587434635941
 30
0.0
 11
535.66061013078456
 21
187.40587434635941
 31
0.0
  0
LINE
  5
DB
100
AcDbEntity
  8
0
  6
Continuous
 62
               6
100
AcDbLine
 10
533.66061013078456
 20
189.40587434635941
 30
0.0
 11
512.66061013078456
 21
189.4058743463593
 31
0.0
  0
LINE
  5
DC
100
AcDbEntity
  8
0
  6
Continuous
 62
               6
100
AcDbLine
 10
508.66061013078462
 20
193.4058743463593
 30
0.0
 11
508.66061013078439
 21
214.4058743463593
 31
0.0
  0
LINE
  5
DD
100
AcDbEntity
  8
0
  6
Continuous
 62
               6
100
AcDbLine
 10
506.66061013078439
 20
216.4058743463593
 30
0.0
 11
505.66061013078445
 21
216.4058743463593
 31
0.0
  0
LINE
  5
DE
100
AcDbEntity
  8
0
  6
Continuous
 62
               6
100
AcDbLine
 10
505.66061013078445
 20
216.4058743463593
 30
0.0
 11
505.66061013078456
 21
186.4058743463593
 31
0.0
  0
LINE
  5
DF
100
AcDbEntity
  8
0
  6
Continuous
 62
               4
100
AcDbLine
 10
537.16059882278182
 20
206.75586946610414
 30
0.0
 11
611.61154170638542
 21
246.85338838700264
 31
0.0
  0
LINE
  5
E0
100
AcDbEntity
  8
0
  6
Continuous
 62
               4
100
AcDbLine
 10
611.61154170638542
 20
246.85338838700264
 30
0.0
 11
709.6153757945392
 21
246.85338838700264
 31
0.0
  0
LINE
  5
E1
100
AcDbEntity
  8
0
  6
Continuous
 62
               4
100
AcDbLine
 10
537.16061013078433
 20
206.75587434635932
 30
0.0
 11
545.61784371785757
 21
209.83405563629034
 31
0.0
  0
LINE
  5
E2
100
AcDbEntity
  8
0
  6
Continuous
 62
               4
100
AcDbLine
 10
537.16061013078433
 20
206.75587434635932
 30
0.0
 11
544.05501011885531
 21
212.54096283353815
 31
0.0
  0
LINE
  5
E3
100
AcDbEntity
  8
0
  6
Continuous
 62
               4
100
AcDbLine
 10
535.66061013078388
 20
151.81012450482089
 30
0.0
 11
612.16061013078547
 21
193.09066875187952
 31
0.0
  0
LINE
  5
E4
100
AcDbEntity
  8
0
  6
Continuous
 62
               4
100
AcDbLine
 10
612.16061013078547
 20
193.09066875187952
 30
0.0
 11
639.24610379309456
 21
193.09066875187952
 31
0.0
  0
LINE
  5
E5
100
AcDbEntity
  8
0
  6
Continuous
 62
               4
100
AcDbLine
 10
535.66061013078388
 20
151.81012450482089
 30
0.0
 11
544.11784371785711
 21
154.88830579475191
 31
0.0
  0
LINE
  5
E6
100
AcDbEntity
  8
0
  6
Continuous
 62
               4
100
AcDbLine
 10
535.66061013078388
 20
151.81012450482089
 30
0.0
 11
542.55501011885463
 21
157.59521299199983
 31
0.0
  0
LINE
  5
E7
100
AcDbEntity
  8
0
  6
Continuous
 62
               2
100
AcDbLine
 10
535.66061013078388
 20
165.40587434635941
 30
0.0
 11
535.66061013078456
 21
130.40587434635941
 31
0.0
  0
LINE
  5
E8
100
AcDbEntity
  8
0
  6
Continuous
 62
               2
100
AcDbLine
 10
533.29706685277574
 20
147.3832616698098
 30
0.0
 11
534.16061013078433
 21
130.90587434635941
 31
0.0
  0
LINE
  5
E9
100
AcDbEntity
  8
0
  6
Continuous
 62
               3
100
AcDbLine
 10
534.16061013078388
 20
164.4058743463593
 30
0.0
 11
182.16061013078445
 21
164.4058743463556
 31
0.0
  0
LINE
  5
EA
100
AcDbEntity
  8
0
  6
Continuous
 62
               2
100
AcDbLine
 10
535.66061013078388
 20
165.40587434635941
 30
0.0
 11
495.66061013078399
 21
165.40587434635913
 31
0.0
  0
LINE
  5
EB
100
AcDbEntity
  8
0
  6
Continuous
 62
               3
100
AcDbLine
 10
534.16061013078388
 20
164.4058743463593
 30
0.0
 11
534.16061013078411
 21
155.4058743463593
 31
0.0
  0
LINE
  5
EC
100
AcDbEntity
  8
0
  6
Continuous
 62
               3
100
AcDbLine
 10
534.16061013078411
 20
155.4058743463593
 30
0.0
 11
182.16061013078445
 21
155.4058743463556
 31
0.0
  0
LINE
  5
ED
100
AcDbEntity
  8
0
  6
Continuous
 62
               7
100
AcDbLine
 10
534.16061013078411
 20
157.6558743463593
 30
0.0
 11
182.16061013078445
 21
157.6558743463556
 31
0.0
  0
LINE
  5
EE
100
AcDbEntity
  8
0
  6
Continuous
 62
               7
100
AcDbLine
 10
534.16061013078411
 20
159.9058743463593
 30
0.0
 11
182.16061013078445
 21
159.9058743463556
 31
0.0
  0
LINE
  5
EF
100
AcDbEntity
  8
0
  6
Continuous
 62
               7
100
AcDbLine
 10
534.16061013078388
 20
162.1558743463593
 30
0.0
 11
182.16061013078445
 21
162.1558743463556
 31
0.0
  0
LINE
  5
F0
100
AcDbEntity
  8
0
  6
DIVIDE
 62
               4
100
AcDbLine
 10
535.66061013078388
 20
166.40587434635941
 30
0.0
 11
182.16061013078445
 21
166.40587434635913
 31
0.0
  0
LINE
  5
F1
100
AcDbEntity
  8
0
  6
DIVIDE
 62
               4
100
AcDbLine
 10
535.66061013078388
 20
166.40587434635941
 30
0.0
 11
535.66061013078365
 21
186.40587434635952
 31
0.0
  0
LINE
  5
F2
100
AcDbEntity
  8
0
  6
DIVIDE
 62
               4
100
AcDbLine
 10
535.66061013078388
 20
166.90587434635941
 30
0.0
 11
182.16061013078445
 21
166.90587434635913
 31
0.0
  0
LINE
  5
F3
100
AcDbEntity
  8
0
  6
Continuous
 62
               7
100
AcDbLine
 10
521.54083332480559
 20
183.54627172291461
 30
0.0
 11
521.54083332480491
 21
165.04627172291421
 31
0.0
  0
LINE
  5
F4
100
AcDbEntity
  8
0
  6
Continuous
 62
               7
100
AcDbLine
 10
519.04083332480468
 20
163.04627172291433
 30
0.0
 11
519.04083332480468
 21
165.04627172291433
 31
0.0
  0
LINE
  5
F5
100
AcDbEntity
  8
0
  6
Continuous
 62
               7
100
AcDbLine
 10
526.54083332480559
 20
183.54627172291444
 30
0.0
 11
526.54083332480468
 21
165.0462717229141
 31
0.0
  0
LINE
  5
F6
100
AcDbEntity
  8
0
  6
Continuous
 62
               7
100
AcDbLine
 10
529.04083332480468
 20
163.04627172291393
 30
0.0
 11
529.04083332480491
 21
165.0462717229141
 31
0.0
  0
LINE
  5
F7
100
AcDbEntity
  8
0
  6
Continuous
 62
               7
100
AcDbLine
 10
526.54083332480559
 20
183.54627172291444
 30
0.0
 11
524.04083332480559
 21
185.0462717229145
 31
0.0
  0
LINE
  5
F8
100
AcDbEntity
  8
0
  6
Continuous
 62
               7
100
AcDbLine
 10
521.54083332480559
 20
183.54627172291461
 30
0.0
 11
524.04083332480559
 21
185.0462717229145
 31
0.0
  0
LINE
  5
F9
100
AcDbEntity
  8
0
  6
Continuous
 62
               7
100
AcDbLine
 10
529.04083332480491
 20
165.0462717229141
 30
0.0
 11
519.04083332480468
 21
165.04627172291433
 31
0.0
  0
LINE
  5
FA
100
AcDbEntity
  8
0
  6
Continuous
 62
               7
100
AcDbLine
 10
521.54083332480491
 20
169.04627172291444
 30
0.0
 11
526.54083332480513
 21
171.04627172291444
 31
0.0
  0
LINE
  5
FB
100
AcDbEntity
  8
0
  6
Continuous
 62
               7
100
AcDbLine
 10
526.54083332480513
 20
173.04627172291444
 30
0.0
 11
521.54083332480491
 21
171.04627172291461
 31
0.0
  0
LINE
  5
FC
100
AcDbEntity
  8
0
  6
Continuous
 62
               7
100
AcDbLine
 10
521.54083332480513
 20
173.04627172291461
 30
0.0
 11
526.54083332480536
 21
175.04627172291444
 31
0.0
  0
LINE
  5
FD
100
AcDbEntity
  8
0
  6
Continuous
 62
               7
100
AcDbLine
 10
526.54083332480536
 20
177.04627172291433
 30
0.0
 11
521.54083332480536
 21
175.04627172291461
 31
0.0
  0
LINE
  5
FE
100
AcDbEntity
  8
0
  6
Continuous
 62
               7
100
AcDbLine
 10
526.54083332480559
 20
179.04627172291444
 30
0.0
 11
523.54083332480536
 21
177.84627172291462
 31
0.0
  0
LINE
  5
FF
100
AcDbEntity
  8
0
  6
Continuous
 62
               7
100
AcDbLine
 10
522.04083332480559
 20
183.0462717229145
 30
0.0
 11
522.04083332480536
 21
177.2462717229146
 31
0.0
  0
LINE
  5
100
100
AcDbEntity
  8
0
  6
Continuous
 62
               7
100
AcDbLine
 10
521.54083332480559
 20
183.54627172291461
 30
0.0
 11
522.04083332480559
 21
183.0462717229145
 31
0.0
  0
LINE
  5
101
100
AcDbEntity
  8
0
  6
Continuous
 62
               7
100
AcDbLine
 10
522.04083332480536
 20
177.24627172291483
 30
0.0
 11
522.49083332480541
 21
176.79627172291461
 31
0.0
  0
LINE
  5
102
100
AcDbEntity
  8
0
  6
Continuous
 62
               7
100
AcDbLine
 10
523.54083332480536
 20
177.84627172291462
 30
0.0
 11
522.49083332480541
 21
176.79627172291461
 31
0.0
  0
LINE
  5
103
100
AcDbEntity
  8
0
  6
Continuous
 62
               7
100
AcDbLine
 10
522.04083332480536
 20
177.2462717229146
 30
0.0
 11
521.54083332480536
 21
177.04627172291461
 31
0.0
  0
LINE
  5
104
100
AcDbEntity
  8
0
  6
DIVIDE
 62
               4
100
AcDbLine
 10
535.66061013078388
 20
185.90587434635941
 30
0.0
 11
182.16061013078445
 21
185.90587434635913
 31
0.0
  0
LINE
  5
105
100
AcDbEntity
  8
0
  6
DIVIDE
 62
               4
100
AcDbLine
 10
535.66061013078388
 20
186.40587434635941
 30
0.0
 11
182.16061013078445
 21
186.40587434635913
 31
0.0
  0
LINE
  5
106
100
AcDbEntity
  8
0
  6
Continuous
 62
               7
100
AcDbLine
 10
225.31032170534036
 20
321.4058743463595
 30
0.0
 11
243.31032170534036
 21
339.4058743463595
 31
0.0
  0
LINE
  5
107
100
AcDbEntity
  8
0
  6
Continuous
 62
               7
100
AcDbLine
 10
218.239253893475
 20
321.4058743463595
 30
0.0
 11
236.239253893475
 21
339.4058743463595
 31
0.0
  0
LINE
  5
108
100
AcDbEntity
  8
0
  6
Continuous
 62
               7
100
AcDbLine
 10
211.16818608160946
 20
321.4058743463595
 30
0.0
 11
229.16818608160946
 21
339.4058743463595
 31
0.0
  0
LINE
  5
109
100
AcDbEntity
  8
0
  6
Continuous
 62
               7
100
AcDbLine
 10
204.09711826974399
 20
321.4058743463595
 30
0.0
 11
222.09711826974399
 21
339.4058743463595
 31
0.0
  0
LINE
  5
10A
100
AcDbEntity
  8
0
  6
Continuous
 62
               7
100
AcDbLine
 10
197.02605045787845
 20
321.4058743463595
 30
0.0
 11
215.02605045787845
 21
339.4058743463595
 31
0.0
  0
LINE
  5
10B
100
AcDbEntity
  8
0
  6
Continuous
 62
               7
100
AcDbLine
 10
189.95498264601309
 20
321.4058743463595
 30
0.0
 11
207.95498264601309
 21
339.4058743463595
 31
0.0
  0
LINE
  5
10C
100
AcDbEntity
  8
0
  6
Continuous
 62
               7
100
AcDbLine
 10
182.88391483414756
 20
321.4058743463595
 30
0.0
 11
200.88391483414756
 21
339.4058743463595
 31
0.0
  0
LINE
  5
10D
100
AcDbEntity
  8
0
  6
Continuous
 62
               7
100
AcDbLine
 10
182.16061013078445
 20
327.75363745486197
 30
0.0
 11
193.81284702228209
 21
339.4058743463595
 31
0.0
  0
LINE
  5
10E
100
AcDbEntity
  8
0
  6
Continuous
 62
               7
100
AcDbLine
 10
182.16061013078445
 20
334.82470526672728
 30
0.0
 11
186.74177921041655
 21
339.4058743463595
 31
0.0
  0
LINE
  5
10F
100
AcDbEntity
  8
0
  6
Continuous
 62
               2
100
AcDbLine
 10
537.74562078352324
 20
313.83898498174705
 30
0.0
 11
540.96061013078452
 21
305.00587434635946
 31
0.0
  0
LINE
  5
110
100
AcDbEntity
  8
0
  6
Continuous
 62
               4
100
AcDbLine
 10
547.56061013078443
 20
304.40587434635944
 30
0.0
 11
608.16061013078456
 21
304.40587434635944
 31
0.0
  0
LINE
  5
111
100
AcDbEntity
  8
0
  6
Continuous
 62
               4
100
AcDbLine
 10
542.16061013078433
 20
280.40587434635944
 30
0.0
 11
542.16061013078433
 21
299.00587434635946
 31
0.0
  0
LINE
  5
112
100
AcDbEntity
  8
0
  6
Continuous
 62
               4
100
AcDbLine
 10
542.16061013078433
 20
283.40587434635944
 30
0.0
 11
537.16061013078433
 21
283.40587434635944
 31
0.0
  0
LINE
  5
113
100
AcDbEntity
  8
0
  6
Continuous
 62
               2
100
AcDbLine
 10
542.16061013078445
 20
305.00587434635952
 30
0.0
 11
542.16061013078433
 21
340.60587434635954
 31
0.0
  0
LINE
  5
114
100
AcDbEntity
  8
0
  6
Continuous
 62
               4
100
AcDbLine
 10
605.16061013078456
 20
304.40587434635938
 30
0.0
 11
605.16061013078456
 21
344.4058743463595
 31
0.0
  0
LINE
  5
115
100
AcDbEntity
  8
0
  6
Continuous
 62
               4
100
AcDbLine
 10
14.142135623730949
 20
595.85786437626905
 30
0.0
 11
14.142135623730949
 21
615.85786437626905
 31
0.0
  0
LINE
  5
116
100
AcDbEntity
  8
0
  6
Continuous
 62
               4
100
AcDbLine
 10
164.14213562373095
 20
595.85786437626905
 30
0.0
 11
14.142135623730949
 21
595.85786437626905
 31
0.0
  0
LINE
  5
117
100
AcDbEntity
  8
0
  6
Continuous
 62
               4
100
AcDbLine
 10
164.14213562373095
 20
615.85786437626905
 30
0.0
 11
164.14213562373095
 21
595.85786437626905
 31
0.0
  0
LINE
  5
118
100
AcDbEntity
  8
0
  6
Continuous
 62
               4
100
AcDbLine
 10
164.14213562373095
 20
615.85786437626905
 30
0.0
 11
14.142135623730949
 21
615.85786437626905
 31
0.0
  0
LINE
  5
119
100
AcDbEntity
  8
0
  6
Continuous
 62
               4
100
AcDbLine
 10
714.78679656440374
 20
21.213203435596483
 30
0.0
 11
714.78679656440374
 21
41.213203435596483
 31
0.0
  0
LINE
  5
11A
100
AcDbEntity
  8
0
  6
Continuous
 62
               4
100
AcDbLine
 10
864.78679656440374
 20
21.213203435596483
 30
0.0
 11
714.78679656440374
 21
21.213203435596483
 31
0.0
  0
LINE
  5
11B
100
AcDbEntity
  8
0
  6
Continuous
 62
               4
100
AcDbLine
 10
864.78679656440374
 20
41.213203435596483
 30
0.0
 11
864.78679656440374
 21
21.213203435596483
 31
0.0
  0
LINE
  5
11C
100
AcDbEntity
  8
0
  6
Continuous
 62
               4
100
AcDbLine
 10
864.78679656440374
 20
41.213203435596483
 30
0.0
 11
714.78679656440374
 21
41.213203435596483
 31
0.0
  0
LINE
  5
11D
100
AcDbEntity
  8
0
  6
Continuous
 62
               2
100
AcDbLine
 10
567.16061013078433
 20
359.4058743463595
 30
0.0
 11
182.16061013078445
 21
359.4058743463595
 31
0.0
  0
LINE
  5
11E
100
AcDbEntity
  8
0
  6
Continuous
 62
               4
100
AcDbLine
 10
567.16061013078433
 20
362.40587434635944
 30
0.0
 11
567.16061013078433
 21
390.40587434635944
 31
0.0
  0
LINE
  5
11F
100
AcDbEntity
  8
0
  6
Continuous
 62
               4
100
AcDbLine
 10
567.16061013078433
 20
387.40587434635944
 30
0.0
 11
542.16061013078433
 21
387.40587434635944
 31
0.0
  0
LINE
  5
120
100
AcDbEntity
  8
0
  6
Continuous
 62
               4
100
AcDbLine
 10
542.16061013078433
 20
390.40587434635944
 30
0.0
 11
542.16061013078433
 21
349.4058743463595
 31
0.0
  0
LINE
  5
121
100
AcDbEntity
  8
0
  6
Continuous
 62
               2
100
AcDbLine
 10
567.16061013078433
 20
359.40587434635944
 30
0.0
 11
567.16061013078433
 21
331.00587434635952
 31
0.0
  0
LINE
  5
122
100
AcDbEntity
  8
0
  6
Continuous
 62
               4
100
AcDbLine
 10
567.16061013078433
 20
354.40587434635944
 30
0.0
 11
182.16061013078445
 21
354.40587434635944
 31
0.0
  0
CIRCLE
  5
123
100
AcDbEntity
  8
0
  6
Continuous
 62
               4
100
AcDbCircle
 10
591.16061013078433
 20
344.4058743463595
 30
0.0
 40
1.5
  0
CIRCLE
  5
124
100
AcDbEntity
  8
0
  6
Continuous
 62
               4
100
AcDbCircle
 10
591.16061013078433
 20
329.4058743463595
 30
0.0
 40
1.5
  0
CIRCLE
  5
125
100
AcDbEntity
  8
0
  6
Continuous
 62
               4
100
AcDbCircle
 10
605.16061013078456
 20
344.4058743463595
 30
0.0
 40
1.5
  0
CIRCLE
  5
126
100
AcDbEntity
  8
0
  6
Continuous
 62
               4
100
AcDbCircle
 10
314.77984880838619
 20
330.4058743463595
 30
0.0
 40
1.5
  0
CIRCLE
  5
127
100
AcDbEntity
  8
0
  6
Continuous
 62
               4
100
AcDbCircle
 10
321.13070176947201
 20
341.4058743463595
 30
0.0
 40
1.5
  0
CIRCLE
  5
128
100
AcDbEntity
  8
0
  6
Continuous
 62
               4
100
AcDbCircle
 10
322.86275257704096
 20
344.4058743463595
 30
0.0
 40
1.5
  0
CIRCLE
  5
129
100
AcDbEntity
  8
0
  6
Continuous
 62
               4
100
AcDbCircle
 10
255.87633888332255
 20
321.4058743463595
 30
0.0
 40
1.5
  0
CIRCLE
  5
12A
100
AcDbEntity
  8
0
  6
Continuous
 62
               4
100
AcDbCircle
 10
255.87633888332255
 20
339.4058743463595
 30
0.0
 40
1.5
  0
CIRCLE
  5
12B
100
AcDbEntity
  8
0
  6
Continuous
 62
               4
100
AcDbCircle
 10
605.16061013078456
 20
304.40587434635944
 30
0.0
 40
1.5
  0
CIRCLE
  5
12C
100
AcDbEntity
  8
0
  6
Continuous
 62
               4
100
AcDbCircle
 10
542.16061013078433
 20
283.40587434635944
 30
0.0
 40
1.5
  0
CIRCLE
  5
12D
100
AcDbEntity
  8
0
  6
Continuous
 62
               4
100
AcDbCircle
 10
537.16061013078433
 20
283.40587434635944
 30
0.0
 40
1.5
  0
CIRCLE
  5
12E
100
AcDbEntity
  8
0
  6
Continuous
 62
               4
100
AcDbCircle
 10
567.16061013078433
 20
387.40587434635944
 30
0.0
 40
1.5
  0
CIRCLE
  5
12F
100
AcDbEntity
  8
0
  6
Continuous
 62
               4
100
AcDbCircle
 10
542.16061013078433
 20
387.40587434635944
 30
0.0
 40
1.5
  0
ARC
  5
130
100
AcDbEntity
  8
0
  6
Continuous
 62
               2
100
AcDbCircle
 10
565.56061013078443
 20
330.50587434635952
 30
0.0
 40
0.600000000000001
100
AcDbArc
 50
180.0
 51
0.0
  0
ARC
  5
131
100
AcDbEntity
  8
0
  6
Continuous
 62
               2
100
AcDbCircle
 10
565.56061013078443
 20
331.00587434635952
 30
0.0
 40
1.600000000000001
100
AcDbArc
 50
180.0
 51
0.0
  0
ARC
  5
132
100
AcDbEntity
  8
0
  6
Continuous
 62
               2
100
AcDbCircle
 10
564.66061013078433
 20
340.30587434635947
 30
0.0
 40
0.3
100
AcDbArc
 50
0.0
 51
90.000000000000028
  0
ARC
  5
133
100
AcDbEntity
  8
0
  6
Continuous
 62
               7
100
AcDbCircle
 10
464.14881427852379
 20
309.23982080598932
 30
0.0
 40
30.0
100
AcDbArc
 50
344.86278517270802
 51
2.9923020128758626
  0
ARC
  5
134
100
AcDbEntity
  8
0
  6
Continuous
 62
               7
100
AcDbCircle
 10
477.88609204010936
 20
311.33879340872898
 30
0.0
 40
30.0
100
AcDbArc
 50
344.86278517270802
 51
2.9923020128758626
  0
ARC
  5
135
100
AcDbEntity
  8
0
  6
Continuous
 62
               6
100
AcDbCircle
 10
531.06061022615177
 20
316.80587444172693
 30
0.0
 40
2.2999999523162842
100
AcDbArc
 50
0.0
 51
90.000000000000028
  0
ARC
  5
136
100
AcDbEntity
  8
0
  6
Continuous
 62
               6
100
AcDbCircle
 10
531.06061022615177
 20
316.80587444172693
 30
0.0
 40
4.5999999046325684
100
AcDbArc
 50
0.0
 51
90.000000000000028
  0
ARC
  5
137
100
AcDbEntity
  8
0
  6
Continuous
 62
               6
100
AcDbCircle
 10
490.26061003541702
 20
316.80587444172693
 30
0.0
 40
2.2999999523162842
100
AcDbArc
 50
90.000000000000028
 51
180.0
  0
ARC
  5
138
100
AcDbEntity
  8
0
  6
Continuous
 62
               6
100
AcDbCircle
 10
490.26061003541702
 20
316.80587444172693
 30
0.0
 40
4.5999999046325684
100
AcDbArc
 50
90.000000000000028
 51
180.0
  0
ARC
  5
139
100
AcDbEntity
  8
0
  6
Continuous
 62
               6
100
AcDbCircle
 10
490.26061003541702
 20
226.00587425099181
 30
0.0
 40
4.5999999046325684
100
AcDbArc
 50
180.0
 51
270.0
  0
ARC
  5
13A
100
AcDbEntity
  8
0
  6
Continuous
 62
               6
100
AcDbCircle
 10
490.26061003541702
 20
226.00587425099181
 30
0.0
 40
2.2999999523162842
100
AcDbArc
 50
180.0
 51
270.0
  0
ARC
  5
13B
100
AcDbEntity
  8
0
  6
Continuous
 62
               6
100
AcDbCircle
 10
531.06061022615177
 20
226.00587425099181
 30
0.0
 40
2.2999999523162842
100
AcDbArc
 50
270.0
 51
0.0
  0
ARC
  5
13C
100
AcDbEntity
  8
0
  6
Continuous
 62
               6
100
AcDbCircle
 10
531.06061022615177
 20
226.00587425099181
 30
0.0
 40
4.5999999046325684
100
AcDbArc
 50
270.0
 51
0.0
  0
ARC
  5
13D
100
AcDbEntity
  8
0
  6
Continuous
 62
               6
100
AcDbCircle
 10
477.66061013078445
 20
220.4058743463593
 30
0.0
 40
2.0
100
AcDbArc
 50
180.0
 51
270.0
  0
ARC
  5
13E
100
AcDbEntity
  8
0
  6
Continuous
 62
               6
100
AcDbCircle
 10
504.66061013078445
 20
193.4058743463593
 30
0.0
 40
2.0
100
AcDbArc
 50
180.0
 51
270.0
  0
ARC
  5
13F
100
AcDbEntity
  8
0
  6
Continuous
 62
               6
100
AcDbCircle
 10
498.66061013078445
 20
214.4058743463593
 30
0.0
 40
4.0
100
AcDbArc
 50
0.0
 51
90.000000000000199
  0
ARC
  5
140
100
AcDbEntity
  8
0
  6
Continuous
 62
               6
100
AcDbCircle
 10
533.66061013078456
 20
187.40587434635941
 30
0.0
 40
2.0
100
AcDbArc
 50
0.0
 51
90.000000000000028
  0
ARC
  5
141
100
AcDbEntity
  8
0
  6
Continuous
 62
               6
100
AcDbCircle
 10
506.66061013078439
 20
214.4058743463593
 30
0.0
 40
2.0
100
AcDbArc
 50
0.0
 51
90.000000000000028
  0
ARC
  5
142
100
AcDbEntity
  8
0
  6
Continuous
 62
               6
100
AcDbCircle
 10
512.66061013078456
 20
193.4058743463593
 30
0.0
 40
4.0
100
AcDbArc
 50
180.0
 51
270.0
  0
ARC
  5
143
100
AcDbEntity
  8
0
  6
Continuous
 62
               2
100
AcDbCircle
 10
535.66061013078433
 20
130.90587434635952
 30
0.0
 40
1.500000000000004
100
AcDbArc
 50
180.0
 51
0.0
  0
ARC
  5
144
100
AcDbEntity
  8
0
  6
Continuous
 62
               7
100
AcDbCircle
 10
524.04083332480536
 20
175.0462717229145
 30
0.0
 40
13.0
100
AcDbArc
 50
247.38013505196099
 51
292.61986494804154
  0
ARC
  5
145
100
AcDbEntity
  8
0
  6
Continuous
 62
               7
100
AcDbCircle
 10
543.53105498812943
 20
178.47160191663434
 30
0.0
 40
20.0
100
AcDbArc
 50
161.71562731393624
 51
181.7917310571265
  0
ARC
  5
146
100
AcDbEntity
  8
0
  6
Continuous
 62
               2
100
AcDbCircle
 10
541.56061013078443
 20
305.00587434635946
 30
0.0
 40
0.600000000000001
100
AcDbArc
 50
180.0
 51
0.0
  0
TEXT
  5
147
100
AcDbEntity
  8
0
 62
               7
100
AcDbText
 10
589.66273208453072
 20
332.10641904002557
 30
0.0
 40
9.600000381469739
  1
15
 50
89.999982013910653
 41
0.7695
  7
FontTableH_0
 72
               5
 11
589.66273509812902
 21
341.70641942149484
 31
0.0
100
AcDbText
  0
TEXT
  5
148
100
AcDbEntity
  8
0
 62
               7
100
AcDbText
 10
588.59998794390572
 20
373.3132366669787
 30
0.0
 40
9.600000381469739
  1
ケラバ唐草：屋根同材
 41
0.7695
  7
FontTableH_0
 72
               5
 11
684.5999917586031
 21
373.3132366669787
 31
0.0
100
AcDbText
  0
TEXT
  5
149
100
AcDbEntity
  8
0
 62
               7
100
AcDbText
 10
398.86384292437447
 20
431.9357952607287
 30
0.0
 40
8.9999997615814333
  1
硬質木片セメント板 18mm
 41
0.7695
  7
FontTableH_0
 72
               5
 11
483.88170045891928
 21
431.9357952607287
 31
0.0
100
AcDbText
  0
TEXT
  5
14A
100
AcDbEntity
  8
0
 62
               7
100
AcDbText
 10
254.37836929156197
 20
325.60709042674432
 30
0.0
 40
9.600000381469739
  1
18
 50
89.999982013910653
 41
0.7695
  7
FontTableH_0
 72
               5
 11
254.37837230516027
 21
335.20709080821359
 31
0.0
100
AcDbText
  0
TEXT
  5
14B
100
AcDbEntity
  8
0
 62
               7
100
AcDbText
 10
398.86384292437447
 20
446.93695492869745
 30
0.0
 40
8.9999997615814333
  1
アスファルトルーフィング 22Kg
 41
0.7695
  7
FontTableH_0
 72
               5
 11
510.17266075978978
 21
446.93695492869745
 31
0.0
100
AcDbText
  0
TEXT
  5
14C
100
AcDbEntity
  8
0
 62
               7
100
AcDbText
 10
619.91431899859322
 20
248.35623593455679
 30
0.0
 40
8.9999997615814333
  1
ケラバ役物：屋根同材
 41
0.7695
  7
FontTableH_0
 72
               5
 11
709.91431661440754
 21
248.35623593455679
 31
0.0
100
AcDbText
  0
TEXT
  5
14D
100
AcDbEntity
  8
0
 62
               7
100
AcDbText
 10
618.93482681109322
 20
194.59360165721304
 30
0.0
 40
8.9999997615814333
  1
力板
 41
0.7695
  7
FontTableH_0
 72
               5
 11
636.93482633425606
 21
194.59360165721304
 31
0.0
100
AcDbText
  0
TEXT
  5
14E
100
AcDbEntity
  8
0
 62
               7
100
AcDbText
 10
537.26118179156197
 20
284.90640683299426
 30
0.0
 40
9.600000381469739
  1
5
 41
0.7695
  7
FontTableH_0
 72
               5
 11
542.06118198229683
 21
284.90640683299426
 31
0.0
100
AcDbText
  0
TEXT
  5
14F
100
AcDbEntity
  8
0
 62
               7
100
AcDbText
 10
603.66285582973853
 20
319.94342504577816
 30
0.0
 40
9.600000381469739
  1
40
 50
89.999982013910653
 41
0.7695
  7
FontTableH_0
 72
               5
 11
603.66285884333683
 21
329.54342542724743
 31
0.0
100
AcDbText
  0
TEXT
  5
150
100
AcDbEntity
  8
0
 62
               7
100
AcDbText
 10
740.28679787570582
 20
26.713203554805766
 30
0.0
 40
8.9999997615814333
  1
ケラバ詳細図 【S=1/3】
 41
0.7695
  7
FontTableH_0
 72
               5
 11
839.28679525310156
 21
26.713203554805766
 31
0.0
100
AcDbText
  0
TEXT
  5
151
100
AcDbEntity
  8
0
 62
               7
100
AcDbText
 10
549.86121841265572
 20
388.90778012400978
 30
0.0
 40
9.6000003814696804
  1
25
 41
0.7695
  7
FontTableH_0
 72
               5
 11
559.46121879412556
 21
388.90778012400978
 31
0.0
100
AcDbText
  0
TEXT
  5
152
100
AcDbEntity
  8
0
 62
               7
100
AcDbText
 10
398.86384292437447
 20
461.93695492869745
 30
0.0
 40
8.9999997615814333
  1
ハーパーズルーフ150：各種金属板
 41
0.7695
  7
FontTableH_0
 72
               5
 11
522.8638405633684
 21
461.93695492869745
 31
0.0
100
AcDbText
  0
TEXT
  5
153
100
AcDbEntity
  8
0
 62
               7
100
AcDbText
 10
46.392136756219159
 20
601.35786449547834
 30
0.0
 40
8.9999997615814333
  1
ハーパーズルーフ150
 41
0.7695
  7
FontTableH_0
 72
               5
 11
131.89213449124279
 21
601.35786449547834
 31
0.0
100
AcDbText
  0
ENDSEC
  0
SECTION
  2
OBJECTS
  0
DICTIONARY
  5
19
100
AcDbDictionary
  3
ACAD_GROUP
350
1A
  3
ACAD_MLINESTYLE
350
1B
  3
DWGPROPS
350
154
  0
DICTIONARY
  5
1A
102
{ACAD_REACTORS
330
19
102
}
100
AcDbDictionary
  0
DICTIONARY
  5
1B
102
{ACAD_REACTORS
330
19
102
}
100
AcDbDictionary
  3
STANDARD
350
1C
  0
MLINESTYLE
  5
1C
102
{ACAD_REACTORS
330
1B
102
}
100
AcDbMlineStyle
  2
Standard
 70
               0
  3

 62
               0
 51
90.0
 52
90.0
 71
               2
 49
0.5
 62
             256
  6
ByLayer
 49
-0.5
 62
             256
  6
ByLayer
  0
XRECORD
  5
154
100
AcDbXrecord
  1
DWGPROPS COOKIE
  2

  3

  4

  6

  7

  0
ENDSEC
  0
EOF
