  0
SECTION
  2
HEADER
  9
$ACADVER
  1
AC1014
  9
$ACADMAINTVER
 70
               0
  9
$DWGCODEPAGE
  3
ANSI_932
  9
$INSBASE
 10
0.0
 20
0.0
 30
0.0
  9
$EXTMIN
 10
0.0
 20
0.0
 30
0.0
  9
$EXTMAX
 10
891.00000000000091
 20
630.00000000000068
 30
0.0
  9
$LIMMIN
 10
0.0
 20
0.0
  9
$LIMMAX
 10
891.00000000000091
 20
630.00000000000068
  9
$ORTHOMODE
 70
               0
  9
$REGENMODE
 70
               1
  9
$FILLMODE
 70
               1
  9
$QTEXTMODE
 70
               0
  9
$MIRRTEXT
 70
               1
  9
$DRAGMODE
 70
               2
  9
$LTSCALE
 40
3.0000000000000031
  9
$OSMODE
 70
               0
  9
$ATTMODE
 70
               1
  9
$TEXTSIZE
 40
0.2
  9
$TRACEWID
 40
0.05
  9
$TEXTSTYLE
  7
Standard
  9
$CLAYER
  8
0
  9
$CELTYPE
  6
Continuous
  9
$CECOLOR
 62
             256
  9
$CELTSCALE
 40
1.0
  9
$DELOBJ
 70
               1
  9
$DISPSILH
 70
               0
  9
$DIMSCALE
 40
1.0
  9
$DIMASZ
 40
0.18
  9
$DIMEXO
 40
0.0625
  9
$DIMDLI
 40
0.38
  9
$DIMRND
 40
0.0
  9
$DIMDLE
 40
0.0
  9
$DIMEXE
 40
0.18
  9
$DIMTP
 40
0.0
  9
$DIMTM
 40
0.0
  9
$DIMTXT
 40
0.18
  9
$DIMCEN
 40
0.09
  9
$DIMTSZ
 40
0.0
  9
$DIMTOL
 70
               0
  9
$DIMLIM
 70
               0
  9
$DIMTIH
 70
               1
  9
$DIMTOH
 70
               1
  9
$DIMSE1
 70
               0
  9
$DIMSE2
 70
               0
  9
$DIMTAD
 70
               0
  9
$DIMZIN
 70
               0
  9
$DIMBLK
  1

  9
$DIMASO
 70
               1
  9
$DIMSHO
 70
               1
  9
$DIMPOST
  1

  9
$DIMAPOST
  1

  9
$DIMALT
 70
               0
  9
$DIMALTD
 70
               2
  9
$DIMALTF
 40
25.399999999999999
  9
$DIMLFAC
 40
1.0
  9
$DIMTOFL
 70
               0
  9
$DIMTVP
 40
0.0
  9
$DIMTIX
 70
               0
  9
$DIMSOXD
 70
               0
  9
$DIMSAH
 70
               0
  9
$DIMBLK1
  1

  9
$DIMBLK2
  1

  9
$DIMSTYLE
  2
Standard
  9
$DIMCLRD
 70
               0
  9
$DIMCLRE
 70
               0
  9
$DIMCLRT
 70
               0
  9
$DIMTFAC
 40
1.0
  9
$DIMGAP
 40
0.09
  9
$DIMJUST
 70
               0
  9
$DIMSD1
 70
               0
  9
$DIMSD2
 70
               0
  9
$DIMTOLJ
 70
               1
  9
$DIMTZIN
 70
               0
  9
$DIMALTZ
 70
               0
  9
$DIMALTTZ
 70
               0
  9
$DIMFIT
 70
               3
  9
$DIMUPT
 70
               0
  9
$DIMUNIT
 70
               2
  9
$DIMDEC
 70
               4
  9
$DIMTDEC
 70
               4
  9
$DIMALTU
 70
               2
  9
$DIMALTTD
 70
               2
  9
$DIMTXSTY
  7
Standard
  9
$DIMAUNIT
 70
               0
  9
$LUNITS
 70
               2
  9
$LUPREC
 70
               4
  9
$SKETCHINC
 40
0.1
  9
$FILLETRAD
 40
0.0
  9
$AUNITS
 70
               0
  9
$AUPREC
 70
               0
  9
$MENU
  1
acad
  9
$ELEVATION
 40
0.0
  9
$PELEVATION
 40
0.0
  9
$THICKNESS
 40
0.0
  9
$LIMCHECK
 70
               0
  9
$BLIPMODE
 70
               1
  9
$CHAMFERA
 40
0.0
  9
$CHAMFERB
 40
0.0
  9
$CHAMFERC
 40
0.0
  9
$CHAMFERD
 40
0.0
  9
$SKPOLY
 70
               0
  9
$TDCREATE
 40
0.000000000
  9
$TDUPDATE
 40
0.000000000
  9
$TDINDWG
 40
0.0000000000
  9
$TDUSRTIMER
 40
0.0000000000
  9
$USRTIMER
 70
               1
  9
$ANGBASE
 50
0.0
  9
$ANGDIR
 70
               0
  9
$PDMODE
 70
               0
  9
$PDSIZE
 40
0.0
  9
$PLINEWID
 40
0.0
  9
$COORDS
 70
               0
  9
$SPLFRAME
 70
               0
  9
$SPLINETYPE
 70
               6
  9
$SPLINESEGS
 70
               8
  9
$ATTDIA
 70
               0
  9
$ATTREQ
 70
               1
  9
$HANDLING
 70
               1
  9
$HANDSEED
  5
1E1
  9
$SURFTAB1
 70
               6
  9
$SURFTAB2
 70
               6
  9
$SURFTYPE
 70
               6
  9
$SURFU
 70
               6
  9
$SURFV
 70
               6
  9
$UCSNAME
  2

  9
$UCSORG
 10
0.0
 20
0.0
 30
0.0
  9
$UCSXDIR
 10
1.0
 20
0.0
 30
0.0
  9
$UCSYDIR
 10
0.0
 20
1.0
 30
0.0
  9
$PUCSNAME
  2

  9
$PUCSORG
 10
0.0
 20
0.0
 30
0.0
  9
$PUCSXDIR
 10
1.0
 20
0.0
 30
0.0
  9
$PUCSYDIR
 10
0.0
 20
1.0
 30
0.0
  9
$USERI1
 70
               0
  9
$USERI2
 70
               0
  9
$USERI3
 70
               0
  9
$USERI4
 70
               0
  9
$USERI5
 70
               0
  9
$USERR1
 40
0.0
  9
$USERR2
 40
0.0
  9
$USERR3
 40
0.0
  9
$USERR4
 40
0.0
  9
$USERR5
 40
0.0
  9
$WORLDVIEW
 70
               1
  9
$SHADEDGE
 70
               3
  9
$SHADEDIF
 70
              70
  9
$TILEMODE
 70
               1
  9
$MAXACTVP
 70
              16
  9
$PINSBASE
 10
0.0
 20
0.0
 30
0.0
  9
$PLIMCHECK
 70
               0
  9
$PEXTMIN
 10
1.0000000000000000E+20
 20
1.0000000000000000E+20
 30
1.0000000000000000E+20
  9
$PEXTMAX
 10
-1.0000000000000000E+20
 20
-1.0000000000000000E+20
 30
-1.0000000000000000E+20
  9
$PLIMMIN
 10
0.0
 20
0.0
  9
$PLIMMAX
 10
12.0
 20
9.0
  9
$UNITMODE
 70
               0
  9
$VISRETAIN
 70
               0
  9
$PLINEGEN
 70
               1
  9
$PSLTSCALE
 70
               0
  9
$TREEDEPTH
 70
            3020
  9
$PICKSTYLE
 70
               1
  9
$CMLSTYLE
  2
Standard
  9
$CMLJUST
 70
               0
  9
$CMLSCALE
 40
1.0
  9
$PROXYGRAPHICS
 70
               0
  9
$MEASUREMENT
 70
               0
  0
ENDSEC
  0
SECTION
  2
CLASSES
  0
CLASS
  1
LWPOLYLINE
  2
AcDbPolyline
  3
"AutoCAD"
 90
        0
280
               0
281
               1
  0
CLASS
  1
IMAGE
  2
AcDbRasterImage
  3
ISM
 90
      127
280
               0
281
               1
  0
CLASS
  1
OLE2FRAME
  2
AcDbOle2Frame
  3
""
 90
        0
280
               0
281
               1
  0
CLASS
  1
HATCH
  2
AcDbHatch
  3
"ACAD_SEDONA"
 90
        0
280
               0
281
               1
  0
CLASS
  1
DICTIONARYVAR
  2
AcDbDictionaryVar
  3
"AutoCAD"
 90
        0
280
               0
281
               0
  0
CLASS
  1
RASTERVARIABLES
  2
AcDbRasterVariables
  3
ISM
 90
        0
280
               0
281
               0
  0
CLASS
  1
IMAGEDEF
  2
AcDbRasterImageDef
  3
ISM
 90
        0
280
               0
281
               0
  0
CLASS
  1
IMAGEDEF_REACTOR
  2
AcDbRasterImageDefReactor
  3
ISM
 90
        1
280
               0
281
               0
  0
CLASS
  1
IDBUFFER
  2
AcDbIdBuffer
  3
"Acad"
 90
        0
280
               0
281
               0
  0
CLASS
  1
SPATIAL_FILTER
  2
AcDbSpatialFilter
  3
"Acad"
 90
        0
280
               0
281
               0
  0
CLASS
  1
XRECORD
  2
AcDbXrecord
  3
"<Built In>"
 90
        0
280
               0
281
               0
  0
CLASS
  1
SORTENTSTABLE
  2
AcDbSortentsTable
  3
"AutoCAD"
 90
        0
280
               0
281
               0
  0
CLASS
  1
LAYER_INDEX
  2
AcDbLayerIndex
  3
"Acad"
 90
        0
280
               0
281
               0
  0
CLASS
  1
SPATIAL_INDEX
  2
AcDbSpatialIndex
  3
"Acad"
 90
        0
280
               0
281
               0
  0
CLASS
  1
OBJECT_PTR
  2
CAseDLPNTableRecord
  3
"ASE-LPNTableRecord"
 90
        1
280
               0
281
               0
  0
CLASS
  1
LAYOUT
  2
AcDbLayout
  3
"AutoCAD 2000"
 90
        0
280
               0
281
               0
  0
CLASS
  1
PLOTSETTINGS
  2
AcDbPlotSettings
  3
"AutoCAD 2000"
 90
        0
280
               0
281
               0
  0
CLASS
  1
ACDBDICTIONARYWDFLT
  2
AcDbDictionaryWithDefault
  3
"AutoCAD 2000"
 90
        0
280
               0
281
               0
  0
CLASS
  1
ACDBPLACEHOLDER
  2
AcDbPlaceHolder
  3
"AutoCAD 2000"
 90
        0
280
               0
281
               0
  0
CLASS
  1
VBA_PROJECT
  2
AcDbVbaProject
  3
"acadvba"
 90
        0
280
               0
281
               0
  0
CLASS
  1
WIPEOUT
  2
AcDbWipeout
  3
WipeOut|AutoCAD Express Tool|expresstools@autodesk.com
 90
      127
280
               0
281
               1
  0
CLASS
  1
WIPEOUTVARIABLES
  2
AcDbWipeoutVariables
  3
WipeOut|AutoCAD Express Tool|expresstools@autodesk.com
 90
        0
280
               0
281
               0
  0
CLASS
  1
RTEXT
  2
RText
  3
RText|AutoCAD Express Tool|expresstools@autodesk.com
 90
        0
280
               0
281
               1
  0
CLASS
  1
ARCALIGNEDTEXT
  2
AcDbArcAlignedText
  3
ATEXT|AutoCAD Express Tool|expresstools@autodesk.com
 90
        0
280
               0
281
               1
  0
ENDSEC
  0
SECTION
  2
TABLES
  0
TABLE
  2
VPORT
  5
7
100
AcDbSymbolTable
 70
               1
  0
VPORT
  5
15
100
AcDbSymbolTableRecord
100
AcDbViewportTableRecord
  2
*ACTIVE
 70
               0
 10
0.0
 20
0.0
 11
1.0
 21
1.0
 12
445.50000000000045
 22
315.00000000000034
 13
0.0
 23
0.0
 14
10.0
 24
10.0
 15
10.0
 25
10.0
 16
0.0
 26
0.0
 36
1.0
 17
0.0
 27
0.0
 37
0.0
 40
630.00000000000068
 41
1.4142857142857141
 42
50.0
 43
0.0
 44
0.0
 50
0.0
 51
0.0
 71
               0
 72
             100
 73
               1
 74
               1
 75
               0
 76
               0
 77
               0
 78
               0
  0
ENDTAB
  0
TABLE
  2
LTYPE
  5
4
100
AcDbSymbolTable
 70
              24
  0
LTYPE
  5
11
100
AcDbSymbolTableRecord
100
AcDbLinetypeTableRecord
  2
ByBlock
 70
              64
  3

 72
              65
 73
               0
 40
0.0
  0
LTYPE
  5
12
100
AcDbSymbolTableRecord
100
AcDbLinetypeTableRecord
  2
ByLayer
 70
              64
  3

 72
              65
 73
               0
 40
0.0
  0
LTYPE
  5
13
100
AcDbSymbolTableRecord
100
AcDbLinetypeTableRecord
  2
Continuous
 70
              64
  3
Solid line
 72
              65
 73
               0
 40
0.0
  0
LTYPE
  5
1D
100
AcDbSymbolTableRecord
100
AcDbLinetypeTableRecord
  2
DOT
 70
              64
  3
Dot . . . . . . . . . . . . . . . . . . . . . .
 72
              65
 73
               2
 40
6.3499999999999996
 49
0.35
 74
               0
 49
-6.0
 74
               0
  0
LTYPE
  5
1E
100
AcDbSymbolTableRecord
100
AcDbLinetypeTableRecord
  2
DASHED
 70
              64
  3
Dashed __ __ __ __ __ __ __ __ __ __ __ __ __ _
 72
              65
 73
               2
 40
12.699999999999999
 49
6.3499999999999996
 74
               0
 49
-6.3499999999999996
 74
               0
  0
LTYPE
  5
1F
100
AcDbSymbolTableRecord
100
AcDbLinetypeTableRecord
  2
DASHDOT
 70
              64
  3
Dash dot __ . __ . __ . __ . __ . __ . __ . __
 72
              65
 73
               4
 40
25.399999999999999
 49
12.699999999999999
 74
               0
 49
-6.0
 74
               0
 49
0.7
 74
               0
 49
-6.0
 74
               0
  0
LTYPE
  5
20
100
AcDbSymbolTableRecord
100
AcDbLinetypeTableRecord
  2
DIVIDE
 70
              64
  3
Divide ____ . . ____ . . ____ . . ____ . . ____
 72
              65
 73
               6
 40
31.75
 49
12.699999999999999
 74
               0
 49
-6.0
 74
               0
 49
0.875
 74
               0
 49
-6.0
 74
               0
 49
0.875
 74
               0
 49
-6.0
 74
               0
  0
LTYPE
  5
21
100
AcDbSymbolTableRecord
100
AcDbLinetypeTableRecord
  2
HIDDEN
 70
              64
  3
Hidden __ __ __ __ __ __ __ __ __ __ __ __ __ _
 72
              65
 73
               2
 40
9.5250000000000004
 49
6.3499999999999996
 74
               0
 49
-3.1749999999999998
 74
               0
  0
LTYPE
  5
22
100
AcDbSymbolTableRecord
100
AcDbLinetypeTableRecord
  2
CENTER
 70
              64
  3
Center ____ _ ____ _ ____ _ ____ _ ____ _ ____
 72
              65
 73
               4
 40
50.799999999999997
 49
31.75
 74
               0
 49
-6.3499999999999996
 74
               0
 49
6.3499999999999996
 74
               0
 49
-6.3499999999999996
 74
               0
  0
LTYPE
  5
23
100
AcDbSymbolTableRecord
100
AcDbLinetypeTableRecord
  2
PHANTOM
 70
              64
  3
Phantom ______  __  __  ______  __  __  ______
 72
              65
 73
               6
 40
63.5
 49
31.75
 74
               0
 49
-6.3499999999999996
 74
               0
 49
6.3499999999999996
 74
               0
 49
-6.3499999999999996
 74
               0
 49
6.3499999999999996
 74
               0
 49
-6.3499999999999996
 74
               0
  0
LTYPE
  5
24
100
AcDbSymbolTableRecord
100
AcDbLinetypeTableRecord
  2
ACAD_ISO02W100
 70
              64
  3
ISO dash __ __ __ __ __ __ __ __ __ __ __ __ __
 72
              65
 73
               2
 40
15.0
 49
12.0
 74
               0
 49
-3.0
 74
               0
  0
LTYPE
  5
25
100
AcDbSymbolTableRecord
100
AcDbLinetypeTableRecord
  2
ACAD_ISO03W100
 70
              64
  3
ISO dash space __ __ __ __ __ __ __ __ __ __ __ __ __ __
 72
              65
 73
               2
 40
30.0
 49
12.0
 74
               0
 49
-18.0
 74
               0
  0
LTYPE
  5
26
100
AcDbSymbolTableRecord
100
AcDbLinetypeTableRecord
  2
ACAD_ISO04W100
 70
              64
  3
ISO long-dash dot ____ . ____ . ____ . ____ . _
 72
              65
 73
               4
 40
30.0
 49
24.0
 74
               0
 49
-3.0
 74
               0
 49
0.0
 74
               0
 49
-3.0
 74
               0
  0
LTYPE
  5
27
100
AcDbSymbolTableRecord
100
AcDbLinetypeTableRecord
  2
ACAD_ISO05W100
 70
              64
  3
ISO long-dash double-dot ____ .. ____ .. ____ .
 72
              65
 73
               6
 40
33.0
 49
24.0
 74
               0
 49
-3.0
 74
               0
 49
0.0
 74
               0
 49
-3.0
 74
               0
 49
0.0
 74
               0
 49
-3.0
 74
               0
  0
LTYPE
  5
28
100
AcDbSymbolTableRecord
100
AcDbLinetypeTableRecord
  2
ACAD_ISO06W100
 70
              64
  3
ISO long-dash triple-dot ____ ... ____ ... ____
 72
              65
 73
               8
 40
36.0
 49
24.0
 74
               0
 49
-3.0
 74
               0
 49
0.0
 74
               0
 49
-3.0
 74
               0
 49
0.0
 74
               0
 49
-3.0
 74
               0
 49
0.0
 74
               0
 49
-3.0
 74
               0
  0
LTYPE
  5
29
100
AcDbSymbolTableRecord
100
AcDbLinetypeTableRecord
  2
ACAD_ISO07W100
 70
              64
  3
ISO dot . . . . . . . . . . . . . . . . . . . .
 72
              65
 73
               2
 40
3.0
 49
0.0
 74
               0
 49
-3.0
 74
               0
  0
LTYPE
  5
2A
100
AcDbSymbolTableRecord
100
AcDbLinetypeTableRecord
  2
ACAD_ISO08W100
 70
              64
  3
ISO long-dash short-dash ____ __ ____ __ ____ _
 72
              65
 73
               4
 40
36.0
 49
24.0
 74
               0
 49
-3.0
 74
               0
 49
6.0
 74
               0
 49
-3.0
 74
               0
  0
LTYPE
  5
2B
100
AcDbSymbolTableRecord
100
AcDbLinetypeTableRecord
  2
ACAD_ISO09W100
 70
              64
  3
ISO long-dash double-short-dash ____ __ __ ____
 72
              65
 73
               6
 40
45.0
 49
24.0
 74
               0
 49
-3.0
 74
               0
 49
6.0
 74
               0
 49
-3.0
 74
               0
 49
6.0
 74
               0
 49
-3.0
 74
               0
  0
LTYPE
  5
2C
100
AcDbSymbolTableRecord
100
AcDbLinetypeTableRecord
  2
ACAD_ISO10W100
 70
              64
  3
ISO dash dot __ . __ . __ . __ . __ . __ . __ .
 72
              65
 73
               4
 40
18.0
 49
12.0
 74
               0
 49
-3.0
 74
               0
 49
0.0
 74
               0
 49
-3.0
 74
               0
  0
LTYPE
  5
2D
100
AcDbSymbolTableRecord
100
AcDbLinetypeTableRecord
  2
ACAD_ISO11W100
 70
              64
  3
ISO double-dash dot __ __ . __ __ . __ __ . __ 
 72
              65
 73
               6
 40
33.0
 49
12.0
 74
               0
 49
-3.0
 74
               0
 49
12.0
 74
               0
 49
-3.0
 74
               0
 49
0.0
 74
               0
 49
-3.0
 74
               0
  0
LTYPE
  5
2E
100
AcDbSymbolTableRecord
100
AcDbLinetypeTableRecord
  2
ACAD_ISO12W100
 70
              64
  3
ISO dash double-dot __ . . __ . . __ . . __ . .
 72
              65
 73
               6
 40
21.0
 49
12.0
 74
               0
 49
-3.0
 74
               0
 49
0.0
 74
               0
 49
-3.0
 74
               0
 49
0.0
 74
               0
 49
-3.0
 74
               0
  0
LTYPE
  5
2F
100
AcDbSymbolTableRecord
100
AcDbLinetypeTableRecord
  2
ACAD_ISO13W100
 70
              64
  3
ISO double-dash double-dot __ __ . . __ __ . . 
 72
              65
 73
               8
 40
36.0
 49
12.0
 74
               0
 49
-3.0
 74
               0
 49
12.0
 74
               0
 49
-3.0
 74
               0
 49
0.0
 74
               0
 49
-3.0
 74
               0
 49
0.0
 74
               0
 49
-3.0
 74
               0
  0
LTYPE
  5
30
100
AcDbSymbolTableRecord
100
AcDbLinetypeTableRecord
  2
ACAD_ISO14W100
 70
              64
  3
ISO dash triple-dot __ . . . __ . . . __ . . . 
 72
              65
 73
               8
 40
24.0
 49
12.0
 74
               0
 49
-3.0
 74
               0
 49
0.0
 74
               0
 49
-3.0
 74
               0
 49
0.0
 74
               0
 49
-3.0
 74
               0
 49
0.0
 74
               0
 49
-3.0
 74
               0
  0
LTYPE
  5
31
100
AcDbSymbolTableRecord
100
AcDbLinetypeTableRecord
  2
ACAD_ISO15W100
 70
              64
  3
ISO double-dash double-dot __ __ . . __ __ . . 
 72
              65
 73
              10
 40
39.0
 49
12.0
 74
               0
 49
-3.0
 74
               0
 49
12.0
 74
               0
 49
-3.0
 74
               0
 49
0.0
 74
               0
 49
-3.0
 74
               0
 49
0.0
 74
               0
 49
-3.0
 74
               0
 49
0.0
 74
               0
 49
-3.0
 74
               0
  0
ENDTAB
  0
TABLE
  2
LAYER
  5
2
100
AcDbSymbolTable
 70
              16
  0
LAYER
  5
14
100
AcDbSymbolTableRecord
100
AcDbLayerTableRecord
  2
0
 70
               0
 62
               7
  6
Continuous
  0
LAYER
  5
35
100
AcDbSymbolTableRecord
100
AcDbLayerTableRecord
  2
Layer00001
 70
               0
 62
               7
  6
Continuous
  0
LAYER
  5
36
100
AcDbSymbolTableRecord
100
AcDbLayerTableRecord
  2
Layer00002
 70
               0
 62
               7
  6
Continuous
  0
LAYER
  5
37
100
AcDbSymbolTableRecord
100
AcDbLayerTableRecord
  2
Layer00003
 70
               0
 62
               7
  6
Continuous
  0
LAYER
  5
38
100
AcDbSymbolTableRecord
100
AcDbLayerTableRecord
  2
Layer00004
 70
               0
 62
               7
  6
Continuous
  0
LAYER
  5
39
100
AcDbSymbolTableRecord
100
AcDbLayerTableRecord
  2
Layer00005
 70
               0
 62
               7
  6
Continuous
  0
LAYER
  5
3A
100
AcDbSymbolTableRecord
100
AcDbLayerTableRecord
  2
Layer00006
 70
               0
 62
               7
  6
Continuous
  0
LAYER
  5
3B
100
AcDbSymbolTableRecord
100
AcDbLayerTableRecord
  2
Layer00007
 70
               0
 62
               7
  6
Continuous
  0
LAYER
  5
3C
100
AcDbSymbolTableRecord
100
AcDbLayerTableRecord
  2
Layer00008
 70
               0
 62
               7
  6
Continuous
  0
LAYER
  5
3D
100
AcDbSymbolTableRecord
100
AcDbLayerTableRecord
  2
Layer00009
 70
               0
 62
               7
  6
Continuous
  0
LAYER
  5
3E
100
AcDbSymbolTableRecord
100
AcDbLayerTableRecord
  2
Layer00010
 70
               0
 62
               7
  6
Continuous
  0
LAYER
  5
3F
100
AcDbSymbolTableRecord
100
AcDbLayerTableRecord
  2
Layer00011
 70
               0
 62
               7
  6
Continuous
  0
LAYER
  5
40
100
AcDbSymbolTableRecord
100
AcDbLayerTableRecord
  2
Layer00012
 70
               0
 62
               7
  6
Continuous
  0
LAYER
  5
41
100
AcDbSymbolTableRecord
100
AcDbLayerTableRecord
  2
Layer00013
 70
               0
 62
               7
  6
Continuous
  0
LAYER
  5
42
100
AcDbSymbolTableRecord
100
AcDbLayerTableRecord
  2
Layer00014
 70
               0
 62
               7
  6
Continuous
  0
LAYER
  5
43
100
AcDbSymbolTableRecord
100
AcDbLayerTableRecord
  2
Layer00015
 70
               0
 62
               7
  6
Continuous
  0
ENDTAB
  0
TABLE
  2
STYLE
  5
3
100
AcDbSymbolTable
 70
               4
  0
STYLE
  5
17
100
AcDbSymbolTableRecord
100
AcDbTextStyleTableRecord
  2
Standard
 70
               0
 40
0.0
 41
1.0
 50
0.0
 71
               0
 42
0.0
  3
txt.shx
  4
bigfont.shx
  0
STYLE
  5
32
100
AcDbSymbolTableRecord
100
AcDbTextStyleTableRecord
  2
STANDARD_T
 70
               4
 40
0.0
 41
1.0
 50
0.0
 71
               0
 42
0.0
  3
txt.shx
  4
bigfont.shx
  0
STYLE
  5
33
100
AcDbSymbolTableRecord
100
AcDbTextStyleTableRecord
  2
FontTableH_0
 70
               0
 40
0.0
 41
1.0
 50
0.0
 71
               0
 42
0.0
  3
MS Gothic.ttf
  4

1001
ACAD
1000
MS Gothic
1071
    32817
  0
STYLE
  5
34
100
AcDbSymbolTableRecord
100
AcDbTextStyleTableRecord
  2
FontTableV_0
 70
               0
 40
0.0
 41
1.0
 50
0.0
 71
               0
 42
0.0
  3
@MS Gothic.ttf
  4

1001
ACAD
1000
@MS Gothic
1071
    32817
  0
ENDTAB
  0
TABLE
  2
VIEW
  5
5
100
AcDbSymbolTable
 70
               0
  0
ENDTAB
  0
TABLE
  2
UCS
  5
6
100
AcDbSymbolTable
 70
               0
  0
ENDTAB
  0
TABLE
  2
APPID
  5
8
100
AcDbSymbolTable
 70
               1
  0
APPID
  5
16
100
AcDbSymbolTableRecord
100
AcDbRegAppTableRecord
  2
ACAD
 70
               0
  0
ENDTAB
  0
TABLE
  2
DIMSTYLE
  5
9
100
AcDbSymbolTable
 70
               1
  0
DIMSTYLE
105
18
100
AcDbSymbolTableRecord
100
AcDbDimStyleTableRecord
  2
Standard
 70
               0
  3

  4

  5

  6

  7

 40
1.0
 41
0.18
 42
0.0625
 43
0.38
 44
0.18
 45
0.0
 46
0.0
 47
0.0
 48
0.0
 71
               0
 72
               0
 73
               1
 74
               1
 75
               0
 76
               0
 77
               0
 78
               0
140
0.18
141
0.09
142
0.0
143
25.399999999999999
144
1.0
145
0.0
146
1.0
147
0.09
170
               0
171
               2
172
               0
173
               0
174
               0
175
               0
176
               0
177
               0
178
               0
270
               2
271
               4
272
               4
273
               2
274
               2
275
               0
280
               0
281
               0
282
               0
283
               1
284
               0
285
               0
286
               0
287
               0
288
               0
340
17
  0
ENDTAB
  0
TABLE
  2
BLOCK_RECORD
  5
1
100
AcDbSymbolTable
 70
               0
  0
BLOCK_RECORD
  5
A
100
AcDbSymbolTableRecord
100
AcDbBlockTableRecord
  2
*MODEL_SPACE
  0
BLOCK_RECORD
  5
B
100
AcDbSymbolTableRecord
100
AcDbBlockTableRecord
  2
*PAPER_SPACE
  0
ENDTAB
  0
ENDSEC
  0
SECTION
  2
BLOCKS
  0
BLOCK
  5
D
100
AcDbEntity
  8
0
100
AcDbBlockBegin
  2
*MODEL_SPACE
 70
               0
 10
0.0
 20
0.0
 30
0.0
  3
*MODEL_SPACE
  1

  0
ENDBLK
  5
E
100
AcDbEntity
  8
0
100
AcDbBlockEnd
  0
BLOCK
  5
F
100
AcDbEntity
 67
               1
  8
0
100
AcDbBlockBegin
  2
*PAPER_SPACE
 70
               0
 10
0.0
 20
0.0
 30
0.0
  3
*PAPER_SPACE
  1

  0
ENDBLK
  5
10
100
AcDbEntity
 67
               1
  8
0
100
AcDbBlockEnd
  0
ENDSEC
  0
SECTION
  2
ENTITIES
  0
LINE
  5
44
100
AcDbEntity
  8
0
  6
Continuous
 62
               3
100
AcDbLine
 10
244.28253195854006
 20
188.52328041444935
 30
0.0
 11
597.601753227431
 21
294.51904679511239
 31
0.0
  0
LINE
  5
45
100
AcDbEntity
  8
0
  6
Continuous
 62
               3
100
AcDbLine
 10
244.28253195854006
 20
169.73072869841047
 30
0.0
 11
602.77400117523894
 21
277.27816946341545
 31
0.0
  0
LINE
  5
46
100
AcDbEntity
  8
0
  6
DASHED
 62
               6
100
AcDbLine
 10
244.28253195854006
 20
191.13336026876118
 30
0.0
 11
602.23182746046052
 21
298.5181449089518
 31
0.0
  0
LINE
  5
47
100
AcDbEntity
  8
0
  6
Continuous
 62
               6
100
AcDbLine
 10
564.64538095262594
 20
265.83958339663229
 30
0.0
 11
525.56606833291198
 21
254.11578961071859
 31
0.0
  0
LINE
  5
48
100
AcDbEntity
  8
0
  6
Continuous
 62
               6
100
AcDbLine
 10
522.48186775844158
 20
248.38798854384515
 30
0.0
 11
526.90702522356673
 21
233.637463660094
 31
0.0
  0
LINE
  5
49
100
AcDbEntity
  8
0
  6
Continuous
 62
               6
100
AcDbLine
 10
526.90702522356673
 20
233.637463660094
 30
0.0
 11
529.11002563390275
 21
234.29836378319465
 31
0.0
  0
LINE
  5
4A
100
AcDbEntity
  8
0
  6
Continuous
 62
               6
100
AcDbLine
 10
529.11002563390275
 20
234.29836378319465
 30
0.0
 11
524.68486816877748
 21
249.04888866694597
 31
0.0
  0
LINE
  5
4B
100
AcDbEntity
  8
0
  6
Continuous
 62
               6
100
AcDbLine
 10
526.22696845601274
 20
251.91278920038269
 30
0.0
 11
565.3062810757267
 21
263.63658298629639
 31
0.0
  0
LINE
  5
4C
100
AcDbEntity
  8
0
  6
Continuous
 62
               6
100
AcDbLine
 10
568.17018160916348
 20
262.09448269906119
 30
0.0
 11
594.2613696733938
 21
175.12385581828926
 31
0.0
  0
LINE
  5
4D
100
AcDbEntity
  8
0
  6
Continuous
 62
               6
100
AcDbLine
 10
592.71926938615866
 20
172.25995528485259
 30
0.0
 11
553.63995676644458
 21
160.5361614989389
 31
0.0
  0
LINE
  5
4E
100
AcDbEntity
  8
0
  6
Continuous
 62
               6
100
AcDbLine
 10
550.77605623300792
 20
162.0782617861741
 30
0.0
 11
546.35089876788277
 21
176.82878666992525
 31
0.0
  0
LINE
  5
4F
100
AcDbEntity
  8
0
  6
Continuous
 62
               6
100
AcDbLine
 10
546.35089876788277
 20
176.82878666992525
 30
0.0
 11
544.14789835754686
 21
176.16788654682455
 31
0.0
  0
LINE
  5
50
100
AcDbEntity
  8
0
  6
Continuous
 62
               6
100
AcDbLine
 10
544.14789835754686
 20
176.16788654682455
 30
0.0
 11
548.57305582267202
 21
161.41736166307328
 31
0.0
  0
LINE
  5
51
100
AcDbEntity
  8
0
  6
Continuous
 62
               6
100
AcDbLine
 10
554.30085688954534
 20
158.33316108860299
 30
0.0
 11
593.38016950925942
 21
170.05695487451669
 31
0.0
  0
LINE
  5
52
100
AcDbEntity
  8
0
  6
Continuous
 62
               6
100
AcDbLine
 10
596.46437008372982
 20
175.78475594138996
 30
0.0
 11
570.37318201949938
 21
262.75538282216189
 31
0.0
  0
LINE
  5
53
100
AcDbEntity
  8
0
  6
Continuous
 62
               3
100
AcDbLine
 10
597.601753227431
 20
294.51904679511239
 30
0.0
 11
602.77400117523894
 21
277.27816946341545
 31
0.0
  0
LINE
  5
54
100
AcDbEntity
  8
0
  6
Continuous
 62
               7
100
AcDbLine
 10
602.29547979055337
 20
278.87324544917777
 30
0.0
 11
601.17896895184197
 21
276.7996597963965
 31
0.0
  0
LINE
  5
55
100
AcDbEntity
  8
0
  6
Continuous
 62
               7
100
AcDbLine
 10
600.26360045189233
 20
285.6461965497748
 30
0.0
 11
594.40620367333975
 21
274.76783021284587
 31
0.0
  0
LINE
  5
56
100
AcDbEntity
  8
0
  6
Continuous
 62
               7
100
AcDbLine
 10
598.23172111323117
 20
292.41914765037177
 30
0.0
 11
587.63343839483741
 21
272.73600062929529
 31
0.0
  0
LINE
  5
57
100
AcDbEntity
  8
0
  6
Continuous
 62
               7
100
AcDbLine
 10
592.92882948101987
 20
293.11716967118906
 30
0.0
 11
580.86067311633508
 21
270.70417104574466
 31
0.0
  0
LINE
  5
58
100
AcDbEntity
  8
0
  6
Continuous
 62
               7
100
AcDbLine
 10
586.15606420251754
 20
291.08534008763849
 30
0.0
 11
574.08790783783274
 21
268.67234146219408
 31
0.0
  0
LINE
  5
59
100
AcDbEntity
  8
0
  6
Continuous
 62
               7
100
AcDbLine
 10
579.38329892401521
 20
289.05351050408785
 30
0.0
 11
567.31514255933052
 21
266.64051187864345
 31
0.0
  0
LINE
  5
5A
100
AcDbEntity
  8
0
  6
Continuous
 62
               7
100
AcDbLine
 10
572.61053364551287
 20
287.02168092053716
 30
0.0
 11
560.54237728082819
 21
264.60868229509276
 31
0.0
  0
LINE
  5
5B
100
AcDbEntity
  8
0
  6
Continuous
 62
               7
100
AcDbLine
 10
565.83776836701065
 20
284.98985133698665
 30
0.0
 11
553.76961200232586
 21
262.57685271154224
 31
0.0
  0
LINE
  5
5C
100
AcDbEntity
  8
0
  6
Continuous
 62
               7
100
AcDbLine
 10
559.06500308850832
 20
282.95802175343596
 30
0.0
 11
546.99684672382352
 21
260.54502312799156
 31
0.0
  0
LINE
  5
5D
100
AcDbEntity
  8
0
  6
Continuous
 62
               7
100
AcDbLine
 10
552.29223781000599
 20
280.92619216988538
 30
0.0
 11
540.2240814453213
 21
258.51319354444109
 31
0.0
  0
LINE
  5
5E
100
AcDbEntity
  8
0
  6
Continuous
 62
               7
100
AcDbLine
 10
545.51947253150377
 20
278.89436258633469
 30
0.0
 11
533.45131616681897
 21
256.48136396089035
 31
0.0
  0
LINE
  5
5F
100
AcDbEntity
  8
0
  6
Continuous
 62
               7
100
AcDbLine
 10
538.74670725300143
 20
276.86253300278406
 30
0.0
 11
526.67855088831664
 21
254.44953437733989
 31
0.0
  0
LINE
  5
60
100
AcDbEntity
  8
0
  6
Continuous
 62
               7
100
AcDbLine
 10
531.9739419744991
 20
274.83070341923349
 30
0.0
 11
519.9057856098143
 21
252.4177047937892
 31
0.0
  0
LINE
  5
61
100
AcDbEntity
  8
0
  6
Continuous
 62
               7
100
AcDbLine
 10
525.20117669599676
 20
272.79887383568285
 30
0.0
 11
513.13302033131197
 21
250.38587521023868
 31
0.0
  0
LINE
  5
62
100
AcDbEntity
  8
0
  6
Continuous
 62
               7
100
AcDbLine
 10
518.42841141749443
 20
270.76704425213228
 30
0.0
 11
506.36025505280975
 21
248.35404562668799
 31
0.0
  0
LINE
  5
63
100
AcDbEntity
  8
0
  6
Continuous
 62
               7
100
AcDbLine
 10
511.65564613899221
 20
268.73521466858165
 30
0.0
 11
499.58748977430741
 21
246.32221604313736
 31
0.0
  0
LINE
  5
64
100
AcDbEntity
  8
0
  6
Continuous
 62
               7
100
AcDbLine
 10
504.88288086048988
 20
266.70338508503107
 30
0.0
 11
492.81472449580508
 21
244.29038645958678
 31
0.0
  0
LINE
  5
65
100
AcDbEntity
  8
0
  6
Continuous
 62
               7
100
AcDbLine
 10
498.11011558198754
 20
264.6715555014805
 30
0.0
 11
486.04195921730286
 21
242.25855687603615
 31
0.0
  0
LINE
  5
66
100
AcDbEntity
  8
0
  6
Continuous
 62
               7
100
AcDbLine
 10
491.33735030348521
 20
262.63972591792987
 30
0.0
 11
479.26919393880053
 21
240.22672729248558
 31
0.0
  0
LINE
  5
67
100
AcDbEntity
  8
0
  6
Continuous
 62
               7
100
AcDbLine
 10
484.56458502498288
 20
260.60789633437929
 30
0.0
 11
472.49642866029819
 21
238.19489770893495
 31
0.0
  0
LINE
  5
68
100
AcDbEntity
  8
0
  6
Continuous
 62
               7
100
AcDbLine
 10
477.79181974648066
 20
258.57606675082866
 30
0.0
 11
465.72366338179586
 21
236.16306812538437
 31
0.0
  0
LINE
  5
69
100
AcDbEntity
  8
0
  6
Continuous
 62
               7
100
AcDbLine
 10
471.01905446797832
 20
256.54423716727808
 30
0.0
 11
458.95089810329353
 21
234.1312385418338
 31
0.0
  0
LINE
  5
6A
100
AcDbEntity
  8
0
  6
Continuous
 62
               7
100
AcDbLine
 10
464.24628918947599
 20
254.51240758372739
 30
0.0
 11
452.17813282479131
 21
232.09940895828316
 31
0.0
  0
LINE
  5
6B
100
AcDbEntity
  8
0
  6
Continuous
 62
               7
100
AcDbLine
 10
457.47352391097365
 20
252.48057800017676
 30
0.0
 11
445.40536754628897
 21
230.06757937473259
 31
0.0
  0
LINE
  5
6C
100
AcDbEntity
  8
0
  6
Continuous
 62
               7
100
AcDbLine
 10
450.70075863247143
 20
250.44874841662619
 30
0.0
 11
438.63260226778664
 21
228.03574979118196
 31
0.0
  0
LINE
  5
6D
100
AcDbEntity
  8
0
  6
Continuous
 62
               7
100
AcDbLine
 10
443.9279933539691
 20
248.41691883307556
 30
0.0
 11
431.85983698928442
 21
226.00392020763138
 31
0.0
  0
LINE
  5
6E
100
AcDbEntity
  8
0
  6
Continuous
 62
               7
100
AcDbLine
 10
437.15522807546677
 20
246.38508924952498
 30
0.0
 11
425.08707171078208
 21
223.97209062408075
 31
0.0
  0
LINE
  5
6F
100
AcDbEntity
  8
0
  6
Continuous
 62
               7
100
AcDbLine
 10
430.38246279696443
 20
244.35325966597435
 30
0.0
 11
418.31430643227975
 21
221.94026104053006
 31
0.0
  0
LINE
  5
70
100
AcDbEntity
  8
0
  6
Continuous
 62
               7
100
AcDbLine
 10
423.60969751846221
 20
242.32143008242377
 30
0.0
 11
411.54154115377742
 21
219.9084314569796
 31
0.0
  0
LINE
  5
71
100
AcDbEntity
  8
0
  6
Continuous
 62
               7
100
AcDbLine
 10
416.83693223995988
 20
240.2896004988732
 30
0.0
 11
404.76877587527508
 21
217.87660187342885
 31
0.0
  0
LINE
  5
72
100
AcDbEntity
  8
0
  6
Continuous
 62
               7
100
AcDbLine
 10
410.06416696145754
 20
238.25777091532257
 30
0.0
 11
397.99601059677286
 21
215.84477228987839
 31
0.0
  0
LINE
  5
73
100
AcDbEntity
  8
0
  6
Continuous
 62
               7
100
AcDbLine
 10
403.29140168295521
 20
236.22594133177199
 30
0.0
 11
391.22324531827053
 21
213.81294270632765
 31
0.0
  0
LINE
  5
74
100
AcDbEntity
  8
0
  6
Continuous
 62
               7
100
AcDbLine
 10
396.51863640445288
 20
234.19411174822136
 30
0.0
 11
384.45048003976819
 21
211.78111312277719
 31
0.0
  0
LINE
  5
75
100
AcDbEntity
  8
0
  6
Continuous
 62
               7
100
AcDbLine
 10
389.74587112595066
 20
232.16228216467078
 30
0.0
 11
377.67771476126586
 21
209.7492835392265
 31
0.0
  0
LINE
  5
76
100
AcDbEntity
  8
0
  6
Continuous
 62
               7
100
AcDbLine
 10
382.97310584744832
 20
230.13045258112015
 30
0.0
 11
370.90494948276364
 21
207.71745395567586
 31
0.0
  0
LINE
  5
77
100
AcDbEntity
  8
0
  6
Continuous
 62
               7
100
AcDbLine
 10
376.20034056894599
 20
228.09862299756946
 30
0.0
 11
364.13218420426131
 21
205.68562437212529
 31
0.0
  0
LINE
  5
78
100
AcDbEntity
  8
0
  6
Continuous
 62
               7
100
AcDbLine
 10
369.42757529044366
 20
226.06679341401895
 30
0.0
 11
357.35941892575897
 21
203.65379478857466
 31
0.0
  0
LINE
  5
79
100
AcDbEntity
  8
0
  6
Continuous
 62
               7
100
AcDbLine
 10
362.65481001194132
 20
224.03496383046826
 30
0.0
 11
350.58665364725664
 21
201.62196520502408
 31
0.0
  0
LINE
  5
7A
100
AcDbEntity
  8
0
  6
Continuous
 62
               7
100
AcDbLine
 10
355.8820447334391
 20
222.0031342469178
 30
0.0
 11
343.81388836875442
 21
199.59013562147345
 31
0.0
  0
LINE
  5
7B
100
AcDbEntity
  8
0
  6
Continuous
 62
               7
100
AcDbLine
 10
349.10927945493677
 20
219.97130466336705
 30
0.0
 11
337.04112309025209
 21
197.55830603792288
 31
0.0
  0
LINE
  5
7C
100
AcDbEntity
  8
0
  6
Continuous
 62
               7
100
AcDbLine
 10
342.33651417643443
 20
217.93947507981648
 30
0.0
 11
330.26835781174975
 21
195.52647645437224
 31
0.0
  0
LINE
  5
7D
100
AcDbEntity
  8
0
  6
Continuous
 62
               7
100
AcDbLine
 10
335.5637488979321
 20
215.9076454962659
 30
0.0
 11
323.49559253324742
 21
193.49464687082167
 31
0.0
  0
LINE
  5
7E
100
AcDbEntity
  8
0
  6
Continuous
 62
               7
100
AcDbLine
 10
328.79098361942988
 20
213.87581591271527
 30
0.0
 11
316.72282725474508
 21
191.46281728727109
 31
0.0
  0
LINE
  5
7F
100
AcDbEntity
  8
0
  6
Continuous
 62
               7
100
AcDbLine
 10
322.01821834092755
 20
211.84398632916469
 30
0.0
 11
309.95006197624286
 21
189.43098770372046
 31
0.0
  0
LINE
  5
80
100
AcDbEntity
  8
0
  6
Continuous
 62
               7
100
AcDbLine
 10
315.24545306242521
 20
209.81215674561406
 30
0.0
 11
303.17729669774053
 21
187.39915812016989
 31
0.0
  0
LINE
  5
81
100
AcDbEntity
  8
0
  6
Continuous
 62
               7
100
AcDbLine
 10
308.47268778392288
 20
207.78032716206349
 30
0.0
 11
299.75161716195771
 21
191.58354134360138
 31
0.0
  0
LINE
  5
82
100
AcDbEntity
  8
0
  6
Continuous
 62
               7
100
AcDbLine
 10
301.69992250542055
 20
205.74849757851285
 30
0.0
 11
297.71973397557633
 21
198.35648529820628
 31
0.0
  0
LINE
  5
83
100
AcDbEntity
  8
0
  6
Continuous
 62
               7
100
AcDbLine
 10
284.62649452637493
 20
184.5862613303587
 30
0.0
 11
282.85900086223364
 21
181.30366936951805
 31
0.0
  0
LINE
  5
84
100
AcDbEntity
  8
0
  6
Continuous
 62
               7
100
AcDbLine
 10
282.59461133999355
 20
191.35920528496359
 30
0.0
 11
276.08623558373131
 21
179.27183978596747
 31
0.0
  0
LINE
  5
85
100
AcDbEntity
  8
0
  6
Continuous
 62
               7
100
AcDbLine
 10
280.56272815361206
 20
198.13214923956849
 30
0.0
 11
269.31347030522898
 21
177.2400102024169
 31
0.0
  0
LINE
  5
86
100
AcDbEntity
  8
0
  6
Continuous
 62
               7
100
AcDbLine
 10
274.60886139141127
 20
197.6211792443105
 30
0.0
 11
262.5407050267267
 21
175.20818061886615
 31
0.0
  0
LINE
  5
87
100
AcDbEntity
  8
0
  6
Continuous
 62
               7
100
AcDbLine
 10
267.8360961129091
 20
195.58934966075975
 30
0.0
 11
255.76793974822436
 21
173.17635103531569
 31
0.0
  0
LINE
  5
88
100
AcDbEntity
  8
0
  6
Continuous
 62
               7
100
AcDbLine
 10
261.06333083440666
 20
193.55752007720929
 30
0.0
 11
248.99517446972197
 21
171.14452145176494
 31
0.0
  0
LINE
  5
89
100
AcDbEntity
  8
0
  6
Continuous
 62
               7
100
AcDbLine
 10
254.29056555590449
 20
191.52569049365854
 30
0.0
 11
244.28253195854006
 21
172.93875505109759
 31
0.0
  0
LINE
  5
8A
100
AcDbEntity
  8
0
  6
Continuous
 62
               7
100
AcDbLine
 10
247.5178002774021
 20
189.49386091010797
 30
0.0
 11
244.28253195854006
 21
183.48531559528328
 31
0.0
  0
LINE
  5
8B
100
AcDbEntity
  8
0
  6
Continuous
 62
               6
100
AcDbLine
 10
603.73182746046064
 20
223.79044942303
 30
0.0
 11
653.73182746046064
 21
273.79044942303
 31
0.0
  0
LINE
  5
8C
100
AcDbEntity
  8
0
  6
Continuous
 62
               6
100
AcDbLine
 10
603.73182746046064
 20
216.71938161116452
 30
0.0
 11
653.73182746046064
 21
266.71938161116452
 31
0.0
  0
LINE
  5
8D
100
AcDbEntity
  8
0
  6
Continuous
 62
               6
100
AcDbLine
 10
603.73182746046064
 20
209.64831379929899
 30
0.0
 11
653.73182746046064
 21
259.64831379929899
 31
0.0
  0
LINE
  5
8E
100
AcDbEntity
  8
0
  6
Continuous
 62
               4
100
AcDbLine
 10
289.68349098334136
 20
183.35101640585026
 30
0.0
 11
284.51122904314741
 21
200.59188953983107
 31
0.0
  0
LINE
  5
8F
100
AcDbEntity
  8
0
  6
Continuous
 62
               2
100
AcDbLine
 10
522.13706710572194
 20
285.8484784962663
 30
0.0
 11
508.43962899741689
 21
285.88184429782444
 31
0.0
  0
LINE
  5
90
100
AcDbEntity
  8
0
  6
Continuous
 62
               4
100
AcDbLine
 10
577.57665817002476
 20
332.50976131635906
 30
0.0
 11
582.19303523724318
 21
315.11179825801185
 31
0.0
  0
LINE
  5
91
100
AcDbEntity
  8
0
  6
Continuous
 62
               4
100
AcDbLine
 10
500.21254620611137
 20
311.98196095845589
 30
0.0
 11
505.2642677889977
 21
292.94329401241487
 31
0.0
  0
LINE
  5
92
100
AcDbEntity
  8
0
  6
Continuous
 62
               4
100
AcDbLine
 10
578.34605428163331
 20
329.61010105635586
 30
0.0
 11
500.98194231771993
 21
309.08230069845268
 31
0.0
  0
LINE
  5
93
100
AcDbEntity
  8
0
  6
Continuous
 62
               4
100
AcDbLine
 10
232.76237202667187
 20
247.85959754344367
 30
0.0
 11
240.8027678620287
 21
251.9033624736515
 31
0.0
  0
LINE
  5
94
100
AcDbEntity
  8
0
  6
Continuous
 62
               4
100
AcDbLine
 10
232.76237202667187
 20
247.85959754344367
 30
0.0
 11
241.7009217223594
 21
248.90951627254896
 31
0.0
  0
LINE
  5
95
100
AcDbEntity
  8
0
  6
Continuous
 62
               3
100
AcDbLine
 10
603.73182746046052
 20
407.81247773800567
 30
0.0
 11
603.73182746046052
 21
299.7435041880637
 31
0.0
  0
LINE
  5
96
100
AcDbEntity
  8
0
  6
Continuous
 62
               2
100
AcDbLine
 10
583.73182746046041
 20
409.31247773800567
 30
0.0
 11
583.73182746046041
 21
309.31247773800555
 31
0.0
  0
LINE
  5
97
100
AcDbEntity
  8
0
  6
Continuous
 62
               2
100
AcDbLine
 10
583.73182746046041
 20
409.31247773800567
 30
0.0
 11
600.73182746046052
 21
409.31247773800567
 31
0.0
  0
LINE
  5
98
100
AcDbEntity
  8
0
  6
Continuous
 62
               7
100
AcDbLine
 10
588.73182746046052
 20
429.31247773800567
 30
0.0
 11
603.73182746046052
 21
429.31247773800567
 31
0.0
  0
LINE
  5
99
100
AcDbEntity
  8
0
  6
Continuous
 62
               7
100
AcDbLine
 10
603.73182746046052
 20
469.3124777380059
 30
0.0
 11
603.73182746046052
 21
124.0741198758513
 31
0.0
  0
LINE
  5
9A
100
AcDbEntity
  8
0
  6
Continuous
 62
               2
100
AcDbLine
 10
600.73182746046052
 20
409.31247773800567
 30
0.0
 11
600.73182746046052
 21
427.81247773800567
 31
0.0
  0
LINE
  5
9B
100
AcDbEntity
  8
0
  6
Continuous
 62
               7
100
AcDbLine
 10
588.73182746046052
 20
429.31247773800567
 30
0.0
 11
588.73182746046052
 21
469.3124777380059
 31
0.0
  0
LINE
  5
9C
100
AcDbEntity
  8
0
  6
Continuous
 62
               7
100
AcDbLine
 10
598.73182746046052
 20
429.31247773800567
 30
0.0
 11
598.73182746046052
 21
437.31247773800578
 31
0.0
  0
LINE
  5
9D
100
AcDbEntity
  8
0
  6
Continuous
 62
               6
100
AcDbLine
 10
592.21710883469905
 20
409.31247773800567
 30
0.0
 11
589.45454628402751
 21
412.0750402886772
 31
0.0
  0
LINE
  5
9E
100
AcDbEntity
  8
0
  6
Continuous
 62
               6
100
AcDbLine
 10
596.45974952181837
 20
409.31247773800567
 30
0.0
 11
590.04295195484656
 21
415.72927530497748
 31
0.0
  0
LINE
  5
9F
100
AcDbEntity
  8
0
  6
Continuous
 62
               6
100
AcDbLine
 10
598.73182746046052
 20
411.28304048648295
 30
0.0
 11
590.22853331065892
 21
419.78633463628444
 31
0.0
  0
LINE
  5
A0
100
AcDbEntity
  8
0
  6
Continuous
 62
               6
100
AcDbLine
 10
598.73182746046052
 20
415.52568117360215
 30
0.0
 11
589.84865012266721
 21
424.40885851139547
 31
0.0
  0
LINE
  5
A1
100
AcDbEntity
  8
0
  6
Continuous
 62
               6
100
AcDbLine
 10
598.73182746046052
 20
419.76832186072147
 30
0.0
 11
589.18767158317621
 21
429.31247773800567
 31
0.0
  0
LINE
  5
A2
100
AcDbEntity
  8
0
  6
Continuous
 62
               6
100
AcDbLine
 10
598.73182746046052
 20
424.01096254784079
 30
0.0
 11
593.43031227029553
 21
429.31247773800567
 31
0.0
  0
LINE
  5
A3
100
AcDbEntity
  8
0
  6
Continuous
 62
               6
100
AcDbLine
 10
598.73182746046052
 20
428.25360323496
 30
0.0
 11
597.67295295741485
 21
429.31247773800567
 31
0.0
  0
LINE
  5
A4
100
AcDbEntity
  8
0
  6
Continuous
 62
               6
100
AcDbLine
 10
598.73182746046052
 20
411.58455567664782
 30
0.0
 11
596.45974952181825
 21
409.31247773800567
 31
0.0
  0
LINE
  5
A5
100
AcDbEntity
  8
0
  6
Continuous
 62
               6
100
AcDbLine
 10
598.73182746046052
 20
415.82719636376714
 30
0.0
 11
592.21710883469905
 21
409.31247773800567
 31
0.0
  0
LINE
  5
A6
100
AcDbEntity
  8
0
  6
Continuous
 62
               6
100
AcDbLine
 10
598.73182746046052
 20
420.06983705088646
 30
0.0
 11
589.0399526536055
 21
410.37796224403144
 31
0.0
  0
LINE
  5
A7
100
AcDbEntity
  8
0
  6
Continuous
 62
               6
100
AcDbLine
 10
598.73182746046052
 20
424.31247773800567
 30
0.0
 11
590.03022605026115
 21
415.61087632780641
 31
0.0
  0
LINE
  5
A8
100
AcDbEntity
  8
0
  6
Continuous
 62
               6
100
AcDbLine
 10
598.73182746046052
 20
428.55511842512499
 30
0.0
 11
590.22390750047066
 21
420.04719846513512
 31
0.0
  0
LINE
  5
A9
100
AcDbEntity
  8
0
  6
Continuous
 62
               6
100
AcDbLine
 10
595.24654608622188
 20
429.31247773800567
 30
0.0
 11
589.91112592656191
 21
423.97705757834569
 31
0.0
  0
LINE
  5
AA
100
AcDbEntity
  8
0
  6
Continuous
 62
               6
100
AcDbLine
 10
591.00390539910256
 20
429.31247773800567
 30
0.0
 11
589.22538711227696
 21
427.53395945118007
 31
0.0
  0
LINE
  5
AB
100
AcDbEntity
  8
0
  6
Continuous
 62
               7
100
AcDbLine
 10
596.73182746046052
 20
439.31247773800578
 30
0.0
 11
596.73182746046052
 21
469.3124777380059
 31
0.0
  0
LINE
  5
AC
100
AcDbEntity
  8
0
  6
Continuous
 62
               4
100
AcDbLine
 10
559.73182746046041
 20
309.31247773800555
 30
0.0
 11
577.73182746046041
 21
309.31247773800555
 31
0.0
  0
LINE
  5
AD
100
AcDbEntity
  8
0
  6
Continuous
 62
               4
100
AcDbLine
 10
559.73182746046041
 20
409.31247773800567
 30
0.0
 11
577.73182746046041
 21
409.31247773800567
 31
0.0
  0
LINE
  5
AE
100
AcDbEntity
  8
0
  6
Continuous
 62
               4
100
AcDbLine
 10
562.73182746046041
 20
309.31247773800555
 30
0.0
 11
562.73182746046041
 21
409.31247773800567
 31
0.0
  0
LINE
  5
AF
100
AcDbEntity
  8
0
  6
Continuous
 62
               4
100
AcDbLine
 10
559.73182746046041
 20
429.31247773800567
 30
0.0
 11
583.18767158317621
 21
429.31247773800567
 31
0.0
  0
LINE
  5
B0
100
AcDbEntity
  8
0
  6
Continuous
 62
               4
100
AcDbLine
 10
562.73182746046041
 20
409.31247773800567
 30
0.0
 11
562.73182746046041
 21
429.31247773800567
 31
0.0
  0
LINE
  5
B1
100
AcDbEntity
  8
0
  6
Continuous
 62
               4
100
AcDbLine
 10
583.73182746046041
 20
345.73375654103677
 30
0.0
 11
552.73182746046041
 21
399.42733157567216
 31
0.0
  0
LINE
  5
B2
100
AcDbEntity
  8
0
  6
Continuous
 62
               4
100
AcDbLine
 10
552.73182746046041
 20
399.42733157567216
 30
0.0
 11
471.11531529178706
 21
399.42733157567216
 31
0.0
  0
LINE
  5
B3
100
AcDbEntity
  8
0
  6
Continuous
 62
               4
100
AcDbLine
 10
590.23182746046041
 20
419.31247773800567
 30
0.0
 11
572.91131938477167
 21
449.31247773800578
 31
0.0
  0
LINE
  5
B4
100
AcDbEntity
  8
0
  6
Continuous
 62
               4
100
AcDbLine
 10
572.91131938477167
 20
449.31247773800578
 30
0.0
 11
483.71053284139418
 21
449.31247773800578
 31
0.0
  0
LINE
  5
B5
100
AcDbEntity
  8
0
  6
Continuous
 62
               4
100
AcDbLine
 10
590.23182746046041
 20
419.31247773800567
 30
0.0
 11
584.44673897328153
 21
426.20687772607653
 31
0.0
  0
LINE
  5
B6
100
AcDbEntity
  8
0
  6
Continuous
 62
               4
100
AcDbLine
 10
590.23182746046041
 20
419.31247773800567
 30
0.0
 11
587.15364617052944
 21
427.7697113250789
 31
0.0
  0
LINE
  5
B7
100
AcDbEntity
  8
0
  6
Continuous
 62
               4
100
AcDbLine
 10
583.73182746046041
 20
345.73375654103677
 30
0.0
 11
577.94673897328153
 21
352.62815652910751
 31
0.0
  0
LINE
  5
B8
100
AcDbEntity
  8
0
  6
Continuous
 62
               4
100
AcDbLine
 10
583.73182746046041
 20
345.73375654103677
 30
0.0
 11
580.65364617052944
 21
354.19099012810989
 31
0.0
  0
LINE
  5
B9
100
AcDbEntity
  8
0
  6
Continuous
 62
               6
100
AcDbLine
 10
603.73182746046052
 20
393.49607690780135
 30
0.0
 11
653.73182746046064
 21
443.49607690780135
 31
0.0
  0
LINE
  5
BA
100
AcDbEntity
  8
0
  6
Continuous
 62
               6
100
AcDbLine
 10
603.73182746046052
 20
386.42500909593571
 30
0.0
 11
653.73182746046064
 21
436.42500909593593
 31
0.0
  0
LINE
  5
BB
100
AcDbEntity
  8
0
  6
Continuous
 62
               6
100
AcDbLine
 10
603.73182746046052
 20
379.35394128407029
 30
0.0
 11
653.73182746046064
 21
429.3539412840704
 31
0.0
  0
LINE
  5
BC
100
AcDbEntity
  8
0
  6
Continuous
 62
               7
100
AcDbLine
 10
599.74314311909825
 20
414.9998359212459
 30
0.0
 11
599.74314311909779
 21
420.39983592124611
 31
0.0
  0
LINE
  5
BD
100
AcDbEntity
  8
0
  6
Continuous
 62
               7
100
AcDbLine
 10
600.243143119097
 20
422.19983592124572
 30
0.0
 11
600.24314311909768
 21
413.19983592124618
 31
0.0
  0
LINE
  5
BE
100
AcDbEntity
  8
0
  6
Continuous
 62
               7
100
AcDbLine
 10
600.04314311909775
 20
420.69983592124606
 30
0.0
 11
600.243143119097
 21
420.69983592124629
 31
0.0
  0
LINE
  5
BF
100
AcDbEntity
  8
0
  6
Continuous
 62
               7
100
AcDbLine
 10
600.04314311909798
 20
414.69983592124538
 30
0.0
 11
600.24314311909689
 21
414.69983592124629
 31
0.0
  0
LINE
  5
C0
100
AcDbEntity
  8
0
  6
Continuous
 62
               7
100
AcDbLine
 10
630.08940226576897
 20
419.1998359212472
 30
0.0
 11
631.7431431190987
 21
419.19983592124618
 31
0.0
  0
LINE
  5
C1
100
AcDbEntity
  8
0
  6
Continuous
 62
               7
100
AcDbLine
 10
630.08940226576578
 20
416.19983592124788
 30
0.0
 11
631.74314311909745
 21
416.19983592124674
 31
0.0
  0
LINE
  5
C2
100
AcDbEntity
  8
0
  6
Continuous
 62
               7
100
AcDbLine
 10
600.69659963461402
 20
422.19983592124629
 30
0.0
 11
600.243143119097
 21
422.19983592124572
 31
0.0
  0
LINE
  5
C3
100
AcDbEntity
  8
0
  6
Continuous
 62
               7
100
AcDbLine
 10
600.69659963461424
 20
413.19983592124652
 30
0.0
 11
600.24314311909768
 21
413.19983592124618
 31
0.0
  0
LINE
  5
C4
100
AcDbEntity
  8
0
  6
Continuous
 62
               7
100
AcDbLine
 10
601.7431431190962
 20
420.19983592124652
 30
0.0
 11
619.24314311909791
 21
420.19983592124629
 31
0.0
  0
LINE
  5
C5
100
AcDbEntity
  8
0
  6
Continuous
 62
               7
100
AcDbLine
 10
601.74314311909689
 20
415.19983592124606
 30
0.0
 11
619.24314311909825
 21
415.1998359212464
 31
0.0
  0
LINE
  5
C6
100
AcDbEntity
  8
0
  6
Continuous
 62
               7
100
AcDbLine
 10
601.37569938471597
 20
421.66961085877199
 30
0.0
 11
601.7431431190962
 21
420.19983592124652
 31
0.0
  0
LINE
  5
C7
100
AcDbEntity
  8
0
  6
Continuous
 62
               7
100
AcDbLine
 10
601.37569938471574
 20
413.73006098372105
 30
0.0
 11
601.74314311909689
 21
415.19983592124606
 31
0.0
  0
LINE
  5
C8
100
AcDbEntity
  8
0
  6
Continuous
 62
               7
100
AcDbLine
 10
632.29525332086337
 20
420.60421358956933
 30
0.0
 11
632.46890149852925
 21
419.61940583655758
 31
0.0
  0
LINE
  5
C9
100
AcDbEntity
  8
0
  6
Continuous
 62
               7
100
AcDbLine
 10
632.46890149852925
 20
415.7802660059358
 30
0.0
 11
624.70516250162905
 21
417.14922266226813
 31
0.0
  0
LINE
  5
CA
100
AcDbEntity
  8
0
  6
Continuous
 62
               7
100
AcDbLine
 10
632.46890149852925
 20
419.61940583655758
 30
0.0
 11
624.70516250163007
 21
418.25044918022536
 31
0.0
  0
LINE
  5
CB
100
AcDbEntity
  8
0
  6
Continuous
 62
               7
100
AcDbLine
 10
632.29525332086348
 20
414.79545825292303
 30
0.0
 11
632.46890149852925
 21
415.7802660059358
 31
0.0
  0
LINE
  5
CC
100
AcDbEntity
  8
0
  6
Continuous
 62
               7
100
AcDbLine
 10
630.64439351367741
 20
421.32854907608191
 30
0.0
 11
624.24314311909814
 21
420.19983592124674
 31
0.0
  0
LINE
  5
CD
100
AcDbEntity
  8
0
  6
Continuous
 62
               7
100
AcDbLine
 10
630.64439351367787
 20
414.07112276641135
 30
0.0
 11
624.24314311909757
 21
415.19983592124663
 31
0.0
  0
LINE
  5
CE
100
AcDbEntity
  8
0
  6
Continuous
 62
               7
100
AcDbLine
 10
632.29525332086348
 20
414.79545825292303
 30
0.0
 11
630.64439351367787
 21
414.07112276641135
 31
0.0
  0
LINE
  5
CF
100
AcDbEntity
  8
0
  6
Continuous
 62
               7
100
AcDbLine
 10
632.29525332086337
 20
420.60421358956933
 30
0.0
 11
630.64439351367741
 21
421.32854907608191
 31
0.0
  0
LINE
  5
D0
100
AcDbEntity
  8
0
  6
Continuous
 62
               7
100
AcDbLine
 10
622.24314311909859
 20
420.19983592124697
 30
0.0
 11
622.24314311909893
 21
419.69983592124663
 31
0.0
  0
LINE
  5
D1
100
AcDbEntity
  8
0
  6
Continuous
 62
               7
100
AcDbLine
 10
619.24314311909791
 20
420.19983592124629
 30
0.0
 11
619.24314311909882
 21
419.6998359212472
 31
0.0
  0
LINE
  5
D2
100
AcDbEntity
  8
0
  6
Continuous
 62
               7
100
AcDbLine
 10
620.24314311909814
 20
420.19983592124686
 30
0.0
 11
620.24314311909859
 21
419.69983592124754
 31
0.0
  0
LINE
  5
D3
100
AcDbEntity
  8
0
  6
Continuous
 62
               7
100
AcDbLine
 10
621.24314311909791
 20
420.19983592124731
 30
0.0
 11
621.2431431190987
 21
419.69983592124606
 31
0.0
  0
LINE
  5
D4
100
AcDbEntity
  8
0
  6
Continuous
 62
               7
100
AcDbLine
 10
619.24314311909757
 20
415.69983592124754
 30
0.0
 11
620.24314311909893
 21
415.69983592124663
 31
0.0
  0
LINE
  5
D5
100
AcDbEntity
  8
0
  6
Continuous
 62
               7
100
AcDbLine
 10
619.24314311909882
 20
419.6998359212472
 30
0.0
 11
620.24314311909859
 21
419.69983592124754
 31
0.0
  0
LINE
  5
D6
100
AcDbEntity
  8
0
  6
Continuous
 62
               7
100
AcDbLine
 10
622.24314311909848
 20
415.6998359212464
 30
0.0
 11
622.24314311909814
 21
415.19983592124674
 31
0.0
  0
LINE
  5
D7
100
AcDbEntity
  8
0
  6
Continuous
 62
               7
100
AcDbLine
 10
619.24314311909757
 20
415.69983592124754
 30
0.0
 11
619.24314311909825
 21
415.1998359212464
 31
0.0
  0
LINE
  5
D8
100
AcDbEntity
  8
0
  6
Continuous
 62
               7
100
AcDbLine
 10
620.24314311909893
 20
415.69983592124663
 30
0.0
 11
620.24314311909882
 21
415.19983592124618
 31
0.0
  0
LINE
  5
D9
100
AcDbEntity
  8
0
  6
Continuous
 62
               7
100
AcDbLine
 10
621.24314311909836
 20
415.69983592124686
 30
0.0
 11
621.24314311909916
 21
415.19983592124674
 31
0.0
  0
LINE
  5
DA
100
AcDbEntity
  8
0
  6
Continuous
 62
               7
100
AcDbLine
 10
622.24314311909859
 20
420.19983592124697
 30
0.0
 11
624.24314311909814
 21
420.19983592124674
 31
0.0
  0
LINE
  5
DB
100
AcDbEntity
  8
0
  6
Continuous
 62
               7
100
AcDbLine
 10
622.24314311909814
 20
415.19983592124674
 30
0.0
 11
624.24314311909757
 21
415.19983592124663
 31
0.0
  0
LINE
  5
DC
100
AcDbEntity
  8
0
  6
Continuous
 62
               7
100
AcDbLine
 10
620.24314311909814
 20
420.19983592124686
 30
0.0
 11
621.24314311909791
 21
420.19983592124731
 31
0.0
  0
LINE
  5
DD
100
AcDbEntity
  8
0
  6
Continuous
 62
               7
100
AcDbLine
 10
620.24314311909882
 20
415.19983592124618
 30
0.0
 11
621.24314311909916
 21
415.19983592124674
 31
0.0
  0
LINE
  5
DE
100
AcDbEntity
  8
0
  6
Continuous
 62
               7
100
AcDbLine
 10
621.24314311909836
 20
415.69983592124686
 30
0.0
 11
622.24314311909848
 21
415.6998359212464
 31
0.0
  0
LINE
  5
DF
100
AcDbEntity
  8
0
  6
Continuous
 62
               7
100
AcDbLine
 10
621.2431431190987
 20
419.69983592124606
 30
0.0
 11
622.24314311909893
 21
419.69983592124663
 31
0.0
  0
LINE
  5
E0
100
AcDbEntity
  8
0
  6
Continuous
 62
               7
100
AcDbLine
 10
631.48067712851957
 20
419.19983592124743
 30
0.0
 11
631.74314311909745
 21
416.19983592124674
 31
0.0
  0
LINE
  5
E1
100
AcDbEntity
  8
0
  6
Continuous
 62
               7
100
AcDbLine
 10
630.47685729097725
 20
419.19983592124686
 30
0.0
 11
630.73932328155399
 21
416.19983592124765
 31
0.0
  0
LINE
  5
E2
100
AcDbEntity
  8
0
  6
Continuous
 62
               7
100
AcDbLine
 10
629.482401419898
 20
419.09280529480645
 30
0.0
 11
629.72995844367233
 21
416.26321556513119
 31
0.0
  0
LINE
  5
E3
100
AcDbEntity
  8
0
  6
Continuous
 62
               7
100
AcDbLine
 10
628.49383186125692
 20
418.91849380931114
 30
0.0
 11
628.71041043469745
 21
416.44298938724103
 31
0.0
  0
LINE
  5
E4
100
AcDbEntity
  8
0
  6
Continuous
 62
               7
100
AcDbLine
 10
627.50526230261698
 20
418.74418232381538
 30
0.0
 11
627.69086242571996
 21
416.62276320935177
 31
0.0
  0
LINE
  5
E5
100
AcDbEntity
  8
0
  6
Continuous
 62
               7
100
AcDbLine
 10
626.51669274397796
 20
418.56987083832098
 30
0.0
 11
626.67131441674337
 21
416.80253703146195
 31
0.0
  0
LINE
  5
E6
100
AcDbEntity
  8
0
  6
Continuous
 62
               7
100
AcDbLine
 10
625.52812318533643
 20
418.39555935282544
 30
0.0
 11
625.65176640776713
 21
416.98231085357133
 31
0.0
  0
LINE
  5
E7
100
AcDbEntity
  8
0
  6
Continuous
 62
               7
100
AcDbLine
 10
624.53955362669819
 20
418.22124786732945
 30
0.0
 11
624.63221839879179
 21
417.16208467568197
 31
0.0
  0
LINE
  5
E8
100
AcDbEntity
  8
0
  6
Continuous
 62
               7
100
AcDbLine
 10
635.74314311909768
 20
417.949835921248
 30
0.0
 11
635.74314311909814
 21
417.44983592124765
 31
0.0
  0
LINE
  5
E9
100
AcDbEntity
  8
0
  6
Continuous
 62
               7
100
AcDbLine
 10
631.74314311909745
 20
416.19983592124674
 30
0.0
 11
635.74314311909814
 21
417.44983592124765
 31
0.0
  0
LINE
  5
EA
100
AcDbEntity
  8
0
  6
Continuous
 62
               7
100
AcDbLine
 10
635.74314311909768
 20
417.949835921248
 30
0.0
 11
631.7431431190987
 21
419.19983592124618
 31
0.0
  0
LINE
  5
EB
100
AcDbEntity
  8
0
  6
Continuous
 62
               7
100
AcDbLine
 10
599.83292407405736
 20
387.02387348767479
 30
0.0
 11
599.8329240740569
 21
392.42387348767511
 31
0.0
  0
LINE
  5
EC
100
AcDbEntity
  8
0
  6
Continuous
 62
               7
100
AcDbLine
 10
600.33292407405611
 20
394.22387348767472
 30
0.0
 11
600.33292407405668
 21
385.22387348767506
 31
0.0
  0
LINE
  5
ED
100
AcDbEntity
  8
0
  6
Continuous
 62
               7
100
AcDbLine
 10
600.13292407405686
 20
392.72387348767506
 30
0.0
 11
600.332924074056
 21
392.72387348767529
 31
0.0
  0
LINE
  5
EE
100
AcDbEntity
  8
0
  6
Continuous
 62
               7
100
AcDbLine
 10
600.13292407405709
 20
386.72387348767427
 30
0.0
 11
600.33292407405588
 21
386.72387348767518
 31
0.0
  0
LINE
  5
EF
100
AcDbEntity
  8
0
  6
Continuous
 62
               7
100
AcDbLine
 10
630.17918322072785
 20
391.2238734876762
 30
0.0
 11
631.83292407405747
 21
391.22387348767518
 31
0.0
  0
LINE
  5
F0
100
AcDbEntity
  8
0
  6
Continuous
 62
               7
100
AcDbLine
 10
630.17918322072455
 20
388.22387348767677
 30
0.0
 11
631.83292407405622
 21
388.22387348767563
 31
0.0
  0
LINE
  5
F1
100
AcDbEntity
  8
0
  6
Continuous
 62
               7
100
AcDbLine
 10
600.78638058957301
 20
394.22387348767529
 30
0.0
 11
600.33292407405611
 21
394.22387348767472
 31
0.0
  0
LINE
  5
F2
100
AcDbEntity
  8
0
  6
Continuous
 62
               7
100
AcDbLine
 10
600.78638058957324
 20
385.22387348767552
 30
0.0
 11
600.33292407405668
 21
385.22387348767506
 31
0.0
  0
LINE
  5
F3
100
AcDbEntity
  8
0
  6
Continuous
 62
               7
100
AcDbLine
 10
601.8329240740552
 20
392.22387348767552
 30
0.0
 11
619.33292407405668
 21
392.22387348767518
 31
0.0
  0
LINE
  5
F4
100
AcDbEntity
  8
0
  6
Continuous
 62
               7
100
AcDbLine
 10
601.83292407405588
 20
387.22387348767495
 30
0.0
 11
619.33292407405713
 21
387.22387348767529
 31
0.0
  0
LINE
  5
F5
100
AcDbEntity
  8
0
  6
Continuous
 62
               7
100
AcDbLine
 10
601.46548033967508
 20
393.69364842520099
 30
0.0
 11
601.8329240740552
 21
392.22387348767552
 31
0.0
  0
LINE
  5
F6
100
AcDbEntity
  8
0
  6
Continuous
 62
               7
100
AcDbLine
 10
601.46548033967485
 20
385.75409855014993
 30
0.0
 11
601.83292407405588
 21
387.22387348767495
 31
0.0
  0
LINE
  5
F7
100
AcDbEntity
  8
0
  6
Continuous
 62
               7
100
AcDbLine
 10
632.38503427582214
 20
392.62825115599833
 30
0.0
 11
632.55868245348813
 21
391.64344340298658
 31
0.0
  0
LINE
  5
F8
100
AcDbEntity
  8
0
  6
Continuous
 62
               7
100
AcDbLine
 10
632.55868245348802
 20
387.80430357236469
 30
0.0
 11
624.79494345658782
 21
389.17326022869702
 31
0.0
  0
LINE
  5
F9
100
AcDbEntity
  8
0
  6
Continuous
 62
               7
100
AcDbLine
 10
632.55868245348813
 20
391.64344340298658
 30
0.0
 11
624.79494345658884
 21
390.27448674665425
 31
0.0
  0
LINE
  5
FA
100
AcDbEntity
  8
0
  6
Continuous
 62
               7
100
AcDbLine
 10
632.38503427582225
 20
386.81949581935191
 30
0.0
 11
632.55868245348802
 21
387.80430357236469
 31
0.0
  0
LINE
  5
FB
100
AcDbEntity
  8
0
  6
Continuous
 62
               7
100
AcDbLine
 10
630.73417446863618
 20
393.35258664251091
 30
0.0
 11
624.3329240740569
 21
392.22387348767575
 31
0.0
  0
LINE
  5
FC
100
AcDbEntity
  8
0
  6
Continuous
 62
               7
100
AcDbLine
 10
630.73417446863675
 20
386.09516033284024
 30
0.0
 11
624.33292407405645
 21
387.22387348767552
 31
0.0
  0
LINE
  5
FD
100
AcDbEntity
  8
0
  6
Continuous
 62
               7
100
AcDbLine
 10
632.38503427582225
 20
386.81949581935191
 30
0.0
 11
630.73417446863675
 21
386.09516033284024
 31
0.0
  0
LINE
  5
FE
100
AcDbEntity
  8
0
  6
Continuous
 62
               7
100
AcDbLine
 10
632.38503427582214
 20
392.62825115599833
 30
0.0
 11
630.73417446863618
 21
393.35258664251091
 31
0.0
  0
LINE
  5
FF
100
AcDbEntity
  8
0
  6
Continuous
 62
               7
100
AcDbLine
 10
622.33292407405736
 20
392.22387348767597
 30
0.0
 11
622.3329240740577
 21
391.72387348767563
 31
0.0
  0
LINE
  5
100
100
AcDbEntity
  8
0
  6
Continuous
 62
               7
100
AcDbLine
 10
619.33292407405668
 20
392.22387348767518
 30
0.0
 11
619.33292407405759
 21
391.72387348767609
 31
0.0
  0
LINE
  5
101
100
AcDbEntity
  8
0
  6
Continuous
 62
               7
100
AcDbLine
 10
620.3329240740569
 20
392.22387348767586
 30
0.0
 11
620.33292407405736
 21
391.72387348767654
 31
0.0
  0
LINE
  5
102
100
AcDbEntity
  8
0
  6
Continuous
 62
               7
100
AcDbLine
 10
621.33292407405668
 20
392.22387348767631
 30
0.0
 11
621.33292407405747
 21
391.72387348767506
 31
0.0
  0
LINE
  5
103
100
AcDbEntity
  8
0
  6
Continuous
 62
               7
100
AcDbLine
 10
619.33292407405645
 20
387.72387348767643
 30
0.0
 11
620.3329240740577
 21
387.72387348767552
 31
0.0
  0
LINE
  5
104
100
AcDbEntity
  8
0
  6
Continuous
 62
               7
100
AcDbLine
 10
619.33292407405759
 20
391.72387348767609
 30
0.0
 11
620.33292407405736
 21
391.72387348767654
 31
0.0
  0
LINE
  5
105
100
AcDbEntity
  8
0
  6
Continuous
 62
               7
100
AcDbLine
 10
622.33292407405725
 20
387.72387348767529
 30
0.0
 11
622.3329240740569
 21
387.22387348767563
 31
0.0
  0
LINE
  5
106
100
AcDbEntity
  8
0
  6
Continuous
 62
               7
100
AcDbLine
 10
619.33292407405645
 20
387.72387348767643
 30
0.0
 11
619.33292407405713
 21
387.22387348767529
 31
0.0
  0
LINE
  5
107
100
AcDbEntity
  8
0
  6
Continuous
 62
               7
100
AcDbLine
 10
620.3329240740577
 20
387.72387348767552
 30
0.0
 11
620.33292407405759
 21
387.22387348767506
 31
0.0
  0
LINE
  5
108
100
AcDbEntity
  8
0
  6
Continuous
 62
               7
100
AcDbLine
 10
621.33292407405713
 20
387.72387348767575
 30
0.0
 11
621.33292407405793
 21
387.22387348767563
 31
0.0
  0
LINE
  5
109
100
AcDbEntity
  8
0
  6
Continuous
 62
               7
100
AcDbLine
 10
622.33292407405736
 20
392.22387348767597
 30
0.0
 11
624.3329240740569
 21
392.22387348767575
 31
0.0
  0
LINE
  5
10A
100
AcDbEntity
  8
0
  6
Continuous
 62
               7
100
AcDbLine
 10
622.3329240740569
 20
387.22387348767563
 30
0.0
 11
624.33292407405645
 21
387.22387348767552
 31
0.0
  0
LINE
  5
10B
100
AcDbEntity
  8
0
  6
Continuous
 62
               7
100
AcDbLine
 10
620.3329240740569
 20
392.22387348767586
 30
0.0
 11
621.33292407405668
 21
392.22387348767631
 31
0.0
  0
LINE
  5
10C
100
AcDbEntity
  8
0
  6
Continuous
 62
               7
100
AcDbLine
 10
620.33292407405759
 20
387.22387348767506
 30
0.0
 11
621.33292407405793
 21
387.22387348767563
 31
0.0
  0
LINE
  5
10D
100
AcDbEntity
  8
0
  6
Continuous
 62
               7
100
AcDbLine
 10
621.33292407405713
 20
387.72387348767575
 30
0.0
 11
622.33292407405725
 21
387.72387348767529
 31
0.0
  0
LINE
  5
10E
100
AcDbEntity
  8
0
  6
Continuous
 62
               7
100
AcDbLine
 10
621.33292407405747
 20
391.72387348767506
 30
0.0
 11
622.3329240740577
 21
391.72387348767563
 31
0.0
  0
LINE
  5
10F
100
AcDbEntity
  8
0
  6
Continuous
 62
               7
100
AcDbLine
 10
631.57045808347846
 20
391.22387348767631
 30
0.0
 11
631.83292407405622
 21
388.22387348767563
 31
0.0
  0
LINE
  5
110
100
AcDbEntity
  8
0
  6
Continuous
 62
               7
100
AcDbLine
 10
630.56663824593602
 20
391.22387348767586
 30
0.0
 11
630.82910423651276
 21
388.22387348767654
 31
0.0
  0
LINE
  5
111
100
AcDbEntity
  8
0
  6
Continuous
 62
               7
100
AcDbLine
 10
629.57218237485677
 20
391.11684286123534
 30
0.0
 11
629.81973939863121
 21
388.28725313156008
 31
0.0
  0
LINE
  5
112
100
AcDbEntity
  8
0
  6
Continuous
 62
               7
100
AcDbLine
 10
628.58361281621569
 20
390.94253137574003
 30
0.0
 11
628.80019138965622
 21
388.46702695366992
 31
0.0
  0
LINE
  5
113
100
AcDbEntity
  8
0
  6
Continuous
 62
               7
100
AcDbLine
 10
627.59504325757575
 20
390.76821989024427
 30
0.0
 11
627.78064338067873
 21
388.64680077578066
 31
0.0
  0
LINE
  5
114
100
AcDbEntity
  8
0
  6
Continuous
 62
               7
100
AcDbLine
 10
626.60647369893684
 20
390.59390840474987
 30
0.0
 11
626.76109537170214
 21
388.82657459789084
 31
0.0
  0
LINE
  5
115
100
AcDbEntity
  8
0
  6
Continuous
 62
               7
100
AcDbLine
 10
625.61790414029531
 20
390.41959691925433
 30
0.0
 11
625.7415473627259
 21
389.00634842000022
 31
0.0
  0
LINE
  5
116
100
AcDbEntity
  8
0
  6
Continuous
 62
               7
100
AcDbLine
 10
624.62933458165696
 20
390.24528543375834
 30
0.0
 11
624.72199935375056
 21
389.18612224211086
 31
0.0
  0
LINE
  5
117
100
AcDbEntity
  8
0
  6
Continuous
 62
               7
100
AcDbLine
 10
635.83292407405645
 20
389.97387348767688
 30
0.0
 11
635.8329240740569
 21
389.47387348767654
 31
0.0
  0
LINE
  5
118
100
AcDbEntity
  8
0
  6
Continuous
 62
               7
100
AcDbLine
 10
631.83292407405622
 20
388.22387348767563
 30
0.0
 11
635.8329240740569
 21
389.47387348767654
 31
0.0
  0
LINE
  5
119
100
AcDbEntity
  8
0
  6
Continuous
 62
               7
100
AcDbLine
 10
635.83292407405645
 20
389.97387348767688
 30
0.0
 11
631.83292407405747
 21
391.22387348767518
 31
0.0
  0
LINE
  5
11A
100
AcDbEntity
  8
0
  6
DASHED
 62
               6
100
AcDbLine
 10
602.23182746046052
 20
429.31247773800567
 30
0.0
 11
602.23182746046052
 21
298.5181449089518
 31
0.0
  0
LINE
  5
11B
100
AcDbEntity
  8
0
  6
Continuous
 62
               2
100
AcDbLine
 10
600.73182746046052
 20
406.31247773800567
 30
0.0
 11
600.73182746046052
 21
303.47721960930505
 31
0.0
  0
LINE
  5
11C
100
AcDbEntity
  8
0
  6
Continuous
 62
               4
100
AcDbLine
 10
584.79458713469671
 20
356.60135402851984
 30
0.0
 11
599.00774014706246
 21
309.22417732063207
 31
0.0
  0
LINE
  5
11D
100
AcDbEntity
  8
0
  6
Continuous
 62
               4
100
AcDbLine
 10
14.142135623730949
 20
595.85786437626905
 30
0.0
 11
14.142135623730949
 21
615.85786437626905
 31
0.0
  0
LINE
  5
11E
100
AcDbEntity
  8
0
  6
Continuous
 62
               4
100
AcDbLine
 10
164.14213562373095
 20
595.85786437626905
 30
0.0
 11
14.142135623730949
 21
595.85786437626905
 31
0.0
  0
LINE
  5
11F
100
AcDbEntity
  8
0
  6
Continuous
 62
               4
100
AcDbLine
 10
164.14213562373095
 20
615.85786437626905
 30
0.0
 11
164.14213562373095
 21
595.85786437626905
 31
0.0
  0
LINE
  5
120
100
AcDbEntity
  8
0
  6
Continuous
 62
               4
100
AcDbLine
 10
164.14213562373095
 20
615.85786437626905
 30
0.0
 11
14.142135623730949
 21
615.85786437626905
 31
0.0
  0
LINE
  5
121
100
AcDbEntity
  8
0
  6
Continuous
 62
               4
100
AcDbLine
 10
714.78679656440374
 20
21.213203435596483
 30
0.0
 11
714.78679656440374
 21
41.213203435596483
 31
0.0
  0
LINE
  5
122
100
AcDbEntity
  8
0
  6
Continuous
 62
               4
100
AcDbLine
 10
864.78679656440374
 20
21.213203435596483
 30
0.0
 11
714.78679656440374
 21
21.213203435596483
 31
0.0
  0
LINE
  5
123
100
AcDbEntity
  8
0
  6
Continuous
 62
               4
100
AcDbLine
 10
864.78679656440374
 20
41.213203435596483
 30
0.0
 11
864.78679656440374
 21
21.213203435596483
 31
0.0
  0
LINE
  5
124
100
AcDbEntity
  8
0
  6
Continuous
 62
               4
100
AcDbLine
 10
864.78679656440374
 20
41.213203435596483
 30
0.0
 11
714.78679656440374
 21
41.213203435596483
 31
0.0
  0
LINE
  5
125
100
AcDbEntity
  8
0
  6
Continuous
 62
               2
100
AcDbLine
 10
328.27507039450825
 20
218.93655474461798
 30
0.0
 11
268.2668419083418
 21
207.72540469622254
 31
0.0
  0
LINE
  5
126
100
AcDbEntity
  8
0
  6
Continuous
 62
               4
100
AcDbLine
 10
361.88296407582357
 20
227.97953265319745
 30
0.0
 11
405.81800755954032
 21
241.16004569831182
 31
0.0
  0
LINE
  5
127
100
AcDbEntity
  8
0
  6
Continuous
 62
               4
100
AcDbLine
 10
327.36385823407772
 20
225.45403078235699
 30
0.0
 11
327.08637475737123
 21
226.37897570471171
 31
0.0
  0
LINE
  5
128
100
AcDbEntity
  8
0
  6
Continuous
 62
               4
100
AcDbLine
 10
329.38640722029481
 20
231.22366209119843
 30
0.0
 11
339.99921205144869
 21
235.6214432587534
 31
0.0
  0
LINE
  5
129
100
AcDbEntity
  8
0
  6
Continuous
 62
               4
100
AcDbLine
 10
354.66812155482148
 20
229.33085466575574
 30
0.0
 11
347.97781684384245
 21
234.54214183952149
 31
0.0
  0
LINE
  5
12A
100
AcDbEntity
  8
0
  6
Continuous
 62
               4
100
AcDbLine
 10
329.8542065756526
 20
224.11307398304734
 30
0.0
 11
331.76985914609486
 21
224.68776975417995
 31
0.0
  0
LINE
  5
12B
100
AcDbEntity
  8
0
  6
Continuous
 62
               2
100
AcDbLine
 10
344.44354450114361
 20
223.78709697660872
 30
0.0
 11
346.06081838174282
 21
225.28571190477248
 31
0.0
  0
LINE
  5
12C
100
AcDbEntity
  8
0
  6
Continuous
 62
               2
100
AcDbLine
 10
346.06081838174282
 20
225.28571190477248
 30
0.0
 11
347.08312818306399
 21
227.06778233269267
 31
0.0
  0
LINE
  5
12D
100
AcDbEntity
  8
0
  6
Continuous
 62
               2
100
AcDbLine
 10
347.08312818306399
 20
227.06778233269267
 30
0.0
 11
347.15336451044482
 21
228.57433980384019
 31
0.0
  0
LINE
  5
12E
100
AcDbEntity
  8
0
  6
Continuous
 62
               2
100
AcDbLine
 10
347.15336451044482
 20
228.57433980384019
 30
0.0
 11
346.600799621536
 21
230.00220831450258
 31
0.0
  0
LINE
  5
12F
100
AcDbEntity
  8
0
  6
Continuous
 62
               2
100
AcDbLine
 10
346.600799621536
 20
230.00220831450258
 30
0.0
 11
345.3682567473852
 21
231.08264580638468
 31
0.0
  0
LINE
  5
130
100
AcDbEntity
  8
0
  6
Continuous
 62
               2
100
AcDbLine
 10
345.3682567473852
 20
231.08264580638468
 30
0.0
 11
343.81906048269184
 21
231.52875557473203
 31
0.0
  0
LINE
  5
131
100
AcDbEntity
  8
0
  6
Continuous
 62
               2
100
AcDbLine
 10
343.81906048269184
 20
231.52875557473203
 30
0.0
 11
341.93287299308122
 21
231.14021710352995
 31
0.0
  0
LINE
  5
132
100
AcDbEntity
  8
0
  6
Continuous
 62
               2
100
AcDbLine
 10
341.93287299308122
 20
231.14021710352995
 30
0.0
 11
340.10175562334939
 21
230.17493297656495
 31
0.0
  0
LINE
  5
133
100
AcDbEntity
  8
0
  6
Continuous
 62
               2
100
AcDbLine
 10
340.10175562334939
 20
230.17493297656495
 30
0.0
 11
338.40010995855346
 21
229.30669433129492
 31
0.0
  0
LINE
  5
134
100
AcDbEntity
  8
0
  6
Continuous
 62
               2
100
AcDbLine
 10
338.40010995855346
 20
229.30669433129492
 30
0.0
 11
336.70442365235408
 21
228.9196699877316
 31
0.0
  0
LINE
  5
135
100
AcDbEntity
  8
0
  6
Continuous
 62
               2
100
AcDbLine
 10
336.70442365235408
 20
228.9196699877316
 30
0.0
 11
334.38413345977233
 21
229.54454160522243
 31
0.0
  0
LINE
  5
136
100
AcDbEntity
  8
0
  6
Continuous
 62
               2
100
AcDbLine
 10
334.38413345977233
 20
229.54454160522243
 30
0.0
 11
331.86467844140998
 21
230.30348622995461
 31
0.0
  0
LINE
  5
137
100
AcDbEntity
  8
0
  6
Continuous
 62
               2
100
AcDbLine
 10
331.86467844140998
 20
230.30348622995461
 30
0.0
 11
329.93902727802651
 21
230.11111209771684
 31
0.0
  0
LINE
  5
138
100
AcDbEntity
  8
0
  6
Continuous
 62
               2
100
AcDbLine
 10
329.93902727802651
 20
230.11111209771684
 30
0.0
 11
328.51168476900125
 21
229.1319149288737
 31
0.0
  0
LINE
  5
139
100
AcDbEntity
  8
0
  6
Continuous
 62
               2
100
AcDbLine
 10
328.51168476900125
 20
229.1319149288737
 30
0.0
 11
328.1304375029838
 21
228.09041846983155
 31
0.0
  0
LINE
  5
13A
100
AcDbEntity
  8
0
  6
Continuous
 62
               2
100
AcDbLine
 10
328.1304375029838
 20
228.09041846983155
 30
0.0
 11
328.01426135618522
 21
226.87694895328059
 31
0.0
  0
LINE
  5
13B
100
AcDbEntity
  8
0
  6
Continuous
 62
               2
100
AcDbLine
 10
328.00674055935224
 20
219.83098752847138
 30
0.0
 11
324.27121804698982
 21
232.28272923634677
 31
0.0
  0
LINE
  5
13C
100
AcDbEntity
  8
0
  6
Continuous
 62
               7
100
AcDbLine
 10
388.6255826980057
 20
202.6465531691548
 30
0.0
 11
380.00514613101404
 21
231.38134172578987
 31
0.0
  0
LINE
  5
13D
100
AcDbEntity
  8
0
  6
Continuous
 62
               7
100
AcDbLine
 10
376.89221070404528
 20
233.05753772492699
 30
0.0
 11
377.03588464682844
 21
232.57862458231637
 31
0.0
  0
LINE
  5
13E
100
AcDbEntity
  8
0
  6
Continuous
 62
               7
100
AcDbLine
 10
393.41471412411147
 20
204.08329259698644
 30
0.0
 11
384.79427755711981
 21
232.81808115362139
 31
0.0
  0
LINE
  5
13F
100
AcDbEntity
  8
0
  6
Continuous
 62
               7
100
AcDbLine
 10
386.4704735562575
 20
235.93101658059027
 30
0.0
 11
386.61414749904066
 21
235.45210343797964
 31
0.0
  0
LINE
  5
140
100
AcDbEntity
  8
0
  6
Continuous
 62
               7
100
AcDbLine
 10
376.89221070404528
 20
233.05753772492699
 30
0.0
 11
386.4704735562575
 21
235.93101658059027
 31
0.0
  0
LINE
  5
141
100
AcDbEntity
  8
0
  6
Continuous
 62
               7
100
AcDbLine
 10
380.00514613101404
 20
231.38134172578987
 30
0.0
 11
384.79427755711981
 21
232.81808115362139
 31
0.0
  0
LINE
  5
142
100
AcDbEntity
  8
0
  6
Continuous
 62
               7
100
AcDbLine
 10
377.03588464682844
 20
232.57862458231637
 30
0.0
 11
380.00514613101404
 21
231.38134172578987
 31
0.0
  0
LINE
  5
143
100
AcDbEntity
  8
0
  6
Continuous
 62
               7
100
AcDbLine
 10
384.79427755711981
 20
232.81808115362139
 30
0.0
 11
386.61414749904066
 21
235.45210343797953
 31
0.0
  0
LINE
  5
144
100
AcDbEntity
  8
0
  6
Continuous
 62
               7
100
AcDbLine
 10
377.03588464682844
 20
232.57862458231637
 30
0.0
 11
386.61414749904066
 21
235.45210343797953
 31
0.0
  0
LINE
  5
145
100
AcDbEntity
  8
0
  6
Continuous
 62
               7
100
AcDbLine
 10
388.6255826980057
 20
202.6465531691548
 30
0.0
 11
391.45117023940816
 21
201.92818345523892
 31
0.0
  0
LINE
  5
146
100
AcDbEntity
  8
0
  6
Continuous
 62
               7
100
AcDbLine
 10
393.41471412411147
 20
204.08329259698644
 30
0.0
 11
391.45117023940816
 21
201.92818345523892
 31
0.0
  0
LINE
  5
147
100
AcDbEntity
  8
0
  6
Continuous
 62
               7
100
AcDbLine
 10
382.01658132997818
 20
224.67655772924149
 30
0.0
 11
386.23101698495157
 21
228.02894972751562
 31
0.0
  0
LINE
  5
148
100
AcDbEntity
  8
0
  6
Continuous
 62
               7
100
AcDbLine
 10
382.59127710111079
 20
222.76090515879923
 30
0.0
 11
386.80571275608486
 21
226.11329715707336
 31
0.0
  0
LINE
  5
149
100
AcDbEntity
  8
0
  6
Continuous
 62
               7
100
AcDbLine
 10
383.16597287224363
 20
220.84525258835686
 30
0.0
 11
387.38040852721861
 21
224.19764458663099
 31
0.0
  0
LINE
  5
14A
100
AcDbEntity
  8
0
  6
Continuous
 62
               7
100
AcDbLine
 10
383.74066864337624
 20
218.92960001791459
 30
0.0
 11
387.95510429835122
 21
222.2819920161885
 31
0.0
  0
LINE
  5
14B
100
AcDbEntity
  8
0
  6
Continuous
 62
               7
100
AcDbLine
 10
384.31536441450885
 20
217.01394744747222
 30
0.0
 11
388.52980006948405
 21
220.36633944574623
 31
0.0
  0
LINE
  5
14C
100
AcDbEntity
  8
0
  6
Continuous
 62
               7
100
AcDbLine
 10
384.89006018564146
 20
215.09829487702996
 30
0.0
 11
389.10449584061644
 21
218.45068687530386
 31
0.0
  0
LINE
  5
14D
100
AcDbEntity
  8
0
  6
Continuous
 62
               7
100
AcDbLine
 10
385.4647559567743
 20
213.1826423065877
 30
0.0
 11
389.67919161174927
 21
216.53503430486148
 31
0.0
  0
LINE
  5
14E
100
AcDbEntity
  8
0
  6
Continuous
 62
               7
100
AcDbLine
 10
386.03945172790691
 20
211.26698973614532
 30
0.0
 11
390.25388738288189
 21
214.61938173441933
 31
0.0
  0
LINE
  5
14F
100
AcDbEntity
  8
0
  6
Continuous
 62
               7
100
AcDbLine
 10
386.61414749903997
 20
209.35133716570306
 30
0.0
 11
389.14280889202564
 21
211.36277236466788
 31
0.0
  0
LINE
  5
150
100
AcDbEntity
  8
0
  6
Continuous
 62
               7
100
AcDbLine
 10
392.79212703871781
 20
204.4185317968138
 30
0.0
 11
390.40713958851711
 21
212.36848996414949
 31
0.0
  0
LINE
  5
151
100
AcDbEntity
  8
0
  6
Continuous
 62
               7
100
AcDbLine
 10
389.14280889202519
 20
211.36277236466731
 30
0.0
 11
389.84681121166295
 21
212.67020524399425
 31
0.0
  0
LINE
  5
152
100
AcDbEntity
  8
0
  6
Continuous
 62
               7
100
AcDbLine
 10
390.40713958851711
 20
212.36848996414949
 30
0.0
 11
389.84681121166295
 21
212.67020524399425
 31
0.0
  0
LINE
  5
153
100
AcDbEntity
  8
0
  6
Continuous
 62
               7
100
AcDbLine
 10
393.41471412411147
 20
204.08329259698644
 30
0.0
 11
392.79212703871781
 21
204.4185317968138
 31
0.0
  0
LINE
  5
154
100
AcDbEntity
  8
0
  6
Continuous
 62
               7
100
AcDbLine
 10
390.40713958851711
 20
212.36848996414949
 30
0.0
 11
390.8285831540145
 21
212.70372916397696
 31
0.0
  0
LINE
  5
155
100
AcDbEntity
  8
0
  6
Continuous
 62
               2
100
AcDbLine
 10
345.63074420742237
 20
227.20624992467435
 30
0.0
 11
340.8416127813166
 21
225.7695104968426
 31
0.0
  0
LINE
  5
156
100
AcDbEntity
  8
0
  6
Continuous
 62
               2
100
AcDbLine
 10
345.34339632185606
 20
228.16407620989548
 30
0.0
 11
340.55426489575029
 21
226.72733678206373
 31
0.0
  0
LINE
  5
157
100
AcDbEntity
  8
0
  6
Continuous
 62
               2
100
AcDbLine
 10
328.00674055935224
 20
219.83098752847138
 30
0.0
 11
328.96456684457348
 21
220.11833541403769
 31
0.0
  0
LINE
  5
158
100
AcDbEntity
  8
0
  6
Continuous
 62
               2
100
AcDbLine
 10
328.96456684457348
 20
220.11833541403769
 30
0.0
 11
340.55426489575029
 21
226.72733678206373
 31
0.0
  0
LINE
  5
159
100
AcDbEntity
  8
0
  6
Continuous
 62
               2
100
AcDbLine
 10
342.85305276511303
 20
239.94534095356516
 30
0.0
 11
324.27121804698982
 21
232.28272923634677
 31
0.0
  0
LINE
  5
15A
100
AcDbEntity
  8
0
  6
Continuous
 62
               2
100
AcDbLine
 10
344.44354450114361
 20
223.78709697660872
 30
0.0
 11
328.27507039450802
 21
218.93655474461826
 31
0.0
  0
LINE
  5
15B
100
AcDbEntity
  8
0
  6
Continuous
 62
               2
100
AcDbLine
 10
471.94901317768154
 20
262.03873757956802
 30
0.0
 11
411.94078469151509
 21
250.82758753117258
 31
0.0
  0
LINE
  5
15C
100
AcDbEntity
  8
0
  6
Continuous
 62
               2
100
AcDbLine
 10
411.94078469151509
 20
250.82758753117258
 30
0.0
 11
403.47559308002633
 21
243.91996346235942
 31
0.0
  0
LINE
  5
15D
100
AcDbEntity
  8
0
  6
Continuous
 62
               2
100
AcDbLine
 10
342.85305276511303
 20
239.94534095356511
 30
0.0
 11
403.47559308002633
 21
243.91996346235948
 31
0.0
  0
LINE
  5
15E
100
AcDbEntity
  8
0
  6
Continuous
 62
               4
100
AcDbLine
 10
505.55690685899651
 20
271.08171548814761
 30
0.0
 11
549.49195034271327
 21
284.26222853326198
 31
0.0
  0
LINE
  5
15F
100
AcDbEntity
  8
0
  6
Continuous
 62
               4
100
AcDbLine
 10
471.03780101725067
 20
268.55621361730715
 30
0.0
 11
470.76031754054418
 21
269.48115853966186
 31
0.0
  0
LINE
  5
160
100
AcDbEntity
  8
0
  6
Continuous
 62
               4
100
AcDbLine
 10
473.06035000346776
 20
274.32584492614859
 30
0.0
 11
483.67315483462164
 21
278.72362609370356
 31
0.0
  0
LINE
  5
161
100
AcDbEntity
  8
0
  6
Continuous
 62
               4
100
AcDbLine
 10
498.34206433799443
 20
272.43303750070589
 30
0.0
 11
491.65175962701539
 21
277.64432467447165
 31
0.0
  0
LINE
  5
162
100
AcDbEntity
  8
0
  6
Continuous
 62
               4
100
AcDbLine
 10
473.52814935882554
 20
267.2152568179975
 30
0.0
 11
475.44380192926781
 21
267.78995258913011
 31
0.0
  0
LINE
  5
163
100
AcDbEntity
  8
0
  6
Continuous
 62
               2
100
AcDbLine
 10
488.11748728431655
 20
266.88927981155888
 30
0.0
 11
489.73476116491577
 21
268.38789473972264
 31
0.0
  0
LINE
  5
164
100
AcDbEntity
  8
0
  6
Continuous
 62
               2
100
AcDbLine
 10
489.73476116491577
 20
268.38789473972264
 30
0.0
 11
490.75707096623694
 21
270.16996516764283
 31
0.0
  0
LINE
  5
165
100
AcDbEntity
  8
0
  6
Continuous
 62
               2
100
AcDbLine
 10
490.75707096623694
 20
270.16996516764283
 30
0.0
 11
490.82730729361776
 21
271.67652263879035
 31
0.0
  0
LINE
  5
166
100
AcDbEntity
  8
0
  6
Continuous
 62
               2
100
AcDbLine
 10
490.82730729361776
 20
271.67652263879035
 30
0.0
 11
490.27474240470895
 21
273.10439114945274
 31
0.0
  0
LINE
  5
167
100
AcDbEntity
  8
0
  6
Continuous
 62
               2
100
AcDbLine
 10
490.27474240470895
 20
273.10439114945274
 30
0.0
 11
489.04219953055815
 21
274.18482864133483
 31
0.0
  0
LINE
  5
168
100
AcDbEntity
  8
0
  6
Continuous
 62
               2
100
AcDbLine
 10
489.04219953055815
 20
274.18482864133483
 30
0.0
 11
487.49300326586479
 21
274.63093840968219
 31
0.0
  0
LINE
  5
169
100
AcDbEntity
  8
0
  6
Continuous
 62
               2
100
AcDbLine
 10
487.49300326586479
 20
274.63093840968219
 30
0.0
 11
485.60681577625417
 21
274.2423999384801
 31
0.0
  0
LINE
  5
16A
100
AcDbEntity
  8
0
  6
Continuous
 62
               2
100
AcDbLine
 10
485.60681577625417
 20
274.2423999384801
 30
0.0
 11
483.77569840652234
 21
273.2771158115151
 31
0.0
  0
LINE
  5
16B
100
AcDbEntity
  8
0
  6
Continuous
 62
               2
100
AcDbLine
 10
483.77569840652234
 20
273.2771158115151
 30
0.0
 11
482.0740527417264
 21
272.40887716624508
 31
0.0
  0
LINE
  5
16C
100
AcDbEntity
  8
0
  6
Continuous
 62
               2
100
AcDbLine
 10
482.0740527417264
 20
272.40887716624508
 30
0.0
 11
480.37836643552703
 21
272.02185282268175
 31
0.0
  0
LINE
  5
16D
100
AcDbEntity
  8
0
  6
Continuous
 62
               2
100
AcDbLine
 10
480.37836643552703
 20
272.02185282268175
 30
0.0
 11
478.05807624294528
 21
272.64672444017259
 31
0.0
  0
LINE
  5
16E
100
AcDbEntity
  8
0
  6
Continuous
 62
               2
100
AcDbLine
 10
478.05807624294528
 20
272.64672444017259
 30
0.0
 11
475.53862122458293
 21
273.40566906490477
 31
0.0
  0
LINE
  5
16F
100
AcDbEntity
  8
0
  6
Continuous
 62
               2
100
AcDbLine
 10
475.53862122458293
 20
273.40566906490477
 30
0.0
 11
473.61297006119946
 21
273.213294932667
 31
0.0
  0
LINE
  5
170
100
AcDbEntity
  8
0
  6
Continuous
 62
               2
100
AcDbLine
 10
473.61297006119946
 20
273.213294932667
 30
0.0
 11
472.1856275521742
 21
272.23409776382385
 31
0.0
  0
LINE
  5
171
100
AcDbEntity
  8
0
  6
Continuous
 62
               2
100
AcDbLine
 10
472.1856275521742
 20
272.23409776382385
 30
0.0
 11
471.80438028615674
 21
271.1926013047817
 31
0.0
  0
LINE
  5
172
100
AcDbEntity
  8
0
  6
Continuous
 62
               2
100
AcDbLine
 10
471.80438028615674
 20
271.1926013047817
 30
0.0
 11
471.68820413935816
 21
269.97913178823075
 31
0.0
  0
LINE
  5
173
100
AcDbEntity
  8
0
  6
Continuous
 62
               2
100
AcDbLine
 10
471.68068334252519
 20
262.93317036342154
 30
0.0
 11
467.94516083016276
 21
275.38491207129692
 31
0.0
  0
LINE
  5
174
100
AcDbEntity
  8
0
  6
Continuous
 62
               7
100
AcDbLine
 10
532.29952548117865
 20
245.74873600410496
 30
0.0
 11
523.67908891418699
 21
274.48352456074002
 31
0.0
  0
LINE
  5
175
100
AcDbEntity
  8
0
  6
Continuous
 62
               7
100
AcDbLine
 10
520.56615348721823
 20
276.15972055987714
 30
0.0
 11
520.70982743000138
 21
275.68080741726652
 31
0.0
  0
LINE
  5
176
100
AcDbEntity
  8
0
  6
Continuous
 62
               7
100
AcDbLine
 10
537.08865690728442
 20
247.1854754319366
 30
0.0
 11
528.46822034029276
 21
275.92026398857155
 31
0.0
  0
LINE
  5
177
100
AcDbEntity
  8
0
  6
Continuous
 62
               7
100
AcDbLine
 10
530.14441633943045
 20
279.03319941554042
 30
0.0
 11
530.2880902822136
 21
278.5542862729298
 31
0.0
  0
LINE
  5
178
100
AcDbEntity
  8
0
  6
Continuous
 62
               7
100
AcDbLine
 10
520.56615348721823
 20
276.15972055987714
 30
0.0
 11
530.14441633943045
 21
279.03319941554042
 31
0.0
  0
LINE
  5
179
100
AcDbEntity
  8
0
  6
Continuous
 62
               7
100
AcDbLine
 10
523.67908891418699
 20
274.48352456074002
 30
0.0
 11
528.46822034029276
 21
275.92026398857155
 31
0.0
  0
LINE
  5
17A
100
AcDbEntity
  8
0
  6
Continuous
 62
               7
100
AcDbLine
 10
520.70982743000138
 20
275.68080741726652
 30
0.0
 11
523.67908891418699
 21
274.48352456074002
 31
0.0
  0
LINE
  5
17B
100
AcDbEntity
  8
0
  6
Continuous
 62
               7
100
AcDbLine
 10
528.46822034029276
 20
275.92026398857155
 30
0.0
 11
530.2880902822136
 21
278.55428627292969
 31
0.0
  0
LINE
  5
17C
100
AcDbEntity
  8
0
  6
Continuous
 62
               7
100
AcDbLine
 10
520.70982743000138
 20
275.68080741726652
 30
0.0
 11
530.2880902822136
 21
278.55428627292969
 31
0.0
  0
LINE
  5
17D
100
AcDbEntity
  8
0
  6
Continuous
 62
               7
100
AcDbLine
 10
532.29952548117865
 20
245.74873600410496
 30
0.0
 11
535.1251130225811
 21
245.03036629018908
 31
0.0
  0
LINE
  5
17E
100
AcDbEntity
  8
0
  6
Continuous
 62
               7
100
AcDbLine
 10
537.08865690728442
 20
247.1854754319366
 30
0.0
 11
535.1251130225811
 21
245.03036629018908
 31
0.0
  0
LINE
  5
17F
100
AcDbEntity
  8
0
  6
Continuous
 62
               7
100
AcDbLine
 10
525.69052411315113
 20
267.77874056419165
 30
0.0
 11
529.90495976812451
 21
271.13113256246578
 31
0.0
  0
LINE
  5
180
100
AcDbEntity
  8
0
  6
Continuous
 62
               7
100
AcDbLine
 10
526.26521988428374
 20
265.86308799374939
 30
0.0
 11
530.47965553925781
 21
269.21547999202352
 31
0.0
  0
LINE
  5
181
100
AcDbEntity
  8
0
  6
Continuous
 62
               7
100
AcDbLine
 10
526.83991565541658
 20
263.94743542330701
 30
0.0
 11
531.05435131039155
 21
267.29982742158114
 31
0.0
  0
LINE
  5
182
100
AcDbEntity
  8
0
  6
Continuous
 62
               7
100
AcDbLine
 10
527.41461142654919
 20
262.03178285286475
 30
0.0
 11
531.62904708152416
 21
265.38417485113865
 31
0.0
  0
LINE
  5
183
100
AcDbEntity
  8
0
  6
Continuous
 62
               7
100
AcDbLine
 10
527.9893071976818
 20
260.11613028242238
 30
0.0
 11
532.203742852657
 21
263.46852228069639
 31
0.0
  0
LINE
  5
184
100
AcDbEntity
  8
0
  6
Continuous
 62
               7
100
AcDbLine
 10
528.56400296881441
 20
258.20047771198011
 30
0.0
 11
532.77843862378938
 21
261.55286971025401
 31
0.0
  0
LINE
  5
185
100
AcDbEntity
  8
0
  6
Continuous
 62
               7
100
AcDbLine
 10
529.13869873994724
 20
256.28482514153785
 30
0.0
 11
533.35313439492222
 21
259.63721713981164
 31
0.0
  0
LINE
  5
186
100
AcDbEntity
  8
0
  6
Continuous
 62
               7
100
AcDbLine
 10
529.71339451107985
 20
254.36917257109548
 30
0.0
 11
533.92783016605483
 21
257.72156456936949
 31
0.0
  0
LINE
  5
187
100
AcDbEntity
  8
0
  6
Continuous
 62
               7
100
AcDbLine
 10
530.28809028221292
 20
252.45352000065321
 30
0.0
 11
532.81675167519859
 21
254.46495519961803
 31
0.0
  0
LINE
  5
188
100
AcDbEntity
  8
0
  6
Continuous
 62
               7
100
AcDbLine
 10
536.46606982189076
 20
247.52071463176395
 30
0.0
 11
534.08108237169006
 21
255.47067279909965
 31
0.0
  0
LINE
  5
189
100
AcDbEntity
  8
0
  6
Continuous
 62
               7
100
AcDbLine
 10
532.81675167519813
 20
254.46495519961746
 30
0.0
 11
533.5207539948359
 21
255.7723880789444
 31
0.0
  0
LINE
  5
18A
100
AcDbEntity
  8
0
  6
Continuous
 62
               7
100
AcDbLine
 10
534.08108237169006
 20
255.47067279909965
 30
0.0
 11
533.5207539948359
 21
255.7723880789444
 31
0.0
  0
LINE
  5
18B
100
AcDbEntity
  8
0
  6
Continuous
 62
               7
100
AcDbLine
 10
537.08865690728442
 20
247.1854754319366
 30
0.0
 11
536.46606982189076
 21
247.52071463176395
 31
0.0
  0
LINE
  5
18C
100
AcDbEntity
  8
0
  6
Continuous
 62
               7
100
AcDbLine
 10
534.08108237169006
 20
255.47067279909965
 30
0.0
 11
534.50252593718744
 21
255.80591199892712
 31
0.0
  0
LINE
  5
18D
100
AcDbEntity
  8
0
  6
Continuous
 62
               2
100
AcDbLine
 10
489.30468699059531
 20
270.30843275962451
 30
0.0
 11
484.51555556448955
 21
268.87169333179276
 31
0.0
  0
LINE
  5
18E
100
AcDbEntity
  8
0
  6
Continuous
 62
               2
100
AcDbLine
 10
489.01733910502901
 20
271.26625904484564
 30
0.0
 11
484.22820767892324
 21
269.82951961701389
 31
0.0
  0
LINE
  5
18F
100
AcDbEntity
  8
0
  6
Continuous
 62
               2
100
AcDbLine
 10
471.68068334252519
 20
262.93317036342154
 30
0.0
 11
472.63850962774643
 21
263.22051824898784
 31
0.0
  0
LINE
  5
190
100
AcDbEntity
  8
0
  6
Continuous
 62
               2
100
AcDbLine
 10
472.63850962774643
 20
263.22051824898784
 30
0.0
 11
484.22820767892324
 21
269.82951961701389
 31
0.0
  0
LINE
  5
191
100
AcDbEntity
  8
0
  6
Continuous
 62
               2
100
AcDbLine
 10
486.52699554828598
 20
283.04752378851532
 30
0.0
 11
467.94516083016276
 21
275.38491207129692
 31
0.0
  0
LINE
  5
192
100
AcDbEntity
  8
0
  6
Continuous
 62
               2
100
AcDbLine
 10
488.11748728431655
 20
266.88927981155888
 30
0.0
 11
471.94901317768097
 21
262.03873757956842
 31
0.0
  0
LINE
  5
193
100
AcDbEntity
  8
0
  6
Continuous
 62
               2
100
AcDbLine
 10
555.61472747468804
 20
293.92977036612274
 30
0.0
 11
547.14953586319928
 21
287.02214629730958
 31
0.0
  0
LINE
  5
194
100
AcDbEntity
  8
0
  6
Continuous
 62
               2
100
AcDbLine
 10
486.52699554828598
 20
283.04752378851526
 30
0.0
 11
547.14953586319928
 21
287.02214629730963
 31
0.0
  0
LINE
  5
195
100
AcDbEntity
  8
0
  6
Continuous
 62
               2
100
AcDbLine
 10
583.73182746046041
 20
309.31247773800555
 30
0.0
 11
508.00841938424071
 21
289.22002189577029
 31
0.0
  0
LINE
  5
196
100
AcDbEntity
  8
0
  6
Continuous
 62
               2
100
AcDbLine
 10
555.61472747468804
 20
293.92977036612274
 30
0.0
 11
600.73182746046052
 21
303.47721960930505
 31
0.0
  0
LINE
  5
197
100
AcDbEntity
  8
0
  6
Continuous
 62
               2
100
AcDbLine
 10
268.2668419083418
 20
207.72540469622254
 30
0.0
 11
259.80165029685304
 21
200.81778062740938
 31
0.0
  0
LINE
  5
198
100
AcDbEntity
  8
0
  6
Continuous
 62
               2
100
AcDbLine
 10
244.28253195854009
 20
199.80029378598567
 30
0.0
 11
259.80165029685304
 21
200.81778062740943
 31
0.0
  0
LINE
  5
199
100
AcDbEntity
  8
0
  6
Continuous
 62
               4
100
AcDbLine
 10
455.24012346154825
 20
317.73502071275055
 30
0.0
 11
466.57327169051837
 21
279.95787415100642
 31
0.0
  0
LINE
  5
19A
100
AcDbEntity
  8
0
  6
Continuous
 62
               4
100
AcDbLine
 10
456.10216900808126
 20
314.86153663786371
 30
0.0
 11
585.65663079139574
 21
353.72787517285644
 31
0.0
  0
LINE
  5
19B
100
AcDbEntity
  8
0
  6
Continuous
 62
               4
100
AcDbLine
 10
311.56618513800674
 20
274.63282301236836
 30
0.0
 11
322.89933336697686
 21
236.85567645062423
 31
0.0
  0
LINE
  5
19C
100
AcDbEntity
  8
0
  6
Continuous
 62
               4
100
AcDbLine
 10
312.42822622490849
 20
271.75935380291367
 30
0.0
 11
232.76237202667187
 21
247.85959754344367
 31
0.0
  0
LINE
  5
19D
100
AcDbEntity
  8
0
  6
Continuous
 62
               4
100
AcDbLine
 10
456.10216900808138
 20
314.86153663786376
 30
0.0
 11
312.42822622490809
 21
271.75935380291355
 31
0.0
  0
LINE
  5
19E
100
AcDbEntity
  8
0
  6
Continuous
 62
               4
100
AcDbLine
 10
378.01204832498041
 20
339.55703661730684
 30
0.0
 11
219.04326621647562
 21
339.55703661730684
 31
0.0
  0
LINE
  5
19F
100
AcDbEntity
  8
0
  6
Continuous
 62
               4
100
AcDbLine
 10
369.3517942871361
 20
354.55703661730684
 30
0.0
 11
219.04326621647562
 21
354.55703661730684
 31
0.0
  0
LINE
  5
1A0
100
AcDbEntity
  8
0
  6
Continuous
 62
               4
100
AcDbLine
 10
386.67230236282484
 20
324.55703661730684
 30
0.0
 11
219.04326621647562
 21
324.55703661730684
 31
0.0
  0
LINE
  5
1A1
100
AcDbEntity
  8
0
  6
Continuous
 62
               4
100
AcDbLine
 10
369.3517942871361
 20
354.55703661730684
 30
0.0
 11
437.21882440696533
 21
237.00789229095497
 31
0.0
  0
CIRCLE
  5
1A2
100
AcDbEntity
  8
0
  6
Continuous
 62
               4
100
AcDbCircle
 10
289.68349098334136
 20
183.35101640585026
 30
0.0
 40
1.5
  0
CIRCLE
  5
1A3
100
AcDbEntity
  8
0
  6
Continuous
 62
               4
100
AcDbCircle
 10
284.51122904314741
 20
200.59188953983107
 30
0.0
 40
1.5
  0
CIRCLE
  5
1A4
100
AcDbEntity
  8
0
  6
Continuous
 62
               4
100
AcDbCircle
 10
578.34605428163331
 20
329.61010105635586
 30
0.0
 40
1.5
  0
CIRCLE
  5
1A5
100
AcDbEntity
  8
0
  6
Continuous
 62
               4
100
AcDbCircle
 10
500.98194231771993
 20
309.08230069845268
 30
0.0
 40
1.5
  0
CIRCLE
  5
1A6
100
AcDbEntity
  8
0
  6
Continuous
 62
               4
100
AcDbCircle
 10
562.73182746046041
 20
309.31247773800555
 30
0.0
 40
1.5
  0
CIRCLE
  5
1A7
100
AcDbEntity
  8
0
  6
Continuous
 62
               4
100
AcDbCircle
 10
562.73182746046041
 20
409.31247773800567
 30
0.0
 40
1.5
  0
CIRCLE
  5
1A8
100
AcDbEntity
  8
0
  6
Continuous
 62
               4
100
AcDbCircle
 10
562.73182746046041
 20
409.31247773800567
 30
0.0
 40
1.5
  0
CIRCLE
  5
1A9
100
AcDbEntity
  8
0
  6
Continuous
 62
               4
100
AcDbCircle
 10
562.73182746046041
 20
429.31247773800567
 30
0.0
 40
1.5
  0
CIRCLE
  5
1AA
100
AcDbEntity
  8
0
  6
Continuous
 62
               4
100
AcDbCircle
 10
585.65663079139574
 20
353.72787517285644
 30
0.0
 40
1.5
  0
CIRCLE
  5
1AB
100
AcDbEntity
  8
0
  6
Continuous
 62
               4
100
AcDbCircle
 10
456.10217195835651
 20
314.86153992488084
 30
0.0
 40
1.5
  0
CIRCLE
  5
1AC
100
AcDbEntity
  8
0
  6
Continuous
 62
               4
100
AcDbCircle
 10
456.10216834699816
 20
314.8615388414733
 30
0.0
 40
1.5
  0
CIRCLE
  5
1AD
100
AcDbEntity
  8
0
  6
Continuous
 62
               4
100
AcDbCircle
 10
312.42822622490809
 20
271.75935380291361
 30
0.0
 40
1.5
  0
CIRCLE
  5
1AE
100
AcDbEntity
  8
0
  6
Continuous
 62
               4
100
AcDbCircle
 10
437.21882440696533
 20
237.00789229095497
 30
0.0
 40
1.5
  0
CIRCLE
  5
1AF
100
AcDbEntity
  8
0
  6
Continuous
 62
               4
100
AcDbCircle
 10
431.31033343821792
 20
247.2416988448874
 30
0.0
 40
1.5
  0
CIRCLE
  5
1B0
100
AcDbEntity
  8
0
  6
Continuous
 62
               4
100
AcDbCircle
 10
427.55572152195987
 20
253.74487744654959
 30
0.0
 40
1.5
  0
ARC
  5
1B1
100
AcDbEntity
  8
0
  6
Continuous
 62
               6
100
AcDbCircle
 10
565.96718119882746
 20
261.43358257596037
 30
0.0
 40
2.2999999523162842
100
AcDbArc
 50
16.699244233992928
 51
106.69924423399296
  0
ARC
  5
1B2
100
AcDbEntity
  8
0
  6
Continuous
 62
               6
100
AcDbCircle
 10
565.96718119882746
 20
261.43358257596037
 30
0.0
 40
4.5999999046325684
100
AcDbArc
 50
16.699244233992928
 51
106.69924423399296
  0
ARC
  5
1B3
100
AcDbEntity
  8
0
  6
Continuous
 62
               6
100
AcDbCircle
 10
526.8878685791135
 20
249.70978879004667
 30
0.0
 40
2.2999999523162842
100
AcDbArc
 50
106.69924423399296
 51
196.69924423399286
  0
ARC
  5
1B4
100
AcDbEntity
  8
0
  6
Continuous
 62
               6
100
AcDbCircle
 10
526.8878685791135
 20
249.70978879004667
 30
0.0
 40
4.5999999046325684
100
AcDbArc
 50
106.69924423399296
 51
196.69924423399286
  0
ARC
  5
1B5
100
AcDbEntity
  8
0
  6
Continuous
 62
               6
100
AcDbCircle
 10
552.97905664334382
 20
162.7391619092748
 30
0.0
 40
4.5999999046325684
100
AcDbArc
 50
196.69924423399286
 51
286.69924423399289
  0
ARC
  5
1B6
100
AcDbEntity
  8
0
  6
Continuous
 62
               6
100
AcDbCircle
 10
552.97905664334382
 20
162.7391619092748
 30
0.0
 40
2.2999999523162842
100
AcDbArc
 50
196.69924423399286
 51
286.69924423399289
  0
ARC
  5
1B7
100
AcDbEntity
  8
0
  6
Continuous
 62
               6
100
AcDbCircle
 10
592.0583692630579
 20
174.4629556951885
 30
0.0
 40
2.2999999523162842
100
AcDbArc
 50
286.69924423399289
 51
16.699244233992943
  0
ARC
  5
1B8
100
AcDbEntity
  8
0
  6
Continuous
 62
               6
100
AcDbCircle
 10
592.0583692630579
 20
174.4629556951885
 30
0.0
 40
4.5999999046325684
100
AcDbArc
 50
286.69924423399289
 51
16.699244233992943
  0
ARC
  5
1B9
100
AcDbEntity
  8
0
  6
Continuous
 62
               2
100
AcDbCircle
 10
508.44376389990873
 20
287.5793180080766
 30
0.0
 40
1.697478746381107
100
AcDbArc
 50
104.86043259965358
 51
269.86043259965322
  0
ARC
  5
1BA
100
AcDbEntity
  8
0
  6
Continuous
 62
               6
100
AcDbCircle
 10
556.14849412712704
 20
419.31247773800567
 30
0.0
 40
34.083333333333343
100
AcDbArc
 50
342.93846878010368
 51
17.061531219896253
  0
ARC
  5
1BB
100
AcDbEntity
  8
0
  6
Continuous
 62
               7
100
AcDbCircle
 10
598.73182746046052
 20
439.31247773800578
 30
0.0
 40
2.0
100
AcDbArc
 50
180.0
 51
270.0
  0
ARC
  5
1BC
100
AcDbEntity
  8
0
  6
Continuous
 62
               7
100
AcDbCircle
 10
624.80225047512181
 20
417.6998359212464
 30
0.0
 40
0.5591073560238961
100
AcDbArc
 50
99.999999999995566
 51
260.00000000000676
  0
ARC
  5
1BD
100
AcDbEntity
  8
0
  6
Continuous
 62
               7
100
AcDbCircle
 10
600.69659963461379
 20
413.89983592124565
 30
0.0
 40
0.7
100
AcDbArc
 50
270.00000000000119
 51
345.96375653208702
  0
ARC
  5
1BE
100
AcDbEntity
  8
0
  6
Continuous
 62
               7
100
AcDbCircle
 10
600.69659963461356
 20
421.49983592124681
 30
0.0
 40
0.7
100
AcDbArc
 50
14.036243467915355
 51
90.000000000000028
  0
ARC
  5
1BF
100
AcDbEntity
  8
0
  6
Continuous
 62
               7
100
AcDbCircle
 10
600.04314311909752
 20
420.39983592124725
 30
0.0
 40
0.3
100
AcDbArc
 50
90.000000000001123
 51
180.0
  0
ARC
  5
1C0
100
AcDbEntity
  8
0
  6
Continuous
 62
               7
100
AcDbCircle
 10
600.04314311909752
 20
414.99983592124579
 30
0.0
 40
0.3
100
AcDbArc
 50
180.00000000000108
 51
270.00000000000119
  0
ARC
  5
1C1
100
AcDbEntity
  8
0
  6
Continuous
 62
               7
100
AcDbCircle
 10
624.89203143008058
 20
389.72387348767529
 30
0.0
 40
0.5591073560238961
100
AcDbArc
 50
99.999999999995566
 51
260.00000000000676
  0
ARC
  5
1C2
100
AcDbEntity
  8
0
  6
Continuous
 62
               7
100
AcDbCircle
 10
600.7863805895729
 20
385.92387348767465
 30
0.0
 40
0.7
100
AcDbArc
 50
270.00000000000119
 51
345.96375653208702
  0
ARC
  5
1C3
100
AcDbEntity
  8
0
  6
Continuous
 62
               7
100
AcDbCircle
 10
600.78638058957256
 20
393.52387348767581
 30
0.0
 40
0.7
100
AcDbArc
 50
14.036243467915355
 51
90.000000000000028
  0
ARC
  5
1C4
100
AcDbEntity
  8
0
  6
Continuous
 62
               7
100
AcDbCircle
 10
600.13292407405663
 20
392.42387348767625
 30
0.0
 40
0.3
100
AcDbArc
 50
90.000000000001123
 51
180.0
  0
ARC
  5
1C5
100
AcDbEntity
  8
0
  6
Continuous
 62
               7
100
AcDbCircle
 10
600.13292407405663
 20
387.02387348767468
 30
0.0
 40
0.3
100
AcDbArc
 50
180.00000000000108
 51
270.00000000000119
  0
ARC
  5
1C6
100
AcDbEntity
  8
0
  6
Continuous
 62
               4
100
AcDbCircle
 10
343.06175740737103
 20
228.2308535703105
 30
0.0
 40
8.0
100
AcDbArc
 50
52.083862041260424
 51
112.50835617800766
  0
ARC
  5
1C7
100
AcDbEntity
  8
0
  6
Continuous
 62
               4
100
AcDbCircle
 10
359.5841809912929
 20
235.64214293496673
 30
0.0
 40
8.0
100
AcDbArc
 50
232.0838620412604
 51
286.69924423399289
  0
ARC
  5
1C8
100
AcDbEntity
  8
0
  6
Continuous
 62
               4
100
AcDbCircle
 10
330.91767989825598
 20
227.52836724697704
 30
0.0
 40
4.0
100
AcDbArc
 50
112.50835617800766
 51
196.69924423399286
  0
ARC
  5
1C9
100
AcDbEntity
  8
0
  6
Continuous
 62
               4
100
AcDbCircle
 10
329.27951080451999
 20
226.02872655348983
 30
0.0
 40
2.0
100
AcDbArc
 50
196.69924423399263
 51
286.69924423399272
  0
ARC
  5
1CA
100
AcDbEntity
  8
0
  6
Continuous
 62
               7
100
AcDbCircle
 10
360.89720074514821
 20
201.25408202352207
 30
0.0
 40
30.0
100
AcDbArc
 50
1.5620294067002536
 51
19.691546246868189
  0
ARC
  5
1CB
100
AcDbEntity
  8
0
  6
Continuous
 62
               2
100
AcDbCircle
 10
345.48707026463921
 20
227.68516306728486
 30
0.0
 40
0.5
100
AcDbArc
 50
286.699244233993
 51
106.699244233993
  0
ARC
  5
1CC
100
AcDbEntity
  8
0
  6
Continuous
 62
               4
100
AcDbCircle
 10
486.73570019054398
 20
271.33303640526066
 30
0.0
 40
8.0
100
AcDbArc
 50
52.083862041260424
 51
112.50835617800766
  0
ARC
  5
1CD
100
AcDbEntity
  8
0
  6
Continuous
 62
               4
100
AcDbCircle
 10
503.25812377446584
 20
278.74432576991688
 30
0.0
 40
8.0
100
AcDbArc
 50
232.0838620412604
 51
286.69924423399289
  0
ARC
  5
1CE
100
AcDbEntity
  8
0
  6
Continuous
 62
               4
100
AcDbCircle
 10
474.59162268142893
 20
270.6305500819272
 30
0.0
 40
4.0
100
AcDbArc
 50
112.50835617800766
 51
196.69924423399286
  0
ARC
  5
1CF
100
AcDbEntity
  8
0
  6
Continuous
 62
               4
100
AcDbCircle
 10
472.95345358769293
 20
269.13090938843999
 30
0.0
 40
2.0
100
AcDbArc
 50
196.69924423399263
 51
286.69924423399272
  0
ARC
  5
1D0
100
AcDbEntity
  8
0
  6
Continuous
 62
               7
100
AcDbCircle
 10
504.57114352832116
 20
244.35626485847223
 30
0.0
 40
30.0
100
AcDbArc
 50
1.5620294067002536
 51
19.691546246868189
  0
ARC
  5
1D1
100
AcDbEntity
  8
0
  6
Continuous
 62
               2
100
AcDbCircle
 10
489.16101304781216
 20
270.78734590223502
 30
0.0
 40
0.5
100
AcDbArc
 50
286.699244233993
 51
106.699244233993
  0
TEXT
  5
1D2
100
AcDbEntity
  8
0
 62
               7
100
AcDbText
 10
287.15515098984508
 20
197.00026593215682
 30
0.0
 40
9.600000381469739
  1
18
 50
286.6992667887929
 41
0.7695
  7
FontTableH_0
 72
               5
 11
289.91369442061097
 21
187.80513431456714
 31
0.0
100
AcDbText
  0
TEXT
  5
1D3
100
AcDbEntity
  8
0
 62
               7
100
AcDbText
 10
534.64031944687633
 20
319.56545147903182
 30
0.0
 40
9.600000381469739
  1
80
 50
14.860405011156294
 41
0.7695
  7
FontTableH_0
 72
               5
 11
543.91923383310666
 21
322.0275146661225
 31
0.0
100
AcDbText
  0
TEXT
  5
1D4
100
AcDbEntity
  8
0
 62
               7
100
AcDbText
 10
561.23400841172008
 20
352.11104474075057
 30
0.0
 40
9.600000381469739
  1
100
 50
89.999982013910653
 41
0.7695
  7
FontTableH_0
 72
               5
 11
561.23401293211759
 21
366.51104531295448
 31
0.0
100
AcDbText
  0
TEXT
  5
1D5
100
AcDbEntity
  8
0
 62
               7
100
AcDbText
 10
561.23400841172008
 20
414.51161847121932
 30
0.0
 40
9.600000381469739
  1
20
 50
89.999982013910653
 41
0.7695
  7
FontTableH_0
 72
               5
 11
561.23401142531839
 21
424.11161885268859
 31
0.0
100
AcDbText
  0
TEXT
  5
1D6
100
AcDbEntity
  8
0
 62
               7
100
AcDbText
 10
474.20434532578258
 20
400.92653546340682
 30
0.0
 40
8.9999997615814333
  1
雨押え：屋根同材
 41
0.7695
  7
FontTableH_0
 72
               5
 11
546.20434341843406
 21
400.92653546340682
 31
0.0
100
AcDbText
  0
TEXT
  5
1D7
100
AcDbEntity
  8
0
 62
               7
100
AcDbText
 10
484.33129845078258
 20
450.81185040481307
 30
0.0
 40
8.9999997615814333
  1
コーキング（別途）
 41
0.7695
  7
FontTableH_0
 72
               5
 11
565.33129630501548
 21
450.81185040481307
 31
0.0
100
AcDbText
  0
TEXT
  5
1D8
100
AcDbEntity
  8
0
 62
               7
100
AcDbText
 10
468.42181358750133
 20
320.12380108840682
 30
0.0
 40
9.600000381469739
  1
（割付により調整）
 50
16.699255860263833
 41
0.7695
  7
FontTableH_0
 72
               5
 11
551.17800288125875
 21
344.95067618048267
 31
0.0
100
AcDbText
  0
TEXT
  5
1D9
100
AcDbEntity
  8
0
 62
               7
100
AcDbText
 10
726.78679823333368
 20
26.713203554805766
 30
0.0
 40
8.9999997615814333
  1
水上壁取合い詳細図 【S=1/3】
 41
0.7695
  7
FontTableH_0
 72
               5
 11
852.7867948954738
 21
26.713203554805766
 31
0.0
100
AcDbText
  0
TEXT
  5
1DA
100
AcDbEntity
  8
0
 62
               7
100
AcDbText
 10
375.55468252422799
 20
292.2623488547647
 30
0.0
 40
9.6000003814695791
  1
150
 50
16.699255860263374
 41
0.7695
  7
FontTableH_0
 72
               5
 11
389.34738073985437
 21
296.4001613701106
 31
0.0
100
AcDbText
  0
TEXT
  5
1DB
100
AcDbEntity
  8
0
 62
               7
100
AcDbText
 10
222.04378984293004
 20
341.05815702655866
 30
0.0
 40
8.9999997615814866
  1
アスファルトルーフィング 22Kg
 41
0.7695
  7
FontTableH_0
 72
               5
 11
333.35260767834541
 21
341.05815702655866
 31
0.0
100
AcDbText
  0
TEXT
  5
1DC
100
AcDbEntity
  8
0
 62
               7
100
AcDbText
 10
222.04378984293004
 20
326.05815702655866
 30
0.0
 40
8.9999997615814866
  1
硬質木片セメント板 18mm
 41
0.7695
  7
FontTableH_0
 72
               5
 11
307.06164737747486
 21
326.05815702655866
 31
0.0
100
AcDbText
  0
TEXT
  5
1DD
100
AcDbEntity
  8
0
 62
               7
100
AcDbText
 10
222.04378984293004
 20
356.05821806171491
 30
0.0
 40
8.9999997615814866
  1
ハーパーズルーフ150：各種金属板
 41
0.7695
  7
FontTableH_0
 72
               5
 11
346.04378748192397
 21
356.05821806171491
 31
0.0
100
AcDbText
  0
TEXT
  5
1DE
100
AcDbEntity
  8
0
 62
               7
100
AcDbText
 10
46.392136756219159
 20
601.35786449547834
 30
0.0
 40
8.9999997615814333
  1
ハーパーズルーフ150
 41
0.7695
  7
FontTableH_0
 72
               5
 11
131.89213449124279
 21
601.35786449547834
 31
0.0
100
AcDbText
  0
TEXT
  5
1DF
100
AcDbEntity
  8
0
 62
               7
100
AcDbText
 10
261.47958033710484
 20
258.04089803209155
 30
0.0
 40
9.6000000000000103
  1
@150
 50
16.699255860263833
 41
0.7695
  7
FontTableH_0
 72
               5
 11
279.86984389384304
 21
263.55798116665699
 31
0.0
100
AcDbText
  0
ENDSEC
  0
SECTION
  2
OBJECTS
  0
DICTIONARY
  5
19
100
AcDbDictionary
  3
ACAD_GROUP
350
1A
  3
ACAD_MLINESTYLE
350
1B
  3
DWGPROPS
350
1E0
  0
DICTIONARY
  5
1A
102
{ACAD_REACTORS
330
19
102
}
100
AcDbDictionary
  0
DICTIONARY
  5
1B
102
{ACAD_REACTORS
330
19
102
}
100
AcDbDictionary
  3
STANDARD
350
1C
  0
MLINESTYLE
  5
1C
102
{ACAD_REACTORS
330
1B
102
}
100
AcDbMlineStyle
  2
Standard
 70
               0
  3

 62
               0
 51
90.0
 52
90.0
 71
               2
 49
0.5
 62
             256
  6
ByLayer
 49
-0.5
 62
             256
  6
ByLayer
  0
XRECORD
  5
1E0
100
AcDbXrecord
  1
DWGPROPS COOKIE
  2

  3

  4

  6

  7

  0
ENDSEC
  0
EOF
